  0
SECTION
  2
HEADER
  9
$ACADVER
  1
AC1009
  9
$INSBASE
 10
0.0
 20
0.0
 30
0.0
  9
$EXTMIN
 10
0.0
 20
-2.960436562073669
 30
0.0
  9
$EXTMAX
 10
557.96552534442355
 20
424.18588227445468
 30
0.0
  9
$LIMMIN
 10
0.0
 20
0.0
  9
$LIMMAX
 10
375.0
 20
270.0
  9
$ORTHOMODE
 70
     1
  9
$REGENMODE
 70
     1
  9
$FILLMODE
 70
     1
  9
$QTEXTMODE
 70
     0
  9
$MIRRTEXT
 70
     1
  9
$DRAGMODE
 70
     2
  9
$LTSCALE
 40
10.0
  9
$OSMODE
 70
  3071
  9
$ATTMODE
 70
     1
  9
$TEXTSIZE
 40
5.0
  9
$TRACEWID
 40
0.05
  9
$TEXTSTYLE
  7
STANDARD
  9
$CLAYER
  8
0
  9
$CELTYPE
  6
BYLAYER
  9
$CECOLOR
 62
     6
  9
$DIMSCALE
 40
2.0
  9
$DIMASZ
 40
3.0
  9
$DIMEXO
 40
2.0
  9
$DIMDLI
 40
0.38
  9
$DIMRND
 40
0.0
  9
$DIMDLE
 40
0.0
  9
$DIMEXE
 40
2.0
  9
$DIMTP
 40
0.0
  9
$DIMTM
 40
0.0
  9
$DIMTXT
 40
3.2000000000000002
  9
$DIMCEN
 40
0.0
  9
$DIMTSZ
 40
0.0
  9
$DIMTOL
 70
     0
  9
$DIMLIM
 70
     0
  9
$DIMTIH
 70
     0
  9
$DIMTOH
 70
     0
  9
$DIMSE1
 70
     0
  9
$DIMSE2
 70
     0
  9
$DIMTAD
 70
     1
  9
$DIMZIN
 70
     8
  9
$DIMBLK
  1

  9
$DIMASO
 70
     0
  9
$DIMSHO
 70
     0
  9
$DIMPOST
  1

  9
$DIMAPOST
  1

  9
$DIMALT
 70
     0
  9
$DIMALTD
 70
     2
  9
$DIMALTF
 40
25.399999999999999
  9
$DIMLFAC
 40
1.0
  9
$DIMTOFL
 70
     0
  9
$DIMTVP
 40
1.6000000000000001
  9
$DIMTIX
 70
     1
  9
$DIMSOXD
 70
     0
  9
$DIMSAH
 70
     0
  9
$DIMBLK1
  1

  9
$DIMBLK2
  1

  9
$DIMSTYLE
  2
STANDARD
  9
$DIMCLRD
 70
     0
  9
$DIMCLRE
 70
     0
  9
$DIMCLRT
 70
     0
  9
$DIMTFAC
 40
1.0
  9
$DIMGAP
 40
1.1999999999999991
  9
$LUNITS
 70
     2
  9
$LUPREC
 70
     4
  9
$SKETCHINC
 40
0.1
  9
$FILLETRAD
 40
0.0
  9
$AUNITS
 70
     0
  9
$AUPREC
 70
     4
  9
$MENU
  1
ACAD
  9
$ELEVATION
 40
0.0
  9
$PELEVATION
 40
0.0
  9
$THICKNESS
 40
0.0
  9
$LIMCHECK
 70
     0
  9
$BLIPMODE
 70
     0
  9
$CHAMFERA
 40
0.0
  9
$CHAMFERB
 40
0.0
  9
$SKPOLY
 70
     0
  9
$TDCREATE
 40
2448055.7149187499
  9
$TDUPDATE
 40
2456598.5609151619
  9
$TDINDWG
 40
2.5347643633999999
  9
$TDUSRTIMER
 40
2.5347643633999999
  9
$USRTIMER
 70
     1
  9
$ANGBASE
 50
0.0
  9
$ANGDIR
 70
     0
  9
$PDMODE
 70
     0
  9
$PDSIZE
 40
0.0
  9
$PLINEWID
 40
0.0
  9
$COORDS
 70
     1
  9
$SPLFRAME
 70
     0
  9
$SPLINETYPE
 70
     6
  9
$SPLINESEGS
 70
     8
  9
$ATTDIA
 70
     0
  9
$ATTREQ
 70
     1
  9
$HANDLING
 70
     1
  9
$HANDSEED
  5
25911
  9
$SURFTAB1
 70
     6
  9
$SURFTAB2
 70
     6
  9
$SURFTYPE
 70
     6
  9
$SURFU
 70
     6
  9
$SURFV
 70
     6
  9
$UCSNAME
  2

  9
$UCSORG
 10
0.0
 20
0.0
 30
0.0
  9
$UCSXDIR
 10
1.0
 20
0.0
 30
0.0
  9
$UCSYDIR
 10
0.0
 20
1.0
 30
0.0
  9
$PUCSNAME
  2

  9
$PUCSORG
 10
0.0
 20
0.0
 30
0.0
  9
$PUCSXDIR
 10
1.0
 20
0.0
 30
0.0
  9
$PUCSYDIR
 10
0.0
 20
1.0
 30
0.0
  9
$USERI1
 70
     0
  9
$USERI2
 70
     0
  9
$USERI3
 70
     0
  9
$USERI4
 70
     0
  9
$USERI5
 70
     0
  9
$USERR1
 40
0.0
  9
$USERR2
 40
0.0
  9
$USERR3
 40
0.0
  9
$USERR4
 40
0.0
  9
$USERR5
 40
0.0
  9
$WORLDVIEW
 70
     1
  9
$SHADEDGE
 70
     3
  9
$SHADEDIF
 70
    70
  9
$TILEMODE
 70
     1
  9
$MAXACTVP
 70
    16
  9
$PLIMCHECK
 70
     0
  9
$PEXTMIN
 10
1.0000000000000000E+020
 20
1.0000000000000000E+020
 30
1.0000000000000000E+020
  9
$PEXTMAX
 10
-1.0000000000000000E+020
 20
-1.0000000000000000E+020
 30
-1.0000000000000000E+020
  9
$PLIMMIN
 10
0.0
 20
0.0
  9
$PLIMMAX
 10
12.0
 20
9.0
  9
$UNITMODE
 70
     0
  9
$VISRETAIN
 70
     0
  9
$PLINEGEN
 70
     1
  9
$PSLTSCALE
 70
     0
  0
ENDSEC
  0
SECTION
  2
TABLES
  0
TABLE
  2
VPORT
 70
     1
  0
VPORT
  2
*ACTIVE
 70
     0
 10
0.0
 20
0.0
 11
1.0
 21
1.0
 12
290.81971405165751
 22
210.6042526559182
 13
0.0
 23
0.0
 14
5.0
 24
5.0
 15
10.0
 25
10.0
 16
0.0
 26
0.0
 36
1.0
 17
0.0
 27
0.0
 37
0.0
 40
431.02044430221798
 41
1.831871345029239
 42
50.0
 43
0.0
 44
0.0
 50
0.0
 51
0.0
 71
     0
 72
   500
 73
     1
 74
     1
 75
     0
 76
     0
 77
     0
 78
     2
  0
ENDTAB
  0
TABLE
  2
LTYPE
 70
     3
  0
LTYPE
  2
CONTINUOUS
 70
     0
  3
実線
 72
    65
 73
     0
 40
0.0
  0
LTYPE
  2
CENTER
 70
     0
  3
____ _ ____ _ ____ _ ____ _ ____ _ ____ _ ____
 72
    65
 73
     4
 40
2.0
 49
1.25
 49
-0.25
 49
0.25
 49
-0.25
  0
LTYPE
  2
PHANTOM2
 70
     0
  3
___ _ _ ___ _ _ ___ _ _ ___ _ _
 72
    65
 73
     6
 40
1.25
 49
0.625
 49
-0.125
 49
0.125
 49
-0.125
 49
0.125
 49
-0.125
  0
ENDTAB
  0
TABLE
  2
LAYER
 70
     4
  0
LAYER
  2
0
 70
     0
 62
     7
  6
CONTINUOUS
  0
LAYER
  2
1
 70
     0
 62
     1
  6
CENTER
  0
LAYER
  2
DEFPOINTS
 70
     0
 62
     7
  6
CONTINUOUS
  0
LAYER
  2
3
 70
     0
 62
     3
  6
CONTINUOUS
  0
ENDTAB
  0
TABLE
  2
STYLE
 70
     3
  0
STYLE
  2
STANDARD
 70
     0
 40
0.0
 41
1.0
 50
0.0
 71
     0
 42
5.0
  3
simplex.shx
  4
bigfont.shx
  0
STYLE
  2
07500
 70
     0
 40
0.0
 41
0.75
 50
0.0
 71
     0
 42
0.2
  3
simplex.shx
  4
bigfont.shx
  0
STYLE
  2
STANDARD1
 70
     0
 40
0.0
 41
1.0
 50
0.0
 71
     0
 42
3.0
  3
txt
  4

  0
ENDTAB
  0
TABLE
  2
VIEW
 70
     2
  0
VIEW
  2
ALL
 70
     0
 40
270.0
 10
220.99159663865549
 20
135.0
 41
0.0
 11
0.0
 21
0.0
 31
1.0
 12
0.0
 22
0.0
 32
0.0
 42
0.0
 43
0.0
 44
0.0
 50
0.0
 71
     0
  0
VIEW
  2
OLE1
 70
     0
 40
168.2487151179721
 10
2892.3009567448912
 20
702.51600084347126
 41
162.5749581879237
 11
0.0
 21
0.0
 31
1.0
 12
0.0
 22
0.0
 32
0.0
 42
50.0
 43
0.0
 44
0.0
 50
0.0
 71
     0
  0
ENDTAB
  0
TABLE
  2
UCS
 70
     0
  0
ENDTAB
  0
TABLE
  2
APPID
 70
    48
  0
APPID
  2
ACAD
 70
     0
  0
APPID
  2
DCO15
 70
     0
  0
APPID
  2
GENIUS_GENOREF_13
 70
     0
  0
APPID
  2
GENIUS_GENOENT_13
 70
     0
  0
APPID
  2
GENIUS_GENBH_13
 70
     0
  0
APPID
  2
GENIUS_GENOBJ_13
 70
     0
  0
APPID
  2
GENIUS_GENODEF_13
 70
     0
  0
APPID
  2
GENIUS_GENOLIS_13
 70
     0
  0
APPID
  2
GENIUS_GENOBJ-NBEHI-BHF_13
 70
     0
  0
APPID
  2
GENIUS_GENOBJ-NBEHI-BHB_13
 70
     0
  0
APPID
  2
GENIUS_GENOBJ-F-PART_13
 70
     0
  0
APPID
  2
GENIUS_GEFSTDP_13
 70
     0
  0
APPID
  2
GENIUS_GENOBJ-N-RSSYM_13
 70
     0
  0
APPID
  2
GENIUS_GENSYMENT_13
 70
     0
  0
APPID
  2
GENIUS_GENOBJ-N-TIT_13
 70
     0
  0
APPID
  2
GENIUS_GENTITLE_13
 70
     0
  0
APPID
  2
GENIUS_GENZVEED_13
 70
     0
  0
APPID
  2
GENIUS_GENOBJ-N-LEADER_13
 70
     0
  0
APPID
  2
GENIUS_GENOBJ-N-FIL_13
 70
     0
  0
APPID
  2
GENIUS_GENOBJ-N-SEC_13
 70
     0
  0
APPID
  2
GENIUS_GENOBJ-N-CRS_13
 70
     0
  0
APPID
  2
GENIUS_GENOBJ-N-ZOO_13
 70
     0
  0
APPID
  2
GENIUS_GENZOO_13
 70
     0
  0
APPID
  2
GENIUS_GENOBJ-F-TOL_13
 70
     0
  0
APPID
  2
GENIUS_GENFIL_13
 70
     0
  0
APPID
  2
GENIUS_GENOBJ-N-CHA_13
 70
     0
  0
APPID
  2
_CALL_MAC$
 70
     0
  0
APPID
  2
ASM_BASE
 70
     0
  0
APPID
  2
ASM_EXPLO_VER_2_00
 70
     0
  0
APPID
  2
ASM_CADM_VER_12_00
 70
     0
  0
APPID
  2
ASM_BASEFORO
 70
     0
  0
APPID
  2
ASM_BASETRAVI
 70
     0
  0
APPID
  2
ASM_BASETRAVI1
 70
     0
  0
APPID
  2
ASM_GRUPPI
 70
     0
  0
APPID
  2
ASM_CADM_ALBERO
 70
     0
  0
APPID
  2
ASM_GOLE
 70
     0
  0
APPID
  2
ACAD_MLEADERVER
 70
     0
  0
APPID
  2
ACAD_DSTYLE_DIMJAG
 70
     0
  0
APPID
  2
ACAD_DSTYLE_DIMTALN
 70
     0
  0
APPID
  2
ACAD_EXEMPT_FROM_CAD_STANDARDS
 70
     0
  0
APPID
  2
ACAD_DSTYLE_DIMRADIAL_EXTENSION
 70
     0
  0
APPID
  2
ACAD_PSEXT
 70
     0
  0
APPID
  2
ACAD_DSTYLE_DIMBREAK
 70
     0
  0
APPID
  2
ACAECLAYERSTANDARD
 70
     0
  0
APPID
  2
ACCMTRANSPARENCY
 70
     0
  0
APPID
  2
GRADIENTCOLOR1ACI
 70
     0
  0
APPID
  2
GRADIENTCOLOR2ACI
 70
     0
  0
APPID
  2
ACAD_NAV_VCDISPLAY
 70
     0
  0
ENDTAB
  0
TABLE
  2
DIMSTYLE
 70
     1
  0
DIMSTYLE
  2
STANDARD
 70
     0
  3

  4

  5

  6

  7

 40
1.0
 41
0.18
 42
0.0625
 43
0.38
 44
0.18
 45
0.0
 46
0.0
 47
0.0
 48
0.0
140
0.18
141
0.09
142
0.0
143
25.399999999999999
144
1.0
145
0.0
146
1.0
147
0.09
 71
     0
 72
     0
 73
     1
 74
     1
 75
     0
 76
     0
 77
     0
 78
     0
170
     0
171
     2
172
     0
173
     0
174
     0
175
     0
176
     0
177
     0
178
     0
  0
ENDTAB
  0
ENDSEC
  0
SECTION
  2
BLOCKS
  0
BLOCK
  8
0
  2
$MODEL_SPACE
 70
     0
 10
0.0
 20
0.0
 30
0.0
  3
$MODEL_SPACE
  1

  0
ENDBLK
  5
36
  8
0
  0
BLOCK
 67
     1
  8
0
  2
$PAPER_SPACE
 70
     0
 10
0.0
 20
0.0
 30
0.0
  3
$PAPER_SPACE
  1

  0
ENDBLK
  5
34
 67
     1
  8
0
  0
ENDSEC
  0
SECTION
  2
ENTITIES
  0
LINE
  5
2530C
  8
0
 10
317.40231598399282
 20
233.54257679779141
 30
0.0
 11
318.76003373544791
 21
225.84257679779151
 31
0.0
  0
LINE
  5
2530D
  8
0
 10
389.04459823253751
 20
225.84257679779151
 30
0.0
 11
390.40231598399282
 21
233.54257679779141
 31
0.0
  0
LINE
  5
2530E
  8
0
 10
317.40231598399282
 20
225.84257679779151
 30
0.0
 11
317.40231598399282
 21
221.84257679779151
 31
0.0
  0
LINE
  5
2530F
  8
0
 10
390.40231598399282
 20
221.84257679779151
 30
0.0
 11
390.40231598399282
 21
225.84257679779151
 31
0.0
  0
LINE
  5
25310
  8
0
 10
321.05231598399268
 20
234.34257679779151
 30
0.0
 11
321.05231598399268
 21
233.54257679779141
 31
0.0
  0
LINE
  5
25311
  8
0
 10
386.75231598399267
 20
233.54257679779141
 30
0.0
 11
386.75231598399267
 21
234.34257679779151
 31
0.0
  0
LINE
  5
25318
  8
0
 10
403.90231598399282
 20
234.34257679779151
 30
0.0
 11
403.90231598399282
 21
236.84257679779139
 31
0.0
  0
LINE
  5
2531B
  8
0
 10
303.90231598399282
 20
234.34257679779151
 30
0.0
 11
403.90231598399271
 21
234.34257679779139
 31
0.0
  0
LINE
  5
2531C
  8
0
 10
303.90231598399282
 20
234.34257679779151
 30
0.0
 11
303.90231598399282
 21
236.84257679779139
 31
0.0
  0
LINE
  5
2531D
  8
0
 10
303.90231598399282
 20
236.84257679779139
 30
0.0
 11
403.90231598399271
 21
236.84257679779139
 31
0.0
  0
LINE
  5
2531F
  8
0
 10
317.40231598399282
 20
233.54257679779141
 30
0.0
 11
390.40231598399282
 21
233.54257679779141
 31
0.0
  0
ARC
  5
25320
  8
0
 10
323.60231598399292
 20
158.8425767977912
 30
0.0
 40
9.9999999999997566
 50
287.6591712490785
 51
319.57538944231783
  0
LINE
  5
25321
  8
0
 10
326.63585719301659
 20
221.84257679779151
 30
0.0
 11
326.63585719301659
 21
149.31379787637891
 31
0.0
  0
LINE
  5
25323
  8
0
 10
317.40231598399282
 20
225.84257679779151
 30
0.0
 11
390.40231598399282
 21
225.84257679779151
 31
0.0
  0
LINE
  5
25324
  8
0
 10
390.40231598399282
 20
221.84257679779151
 30
0.0
 11
331.2149144534078
 21
152.35810730958639
 31
0.0
  0
LINE
  5
25325
  8
0
 10
310.10231598399292
 20
216.34257679779151
 30
0.0
 11
304.25548984151368
 21
159.87245528154509
 31
0.0
  0
LINE
  5
25326
  8
0
 10
326.63585719301659
 20
221.84257679779151
 30
0.0
 11
310.10231598399292
 21
221.84257679779151
 31
0.0
  0
ARC
  5
25327
  8
0
 10
314.20231598399317
 20
158.84257679779191
 30
0.0
 40
10.00000000000054
 50
174.08874976213951
 51
270.0
  0
LINE
  5
25328
  8
0
 10
310.10231598399292
 20
221.84257679779151
 30
0.0
 11
310.10231598399292
 21
216.34257679779151
 31
0.0
  0
LINE
  5
25329
  8
0
 10
314.20231598399278
 20
148.84257679779131
 30
0.0
 11
323.60231598399292
 21
148.84257679779131
 31
0.0
  0
ARC
  5
2532A
  8
0
 10
323.60231598399258
 20
158.84257679779159
 30
0.0
 40
10.000000000000281
 50
270.0
 51
287.65917124908538
  0
LINE
  5
2534E
  8
0
 10
85.839106623562074
 20
225.84257679779151
 30
0.0
 11
85.839106623562074
 21
178.992526436839
 31
0.0
  0
LINE
  5
2534F
  8
0
 10
158.83910662356169
 20
178.99252643683869
 30
0.0
 11
158.83910662356169
 21
225.84257679779151
 31
0.0
  0
LINE
  5
25350
  8
0
 10
85.839106623562074
 20
233.54257679779141
 30
0.0
 11
87.196824375017172
 21
225.84257679779151
 31
0.0
  0
LINE
  5
25351
  8
0
 10
157.48138887210689
 20
225.84257679779151
 30
0.0
 11
158.83910662356169
 21
233.54257679779141
 31
0.0
  0
LINE
  5
25352
  8
0
 10
89.489106623561966
 20
234.34257679779151
 30
0.0
 11
89.489106623561966
 21
233.54257679779141
 31
0.0
  0
LINE
  5
25353
  8
0
 10
155.18910662356211
 20
233.54257679779141
 30
0.0
 11
155.18910662356211
 21
234.34257679779151
 31
0.0
  0
LINE
  5
25354
  8
0
 10
144.7791066235622
 20
164.84257679779151
 30
0.0
 11
144.3391066235622
 21
164.84257679779151
 31
0.0
  0
LINE
  5
25355
  8
0
 10
100.3391066235621
 20
164.84257679779151
 30
0.0
 11
99.899106623562034
 21
164.84257679779151
 31
0.0
  0
LINE
  5
25356
  8
0
 10
99.899106623562034
 20
152.84257679779139
 30
0.0
 11
100.3391066235621
 21
152.84257679779139
 31
0.0
  0
LINE
  5
25357
  8
0
 10
144.3391066235622
 20
152.84257679779139
 30
0.0
 11
144.7791066235622
 21
152.84257679779139
 31
0.0
  0
LINE
  5
25358
  8
0
 10
92.574106623562216
 20
164.65757679779131
 30
0.0
 11
90.074106623562216
 21
164.65757679779131
 31
0.0
  0
LINE
  5
25359
  8
0
 10
90.074106623562216
 20
153.02757679779131
 30
0.0
 11
92.574106623562216
 21
153.02757679779131
 31
0.0
  0
LINE
  5
2535A
  8
0
 10
147.20410662356201
 20
164.65757679779131
 30
0.0
 11
146.60410662356199
 21
164.65757679779131
 31
0.0
  0
LINE
  5
2535B
  8
0
 10
146.60410662356199
 20
153.02757679779131
 30
0.0
 11
147.20410662356201
 21
153.02757679779131
 31
0.0
  0
LINE
  5
2535C
  8
0
 10
88.771106623562105
 20
162.84257679779151
 30
0.0
 11
88.004106623562038
 21
162.0755767977914
 31
0.0
  0
LINE
  5
2535D
  8
0
 10
88.004106623562038
 20
155.60957679779131
 30
0.0
 11
88.771106623562105
 21
154.84257679779139
 31
0.0
  0
LINE
  5
2535E
  8
0
 10
90.074106623562216
 20
162.84257679779151
 30
0.0
 11
88.771106623562105
 21
162.84257679779151
 31
0.0
  0
LINE
  5
2535F
  8
0
 10
88.771106623562105
 20
154.84257679779139
 30
0.0
 11
90.074106623562216
 21
154.84257679779139
 31
0.0
  0
LINE
  5
25360
  8
0
 10
92.574106623562216
 20
152.5842434644581
 30
0.0
 11
92.833526332977385
 21
151.6160759284345
 31
0.0
  0
LINE
  5
25361
  8
0
 10
92.833526332977385
 20
166.06907766714809
 30
0.0
 11
92.574106623562216
 21
165.10091013112469
 31
0.0
  0
LINE
  5
25362
  8
0
 10
97.814686914146819
 20
151.6160759284345
 30
0.0
 11
98.074106623562216
 21
152.5842434644581
 31
0.0
  0
LINE
  5
25363
  8
0
 10
98.074106623562216
 20
165.10091013112469
 30
0.0
 11
97.814686914146819
 21
166.06907766714809
 31
0.0
  0
LINE
  5
25364
  8
0
 10
147.20410662356201
 20
152.5842434644581
 30
0.0
 11
147.46352633297781
 21
151.6160759284345
 31
0.0
  0
LINE
  5
25365
  8
0
 10
147.46352633297781
 20
166.06907766714809
 30
0.0
 11
147.20410662356201
 21
165.10091013112469
 31
0.0
  0
LINE
  5
25366
  8
0
 10
151.6446869141464
 20
151.6160759284345
 30
0.0
 11
151.9041066235622
 21
152.5842434644581
 31
0.0
  0
LINE
  5
25367
  8
0
 10
151.9041066235622
 20
165.10091013112469
 30
0.0
 11
151.6446869141464
 21
166.06907766714809
 31
0.0
  0
ARC
  5
25368
  8
0
 10
122.3391066235621
 20
158.84257679779139
 30
0.0
 40
50.000000000001108
 50
254.2861389519895
 51
285.71386104801047
  0
ARC
  5
25369
  8
0
 10
122.3391066235621
 20
158.84257679779139
 30
0.0
 40
50.000000000001002
 50
74.286138951989543
 51
105.7138610480104
  0
ARC
  5
2536A
  8
0
 10
109.339106623563
 20
112.6365165892004
 30
0.0
 40
2.00000000000108
 50
180.00000000001631
 51
254.2861389519625
  0
ARC
  5
2536B
  8
0
 10
109.339106623563
 20
205.04863700638239
 30
0.0
 40
2.00000000000108
 50
105.7138610480375
 51
179.99999999998531
  0
ARC
  5
2536C
  8
0
 10
135.33910662356089
 20
112.6365165892003
 30
0.0
 40
2.00000000000108
 50
285.71386104804429
 51
359.99999999998528
  0
ARC
  5
2536D
  8
0
 10
135.33910662356089
 20
205.04863700638239
 30
0.0
 40
2.00000000000108
 50
0.000000000014656
 51
74.286138951962471
  0
LINE
  5
2536E
  8
0
 10
107.3391066235621
 20
172.64257679779121
 30
0.0
 11
102.16479513806701
 21
172.1898832012584
 31
0.0
  0
LINE
  5
2536F
  8
0
 10
102.16479513806701
 20
145.49527039432431
 30
0.0
 11
107.3391066235621
 21
145.04257679779141
 31
0.0
  0
LINE
  5
25370
  8
0
 10
137.33910662356229
 20
145.0425767977915
 30
0.0
 11
142.513418109057
 21
145.49527039432431
 31
0.0
  0
LINE
  5
25371
  8
0
 10
142.513418109057
 20
172.1898832012584
 30
0.0
 11
137.33910662356229
 21
172.64257679779121
 31
0.0
  0
ARC
  5
25372
  8
0
 10
102.3391066235621
 20
147.48765979050799
 30
0.0
 40
2.0000000000001741
 50
180.0000000000081
 51
265.00000000000671
  0
ARC
  5
25373
  8
0
 10
102.3391066235621
 20
170.1974938050748
 30
0.0
 40
2.0000000000001181
 50
94.999999999993236
 51
179.99999999999179
  0
ARC
  5
25374
  8
0
 10
142.33910662356169
 20
147.48765979050799
 30
0.0
 40
2.000000000000179
 50
274.99999999999329
 51
359.99999999999193
  0
ARC
  5
25375
  8
0
 10
142.33910662356169
 20
170.1974938050748
 30
0.0
 40
2.0000000000001701
 50
0.0000000000081422
 51
85.00000000000675
  0
LINE
  5
25377
  8
0
 10
79.839106623562074
 20
234.34257679779151
 30
0.0
 11
79.839106623562074
 21
236.84257679779139
 31
0.0
  0
LINE
  5
25378
  8
0
 10
79.839106623562074
 20
236.84257679779139
 30
0.0
 11
164.8391066235622
 21
236.84257679779139
 31
0.0
  0
LINE
  5
25379
  8
0
 10
79.839106623562074
 20
234.34257679779151
 30
0.0
 11
164.8391066235622
 21
234.34257679779139
 31
0.0
  0
LINE
  5
2537D
  8
0
 10
164.8391066235622
 20
234.34257679779151
 30
0.0
 11
164.8391066235622
 21
236.84257679779139
 31
0.0
  0
LINE
  5
25381
  8
0
 10
99.899106623562034
 20
159.87245528154509
 30
0.0
 11
98.074106623562216
 21
159.87245528154509
 31
0.0
  0
LINE
  5
25383
  8
0
 10
99.899106623562034
 20
148.84257679779131
 30
0.0
 11
98.074106623562216
 21
148.84257679779131
 31
0.0
  0
LINE
  5
25384
  8
0
 10
146.60410662356199
 20
159.87245528154509
 30
0.0
 11
144.7791066235622
 21
159.87245528154509
 31
0.0
  0
LINE
  5
25386
  8
0
 10
146.60410662356199
 20
148.84257679779131
 30
0.0
 11
144.7791066235622
 21
148.84257679779131
 31
0.0
  0
LINE
  5
25388
  8
0
 10
99.899106623562034
 20
216.34257679779151
 30
0.0
 11
98.074106623562216
 21
216.34257679779151
 31
0.0
  0
LINE
  5
25389
  8
0
 10
99.899106623562034
 20
148.84257679779131
 30
0.0
 11
99.899106623561934
 21
220.01757679779149
 31
0.0
  0
LINE
  5
2538A
  8
0
 10
98.074106623562315
 20
221.84257679779151
 30
0.0
 11
98.074106623562216
 21
148.84257679779131
 31
0.0
  0
LINE
  5
2538B
  8
0
 10
146.60410662356199
 20
216.34257679779151
 30
0.0
 11
144.7791066235622
 21
216.34257679779151
 31
0.0
  0
LINE
  5
2538C
  8
0
 10
146.60410662356219
 20
221.84257679779151
 30
0.0
 11
146.60410662356199
 21
148.84257679779131
 31
0.0
  0
LINE
  5
2538D
  8
0
 10
144.7791066235622
 20
148.84257679779131
 30
0.0
 11
144.7791066235622
 21
220.01757679779149
 31
0.0
  0
LINE
  5
2538E
  8
0
 10
99.899106623562034
 20
220.01757679779141
 30
0.0
 11
144.7791066235622
 21
220.01757679779141
 31
0.0
  0
LINE
  5
2538F
  8
0
 10
146.60410662356199
 20
221.84257679779151
 30
0.0
 11
98.074106623562216
 21
221.84257679779151
 31
0.0
  0
POLYLINE
  5
25394
  8
0
 10
85.839106623562174
 20
178.99252643683906
 30
0.0
 66
     1
 70
     8
  0
VERTEX
  8
0
  5
25687
 10
85.8391
 20
178.993
 30
0.000000
  70
    32
  0
VERTEX
  8
0
  5
25688
 10
85.8393
 20
178.862
 30
0.000000
  70
    32
  0
VERTEX
  8
0
  5
25689
 10
85.8398
 20
178.731
 30
0.000000
  70
    32
  0
VERTEX
  8
0
  5
2568A
 10
85.8406
 20
178.600
 30
0.000000
  70
    32
  0
VERTEX
  8
0
  5
2568B
 10
85.8418
 20
178.469
 30
0.000000
  70
    32
  0
VERTEX
  8
0
  5
2568C
 10
85.8434
 20
178.338
 30
0.000000
  70
    32
  0
VERTEX
  8
0
  5
2568D
 10
85.8452
 20
178.207
 30
0.000000
  70
    32
  0
VERTEX
  8
0
  5
2568E
 10
85.8474
 20
178.076
 30
0.000000
  70
    32
  0
VERTEX
  8
0
  5
2568F
 10
85.8500
 20
177.946
 30
0.000000
  70
    32
  0
VERTEX
  8
0
  5
25690
 10
85.8529
 20
177.815
 30
0.000000
  70
    32
  0
VERTEX
  8
0
  5
25691
 10
85.8561
 20
177.684
 30
0.000000
  70
    32
  0
VERTEX
  8
0
  5
25692
 10
85.8597
 20
177.553
 30
0.000000
  70
    32
  0
VERTEX
  8
0
  5
25693
 10
85.8636
 20
177.422
 30
0.000000
  70
    32
  0
VERTEX
  8
0
  5
25694
 10
85.8679
 20
177.292
 30
0.000000
  70
    32
  0
VERTEX
  8
0
  5
25695
 10
85.8725
 20
177.161
 30
0.000000
  70
    32
  0
VERTEX
  8
0
  5
25696
 10
85.8774
 20
177.030
 30
0.000000
  70
    32
  0
VERTEX
  8
0
  5
25697
 10
85.8827
 20
176.899
 30
0.000000
  70
    32
  0
VERTEX
  8
0
  5
25698
 10
85.8883
 20
176.769
 30
0.000000
  70
    32
  0
VERTEX
  8
0
  5
25699
 10
85.8942
 20
176.638
 30
0.000000
  70
    32
  0
VERTEX
  8
0
  5
2569A
 10
85.9005
 20
176.507
 30
0.000000
  70
    32
  0
VERTEX
  8
0
  5
2569B
 10
85.9072
 20
176.377
 30
0.000000
  70
    32
  0
VERTEX
  8
0
  5
2569C
 10
85.9142
 20
176.246
 30
0.000000
  70
    32
  0
VERTEX
  8
0
  5
2569D
 10
85.9215
 20
176.116
 30
0.000000
  70
    32
  0
VERTEX
  8
0
  5
2569E
 10
85.9291
 20
175.985
 30
0.000000
  70
    32
  0
VERTEX
  8
0
  5
2569F
 10
85.9371
 20
175.854
 30
0.000000
  70
    32
  0
VERTEX
  8
0
  5
256A0
 10
85.9455
 20
175.724
 30
0.000000
  70
    32
  0
VERTEX
  8
0
  5
256A1
 10
85.9541
 20
175.593
 30
0.000000
  70
    32
  0
VERTEX
  8
0
  5
256A2
 10
85.9631
 20
175.463
 30
0.000000
  70
    32
  0
VERTEX
  8
0
  5
256A3
 10
85.9725
 20
175.333
 30
0.000000
  70
    32
  0
VERTEX
  8
0
  5
256A4
 10
85.9822
 20
175.202
 30
0.000000
  70
    32
  0
VERTEX
  8
0
  5
256A5
 10
85.9922
 20
175.072
 30
0.000000
  70
    32
  0
VERTEX
  8
0
  5
256A6
 10
86.0026
 20
174.942
 30
0.000000
  70
    32
  0
VERTEX
  8
0
  5
256A7
 10
86.0133
 20
174.811
 30
0.000000
  70
    32
  0
VERTEX
  8
0
  5
256A8
 10
86.0243
 20
174.681
 30
0.000000
  70
    32
  0
VERTEX
  8
0
  5
256A9
 10
86.0357
 20
174.551
 30
0.000000
  70
    32
  0
VERTEX
  8
0
  5
256AA
 10
86.0474
 20
174.421
 30
0.000000
  70
    32
  0
VERTEX
  8
0
  5
256AB
 10
86.0595
 20
174.291
 30
0.000000
  70
    32
  0
VERTEX
  8
0
  5
256AC
 10
86.0719
 20
174.161
 30
0.000000
  70
    32
  0
VERTEX
  8
0
  5
256AD
 10
86.0847
 20
174.031
 30
0.000000
  70
    32
  0
VERTEX
  8
0
  5
256AE
 10
86.0977
 20
173.901
 30
0.000000
  70
    32
  0
VERTEX
  8
0
  5
256AF
 10
86.1111
 20
173.771
 30
0.000000
  70
    32
  0
VERTEX
  8
0
  5
256B0
 10
86.1249
 20
173.641
 30
0.000000
  70
    32
  0
VERTEX
  8
0
  5
256B1
 10
86.1390
 20
173.511
 30
0.000000
  70
    32
  0
VERTEX
  8
0
  5
256B2
 10
86.1534
 20
173.381
 30
0.000000
  70
    32
  0
VERTEX
  8
0
  5
256B3
 10
86.1682
 20
173.251
 30
0.000000
  70
    32
  0
VERTEX
  8
0
  5
256B4
 10
86.1833
 20
173.122
 30
0.000000
  70
    32
  0
VERTEX
  8
0
  5
256B5
 10
86.1987
 20
172.992
 30
0.000000
  70
    32
  0
VERTEX
  8
0
  5
256B6
 10
86.2145
 20
172.863
 30
0.000000
  70
    32
  0
VERTEX
  8
0
  5
256B7
 10
86.2306
 20
172.733
 30
0.000000
  70
    32
  0
VERTEX
  8
0
  5
256B8
 10
86.2471
 20
172.604
 30
0.000000
  70
    32
  0
VERTEX
  8
0
  5
256B9
 10
86.2639
 20
172.474
 30
0.000000
  70
    32
  0
VERTEX
  8
0
  5
256BA
 10
86.2810
 20
172.345
 30
0.000000
  70
    32
  0
VERTEX
  8
0
  5
256BB
 10
86.2985
 20
172.216
 30
0.000000
  70
    32
  0
VERTEX
  8
0
  5
256BC
 10
86.3163
 20
172.087
 30
0.000000
  70
    32
  0
VERTEX
  8
0
  5
256BD
 10
86.3344
 20
171.957
 30
0.000000
  70
    32
  0
VERTEX
  8
0
  5
256BE
 10
86.3529
 20
171.828
 30
0.000000
  70
    32
  0
VERTEX
  8
0
  5
256BF
 10
86.3717
 20
171.699
 30
0.000000
  70
    32
  0
VERTEX
  8
0
  5
256C0
 10
86.3908
 20
171.570
 30
0.000000
  70
    32
  0
VERTEX
  8
0
  5
256C1
 10
86.4103
 20
171.442
 30
0.000000
  70
    32
  0
VERTEX
  8
0
  5
256C2
 10
86.4301
 20
171.313
 30
0.000000
  70
    32
  0
VERTEX
  8
0
  5
256C3
 10
86.4502
 20
171.184
 30
0.000000
  70
    32
  0
VERTEX
  8
0
  5
256C4
 10
86.4707
 20
171.055
 30
0.000000
  70
    32
  0
VERTEX
  8
0
  5
256C5
 10
86.4915
 20
170.927
 30
0.000000
  70
    32
  0
VERTEX
  8
0
  5
256C6
 10
86.5127
 20
170.798
 30
0.000000
  70
    32
  0
VERTEX
  8
0
  5
256C7
 10
86.5342
 20
170.670
 30
0.000000
  70
    32
  0
VERTEX
  8
0
  5
256C8
 10
86.5560
 20
170.542
 30
0.000000
  70
    32
  0
VERTEX
  8
0
  5
256C9
 10
86.5781
 20
170.413
 30
0.000000
  70
    32
  0
VERTEX
  8
0
  5
256CA
 10
86.6006
 20
170.285
 30
0.000000
  70
    32
  0
VERTEX
  8
0
  5
256CB
 10
86.6235
 20
170.157
 30
0.000000
  70
    32
  0
VERTEX
  8
0
  5
256CC
 10
86.6466
 20
170.029
 30
0.000000
  70
    32
  0
VERTEX
  8
0
  5
256CD
 10
86.6701
 20
169.901
 30
0.000000
  70
    32
  0
VERTEX
  8
0
  5
256CE
 10
86.6939
 20
169.773
 30
0.000000
  70
    32
  0
VERTEX
  8
0
  5
256CF
 10
86.7181
 20
169.646
 30
0.000000
  70
    32
  0
VERTEX
  8
0
  5
256D0
 10
86.7425
 20
169.518
 30
0.000000
  70
    32
  0
VERTEX
  8
0
  5
256D1
 10
86.7674
 20
169.390
 30
0.000000
  70
    32
  0
VERTEX
  8
0
  5
256D2
 10
86.7925
 20
169.263
 30
0.000000
  70
    32
  0
VERTEX
  8
0
  5
256D3
 10
86.8180
 20
169.135
 30
0.000000
  70
    32
  0
VERTEX
  8
0
  5
256D4
 10
86.8438
 20
169.008
 30
0.000000
  70
    32
  0
VERTEX
  8
0
  5
256D5
 10
86.8699
 20
168.881
 30
0.000000
  70
    32
  0
VERTEX
  8
0
  5
256D6
 10
86.8964
 20
168.754
 30
0.000000
  70
    32
  0
VERTEX
  8
0
  5
256D7
 10
86.9232
 20
168.627
 30
0.000000
  70
    32
  0
VERTEX
  8
0
  5
256D8
 10
86.9503
 20
168.500
 30
0.000000
  70
    32
  0
VERTEX
  8
0
  5
256D9
 10
86.9778
 20
168.373
 30
0.000000
  70
    32
  0
VERTEX
  8
0
  5
256DA
 10
87.0056
 20
168.246
 30
0.000000
  70
    32
  0
VERTEX
  8
0
  5
256DB
 10
87.0337
 20
168.119
 30
0.000000
  70
    32
  0
VERTEX
  8
0
  5
256DC
 10
87.0622
 20
167.993
 30
0.000000
  70
    32
  0
VERTEX
  8
0
  5
256DD
 10
87.0910
 20
167.867
 30
0.000000
  70
    32
  0
VERTEX
  8
0
  5
256DE
 10
87.1201
 20
167.740
 30
0.000000
  70
    32
  0
VERTEX
  8
0
  5
256DF
 10
87.1495
 20
167.614
 30
0.000000
  70
    32
  0
VERTEX
  8
0
  5
256E0
 10
87.1793
 20
167.488
 30
0.000000
  70
    32
  0
VERTEX
  8
0
  5
256E1
 10
87.2094
 20
167.362
 30
0.000000
  70
    32
  0
VERTEX
  8
0
  5
256E2
 10
87.2398
 20
167.236
 30
0.000000
  70
    32
  0
VERTEX
  8
0
  5
256E3
 10
87.2705
 20
167.110
 30
0.000000
  70
    32
  0
VERTEX
  8
0
  5
256E4
 10
87.3016
 20
166.984
 30
0.000000
  70
    32
  0
VERTEX
  8
0
  5
256E5
 10
87.3330
 20
166.859
 30
0.000000
  70
    32
  0
VERTEX
  8
0
  5
256E6
 10
87.3647
 20
166.733
 30
0.000000
  70
    32
  0
VERTEX
  8
0
  5
256E7
 10
87.3968
 20
166.608
 30
0.000000
  70
    32
  0
VERTEX
  8
0
  5
256E8
 10
87.4292
 20
166.483
 30
0.000000
  70
    32
  0
VERTEX
  8
0
  5
256E9
 10
87.4619
 20
166.358
 30
0.000000
  70
    32
  0
VERTEX
  8
0
  5
256EA
 10
87.4949
 20
166.233
 30
0.000000
  70
    32
  0
VERTEX
  8
0
  5
256EB
 10
87.5283
 20
166.108
 30
0.000000
  70
    32
  0
VERTEX
  8
0
  5
256EC
 10
87.5620
 20
165.983
 30
0.000000
  70
    32
  0
VERTEX
  8
0
  5
256ED
 10
87.5960
 20
165.858
 30
0.000000
  70
    32
  0
VERTEX
  8
0
  5
256EE
 10
87.6303
 20
165.734
 30
0.000000
  70
    32
  0
VERTEX
  8
0
  5
256EF
 10
87.6650
 20
165.610
 30
0.000000
  70
    32
  0
VERTEX
  8
0
  5
256F0
 10
87.6999
 20
165.485
 30
0.000000
  70
    32
  0
VERTEX
  8
0
  5
256F1
 10
87.7352
 20
165.361
 30
0.000000
  70
    32
  0
VERTEX
  8
0
  5
256F2
 10
87.7709
 20
165.237
 30
0.000000
  70
    32
  0
VERTEX
  8
0
  5
256F3
 10
87.8068
 20
165.113
 30
0.000000
  70
    32
  0
VERTEX
  8
0
  5
256F4
 10
87.8431
 20
164.990
 30
0.000000
  70
    32
  0
VERTEX
  8
0
  5
256F5
 10
87.8797
 20
164.866
 30
0.000000
  70
    32
  0
VERTEX
  8
0
  5
256F6
 10
87.9166
 20
164.742
 30
0.000000
  70
    32
  0
VERTEX
  8
0
  5
256F7
 10
87.9538
 20
164.619
 30
0.000000
  70
    32
  0
VERTEX
  8
0
  5
256F8
 10
87.9914
 20
164.496
 30
0.000000
  70
    32
  0
VERTEX
  8
0
  5
256F9
 10
88.0292
 20
164.373
 30
0.000000
  70
    32
  0
VERTEX
  8
0
  5
256FA
 10
88.0674
 20
164.250
 30
0.000000
  70
    32
  0
VERTEX
  8
0
  5
256FB
 10
88.1059
 20
164.127
 30
0.000000
  70
    32
  0
VERTEX
  8
0
  5
256FC
 10
88.1448
 20
164.004
 30
0.000000
  70
    32
  0
VERTEX
  8
0
  5
256FD
 10
88.1839
 20
163.882
 30
0.000000
  70
    32
  0
VERTEX
  8
0
  5
256FE
 10
88.2234
 20
163.759
 30
0.000000
  70
    32
  0
VERTEX
  8
0
  5
256FF
 10
88.2632
 20
163.637
 30
0.000000
  70
    32
  0
VERTEX
  8
0
  5
25700
 10
88.3033
 20
163.515
 30
0.000000
  70
    32
  0
VERTEX
  8
0
  5
25701
 10
88.3437
 20
163.393
 30
0.000000
  70
    32
  0
VERTEX
  8
0
  5
25702
 10
88.3845
 20
163.271
 30
0.000000
  70
    32
  0
VERTEX
  8
0
  5
25703
 10
88.4255
 20
163.150
 30
0.000000
  70
    32
  0
VERTEX
  8
0
  5
25704
 10
88.4669
 20
163.028
 30
0.000000
  70
    32
  0
VERTEX
  8
0
  5
25705
 10
88.5086
 20
162.907
 30
0.000000
  70
    32
  0
VERTEX
  8
0
  5
25706
 10
88.5506
 20
162.785
 30
0.000000
  70
    32
  0
VERTEX
  8
0
  5
25707
 10
88.5929
 20
162.664
 30
0.000000
  70
    32
  0
SEQEND
  8
0
  5
25708
  0
POLYLINE
  5
25395
  8
0
 10
151.9041066235624
 20
153.8639766975399
 30
0.0
 66
     1
 70
     8
  0
VERTEX
  8
0
  5
25709
 10
151.904
 20
153.864
 30
0.000000
  70
    32
  0
VERTEX
  8
0
  5
2570A
 10
152.009
 20
154.034
 30
0.000000
  70
    32
  0
VERTEX
  8
0
  5
2570B
 10
152.112
 20
154.205
 30
0.000000
  70
    32
  0
VERTEX
  8
0
  5
2570C
 10
152.215
 20
154.376
 30
0.000000
  70
    32
  0
VERTEX
  8
0
  5
2570D
 10
152.318
 20
154.548
 30
0.000000
  70
    32
  0
VERTEX
  8
0
  5
2570E
 10
152.419
 20
154.721
 30
0.000000
  70
    32
  0
VERTEX
  8
0
  5
2570F
 10
152.520
 20
154.894
 30
0.000000
  70
    32
  0
VERTEX
  8
0
  5
25710
 10
152.620
 20
155.068
 30
0.000000
  70
    32
  0
VERTEX
  8
0
  5
25711
 10
152.720
 20
155.242
 30
0.000000
  70
    32
  0
VERTEX
  8
0
  5
25712
 10
152.818
 20
155.417
 30
0.000000
  70
    32
  0
VERTEX
  8
0
  5
25713
 10
152.916
 20
155.593
 30
0.000000
  70
    32
  0
VERTEX
  8
0
  5
25714
 10
153.013
 20
155.769
 30
0.000000
  70
    32
  0
VERTEX
  8
0
  5
25715
 10
153.110
 20
155.945
 30
0.000000
  70
    32
  0
VERTEX
  8
0
  5
25716
 10
153.206
 20
156.122
 30
0.000000
  70
    32
  0
VERTEX
  8
0
  5
25717
 10
153.301
 20
156.300
 30
0.000000
  70
    32
  0
VERTEX
  8
0
  5
25718
 10
153.395
 20
156.478
 30
0.000000
  70
    32
  0
VERTEX
  8
0
  5
25719
 10
153.488
 20
156.657
 30
0.000000
  70
    32
  0
VERTEX
  8
0
  5
2571A
 10
153.581
 20
156.836
 30
0.000000
  70
    32
  0
VERTEX
  8
0
  5
2571B
 10
153.673
 20
157.016
 30
0.000000
  70
    32
  0
VERTEX
  8
0
  5
2571C
 10
153.764
 20
157.196
 30
0.000000
  70
    32
  0
VERTEX
  8
0
  5
2571D
 10
153.855
 20
157.377
 30
0.000000
  70
    32
  0
VERTEX
  8
0
  5
2571E
 10
153.945
 20
157.559
 30
0.000000
  70
    32
  0
VERTEX
  8
0
  5
2571F
 10
154.034
 20
157.741
 30
0.000000
  70
    32
  0
VERTEX
  8
0
  5
25720
 10
154.122
 20
157.923
 30
0.000000
  70
    32
  0
VERTEX
  8
0
  5
25721
 10
154.209
 20
158.106
 30
0.000000
  70
    32
  0
VERTEX
  8
0
  5
25722
 10
154.296
 20
158.289
 30
0.000000
  70
    32
  0
VERTEX
  8
0
  5
25723
 10
154.382
 20
158.473
 30
0.000000
  70
    32
  0
VERTEX
  8
0
  5
25724
 10
154.467
 20
158.658
 30
0.000000
  70
    32
  0
VERTEX
  8
0
  5
25725
 10
154.552
 20
158.843
 30
0.000000
  70
    32
  0
VERTEX
  8
0
  5
25726
 10
154.635
 20
159.028
 30
0.000000
  70
    32
  0
VERTEX
  8
0
  5
25727
 10
154.718
 20
159.214
 30
0.000000
  70
    32
  0
VERTEX
  8
0
  5
25728
 10
154.800
 20
159.400
 30
0.000000
  70
    32
  0
VERTEX
  8
0
  5
25729
 10
154.882
 20
159.587
 30
0.000000
  70
    32
  0
VERTEX
  8
0
  5
2572A
 10
154.962
 20
159.774
 30
0.000000
  70
    32
  0
VERTEX
  8
0
  5
2572B
 10
155.042
 20
159.962
 30
0.000000
  70
    32
  0
VERTEX
  8
0
  5
2572C
 10
155.121
 20
160.150
 30
0.000000
  70
    32
  0
VERTEX
  8
0
  5
2572D
 10
155.199
 20
160.339
 30
0.000000
  70
    32
  0
VERTEX
  8
0
  5
2572E
 10
155.276
 20
160.528
 30
0.000000
  70
    32
  0
VERTEX
  8
0
  5
2572F
 10
155.353
 20
160.717
 30
0.000000
  70
    32
  0
VERTEX
  8
0
  5
25730
 10
155.429
 20
160.907
 30
0.000000
  70
    32
  0
VERTEX
  8
0
  5
25731
 10
155.504
 20
161.098
 30
0.000000
  70
    32
  0
VERTEX
  8
0
  5
25732
 10
155.578
 20
161.289
 30
0.000000
  70
    32
  0
VERTEX
  8
0
  5
25733
 10
155.652
 20
161.480
 30
0.000000
  70
    32
  0
VERTEX
  8
0
  5
25734
 10
155.724
 20
161.671
 30
0.000000
  70
    32
  0
VERTEX
  8
0
  5
25735
 10
155.796
 20
161.864
 30
0.000000
  70
    32
  0
VERTEX
  8
0
  5
25736
 10
155.867
 20
162.056
 30
0.000000
  70
    32
  0
VERTEX
  8
0
  5
25737
 10
155.937
 20
162.249
 30
0.000000
  70
    32
  0
VERTEX
  8
0
  5
25738
 10
156.007
 20
162.442
 30
0.000000
  70
    32
  0
VERTEX
  8
0
  5
25739
 10
156.075
 20
162.636
 30
0.000000
  70
    32
  0
VERTEX
  8
0
  5
2573A
 10
156.143
 20
162.830
 30
0.000000
  70
    32
  0
VERTEX
  8
0
  5
2573B
 10
156.210
 20
163.025
 30
0.000000
  70
    32
  0
VERTEX
  8
0
  5
2573C
 10
156.276
 20
163.219
 30
0.000000
  70
    32
  0
VERTEX
  8
0
  5
2573D
 10
156.342
 20
163.415
 30
0.000000
  70
    32
  0
VERTEX
  8
0
  5
2573E
 10
156.406
 20
163.610
 30
0.000000
  70
    32
  0
VERTEX
  8
0
  5
2573F
 10
156.470
 20
163.806
 30
0.000000
  70
    32
  0
VERTEX
  8
0
  5
25740
 10
156.533
 20
164.003
 30
0.000000
  70
    32
  0
VERTEX
  8
0
  5
25741
 10
156.595
 20
164.199
 30
0.000000
  70
    32
  0
VERTEX
  8
0
  5
25742
 10
156.656
 20
164.396
 30
0.000000
  70
    32
  0
VERTEX
  8
0
  5
25743
 10
156.717
 20
164.594
 30
0.000000
  70
    32
  0
VERTEX
  8
0
  5
25744
 10
156.776
 20
164.791
 30
0.000000
  70
    32
  0
VERTEX
  8
0
  5
25745
 10
156.835
 20
164.990
 30
0.000000
  70
    32
  0
VERTEX
  8
0
  5
25746
 10
156.893
 20
165.188
 30
0.000000
  70
    32
  0
VERTEX
  8
0
  5
25747
 10
156.950
 20
165.387
 30
0.000000
  70
    32
  0
VERTEX
  8
0
  5
25748
 10
157.007
 20
165.586
 30
0.000000
  70
    32
  0
VERTEX
  8
0
  5
25749
 10
157.062
 20
165.785
 30
0.000000
  70
    32
  0
VERTEX
  8
0
  5
2574A
 10
157.117
 20
165.985
 30
0.000000
  70
    32
  0
VERTEX
  8
0
  5
2574B
 10
157.171
 20
166.185
 30
0.000000
  70
    32
  0
VERTEX
  8
0
  5
2574C
 10
157.224
 20
166.385
 30
0.000000
  70
    32
  0
VERTEX
  8
0
  5
2574D
 10
157.276
 20
166.586
 30
0.000000
  70
    32
  0
VERTEX
  8
0
  5
2574E
 10
157.327
 20
166.787
 30
0.000000
  70
    32
  0
VERTEX
  8
0
  5
2574F
 10
157.378
 20
166.988
 30
0.000000
  70
    32
  0
VERTEX
  8
0
  5
25750
 10
157.427
 20
167.190
 30
0.000000
  70
    32
  0
VERTEX
  8
0
  5
25751
 10
157.476
 20
167.392
 30
0.000000
  70
    32
  0
VERTEX
  8
0
  5
25752
 10
157.524
 20
167.594
 30
0.000000
  70
    32
  0
VERTEX
  8
0
  5
25753
 10
157.571
 20
167.796
 30
0.000000
  70
    32
  0
VERTEX
  8
0
  5
25754
 10
157.617
 20
167.999
 30
0.000000
  70
    32
  0
VERTEX
  8
0
  5
25755
 10
157.663
 20
168.201
 30
0.000000
  70
    32
  0
VERTEX
  8
0
  5
25756
 10
157.707
 20
168.405
 30
0.000000
  70
    32
  0
VERTEX
  8
0
  5
25757
 10
157.751
 20
168.608
 30
0.000000
  70
    32
  0
VERTEX
  8
0
  5
25758
 10
157.794
 20
168.812
 30
0.000000
  70
    32
  0
VERTEX
  8
0
  5
25759
 10
157.836
 20
169.016
 30
0.000000
  70
    32
  0
VERTEX
  8
0
  5
2575A
 10
157.877
 20
169.220
 30
0.000000
  70
    32
  0
VERTEX
  8
0
  5
2575B
 10
157.917
 20
169.424
 30
0.000000
  70
    32
  0
VERTEX
  8
0
  5
2575C
 10
157.957
 20
169.629
 30
0.000000
  70
    32
  0
VERTEX
  8
0
  5
2575D
 10
157.996
 20
169.833
 30
0.000000
  70
    32
  0
VERTEX
  8
0
  5
2575E
 10
158.033
 20
170.038
 30
0.000000
  70
    32
  0
VERTEX
  8
0
  5
2575F
 10
158.070
 20
170.244
 30
0.000000
  70
    32
  0
VERTEX
  8
0
  5
25760
 10
158.106
 20
170.449
 30
0.000000
  70
    32
  0
VERTEX
  8
0
  5
25761
 10
158.141
 20
170.655
 30
0.000000
  70
    32
  0
VERTEX
  8
0
  5
25762
 10
158.176
 20
170.861
 30
0.000000
  70
    32
  0
VERTEX
  8
0
  5
25763
 10
158.209
 20
171.067
 30
0.000000
  70
    32
  0
VERTEX
  8
0
  5
25764
 10
158.242
 20
171.273
 30
0.000000
  70
    32
  0
VERTEX
  8
0
  5
25765
 10
158.274
 20
171.480
 30
0.000000
  70
    32
  0
VERTEX
  8
0
  5
25766
 10
158.305
 20
171.686
 30
0.000000
  70
    32
  0
VERTEX
  8
0
  5
25767
 10
158.335
 20
171.893
 30
0.000000
  70
    32
  0
VERTEX
  8
0
  5
25768
 10
158.364
 20
172.100
 30
0.000000
  70
    32
  0
VERTEX
  8
0
  5
25769
 10
158.392
 20
172.307
 30
0.000000
  70
    32
  0
VERTEX
  8
0
  5
2576A
 10
158.420
 20
172.514
 30
0.000000
  70
    32
  0
VERTEX
  8
0
  5
2576B
 10
158.446
 20
172.722
 30
0.000000
  70
    32
  0
VERTEX
  8
0
  5
2576C
 10
158.472
 20
172.929
 30
0.000000
  70
    32
  0
VERTEX
  8
0
  5
2576D
 10
158.497
 20
173.137
 30
0.000000
  70
    32
  0
VERTEX
  8
0
  5
2576E
 10
158.521
 20
173.345
 30
0.000000
  70
    32
  0
VERTEX
  8
0
  5
2576F
 10
158.544
 20
173.553
 30
0.000000
  70
    32
  0
VERTEX
  8
0
  5
25770
 10
158.566
 20
173.761
 30
0.000000
  70
    32
  0
VERTEX
  8
0
  5
25771
 10
158.587
 20
173.969
 30
0.000000
  70
    32
  0
VERTEX
  8
0
  5
25772
 10
158.608
 20
174.178
 30
0.000000
  70
    32
  0
VERTEX
  8
0
  5
25773
 10
158.628
 20
174.386
 30
0.000000
  70
    32
  0
VERTEX
  8
0
  5
25774
 10
158.646
 20
174.595
 30
0.000000
  70
    32
  0
VERTEX
  8
0
  5
25775
 10
158.664
 20
174.804
 30
0.000000
  70
    32
  0
VERTEX
  8
0
  5
25776
 10
158.681
 20
175.012
 30
0.000000
  70
    32
  0
VERTEX
  8
0
  5
25777
 10
158.697
 20
175.221
 30
0.000000
  70
    32
  0
VERTEX
  8
0
  5
25778
 10
158.713
 20
175.430
 30
0.000000
  70
    32
  0
VERTEX
  8
0
  5
25779
 10
158.727
 20
175.639
 30
0.000000
  70
    32
  0
VERTEX
  8
0
  5
2577A
 10
158.741
 20
175.849
 30
0.000000
  70
    32
  0
VERTEX
  8
0
  5
2577B
 10
158.753
 20
176.058
 30
0.000000
  70
    32
  0
VERTEX
  8
0
  5
2577C
 10
158.765
 20
176.267
 30
0.000000
  70
    32
  0
VERTEX
  8
0
  5
2577D
 10
158.776
 20
176.477
 30
0.000000
  70
    32
  0
VERTEX
  8
0
  5
2577E
 10
158.786
 20
176.686
 30
0.000000
  70
    32
  0
VERTEX
  8
0
  5
2577F
 10
158.795
 20
176.896
 30
0.000000
  70
    32
  0
VERTEX
  8
0
  5
25780
 10
158.804
 20
177.105
 30
0.000000
  70
    32
  0
VERTEX
  8
0
  5
25781
 10
158.811
 20
177.315
 30
0.000000
  70
    32
  0
VERTEX
  8
0
  5
25782
 10
158.818
 20
177.524
 30
0.000000
  70
    32
  0
VERTEX
  8
0
  5
25783
 10
158.823
 20
177.734
 30
0.000000
  70
    32
  0
VERTEX
  8
0
  5
25784
 10
158.828
 20
177.944
 30
0.000000
  70
    32
  0
VERTEX
  8
0
  5
25785
 10
158.832
 20
178.153
 30
0.000000
  70
    32
  0
VERTEX
  8
0
  5
25786
 10
158.835
 20
178.363
 30
0.000000
  70
    32
  0
VERTEX
  8
0
  5
25787
 10
158.837
 20
178.573
 30
0.000000
  70
    32
  0
VERTEX
  8
0
  5
25788
 10
158.839
 20
178.783
 30
0.000000
  70
    32
  0
VERTEX
  8
0
  5
25789
 10
158.839
 20
178.993
 30
0.000000
  70
    32
  0
SEQEND
  8
0
  5
2578A
  0
ARC
  5
25396
  8
0
 10
145.0012122604621
 20
156.02720916356029
 30
0.0
 40
6.9021128250784889
 50
283.42853934643819
 51
320.27533486319288
  0
ARC
  5
25397
  8
0
 10
99.725139024181658
 20
156.2099349449777
 30
0.0
 40
7.0910235126388832
 50
220.37905412311639
 51
256.53601262130218
  0
LINE
  5
25398
  8
0
 10
85.839106623562074
 20
225.84257679779151
 30
0.0
 11
158.83910662356169
 21
225.84257679779151
 31
0.0
  0
LINE
  5
25399
  8
0
 10
85.839106623562074
 20
233.54257679779141
 30
0.0
 11
158.83910662356169
 21
233.54257679779141
 31
0.0
  0
POLYLINE
  5
2539A
  8
0
 10
144.77910662356189
 20
210.02636878819396
 30
0.0
 66
     1
 70
     8
  0
VERTEX
  8
0
  5
2578B
 10
144.779
 20
210.026
 30
0.000000
  70
    32
  0
VERTEX
  8
0
  5
2578C
 10
144.487
 20
210.314
 30
0.000000
  70
    32
  0
VERTEX
  8
0
  5
2578D
 10
144.192
 20
210.598
 30
0.000000
  70
    32
  0
VERTEX
  8
0
  5
2578E
 10
143.895
 20
210.878
 30
0.000000
  70
    32
  0
VERTEX
  8
0
  5
2578F
 10
143.595
 20
211.155
 30
0.000000
  70
    32
  0
VERTEX
  8
0
  5
25790
 10
143.292
 20
211.427
 30
0.000000
  70
    32
  0
VERTEX
  8
0
  5
25791
 10
142.987
 20
211.696
 30
0.000000
  70
    32
  0
VERTEX
  8
0
  5
25792
 10
142.680
 20
211.960
 30
0.000000
  70
    32
  0
VERTEX
  8
0
  5
25793
 10
142.370
 20
212.221
 30
0.000000
  70
    32
  0
VERTEX
  8
0
  5
25794
 10
142.057
 20
212.478
 30
0.000000
  70
    32
  0
VERTEX
  8
0
  5
25795
 10
141.742
 20
212.730
 30
0.000000
  70
    32
  0
VERTEX
  8
0
  5
25796
 10
141.425
 20
212.979
 30
0.000000
  70
    32
  0
VERTEX
  8
0
  5
25797
 10
141.105
 20
213.223
 30
0.000000
  70
    32
  0
VERTEX
  8
0
  5
25798
 10
140.784
 20
213.463
 30
0.000000
  70
    32
  0
VERTEX
  8
0
  5
25799
 10
140.460
 20
213.699
 30
0.000000
  70
    32
  0
VERTEX
  8
0
  5
2579A
 10
140.133
 20
213.931
 30
0.000000
  70
    32
  0
VERTEX
  8
0
  5
2579B
 10
139.805
 20
214.159
 30
0.000000
  70
    32
  0
VERTEX
  8
0
  5
2579C
 10
139.475
 20
214.382
 30
0.000000
  70
    32
  0
VERTEX
  8
0
  5
2579D
 10
139.142
 20
214.601
 30
0.000000
  70
    32
  0
VERTEX
  8
0
  5
2579E
 10
138.807
 20
214.816
 30
0.000000
  70
    32
  0
VERTEX
  8
0
  5
2579F
 10
138.471
 20
215.026
 30
0.000000
  70
    32
  0
VERTEX
  8
0
  5
257A0
 10
138.132
 20
215.233
 30
0.000000
  70
    32
  0
VERTEX
  8
0
  5
257A1
 10
137.792
 20
215.434
 30
0.000000
  70
    32
  0
VERTEX
  8
0
  5
257A2
 10
137.450
 20
215.632
 30
0.000000
  70
    32
  0
VERTEX
  8
0
  5
257A3
 10
137.105
 20
215.824
 30
0.000000
  70
    32
  0
VERTEX
  8
0
  5
257A4
 10
136.760
 20
216.013
 30
0.000000
  70
    32
  0
VERTEX
  8
0
  5
257A5
 10
136.412
 20
216.197
 30
0.000000
  70
    32
  0
VERTEX
  8
0
  5
257A6
 10
136.063
 20
216.376
 30
0.000000
  70
    32
  0
VERTEX
  8
0
  5
257A7
 10
135.712
 20
216.551
 30
0.000000
  70
    32
  0
VERTEX
  8
0
  5
257A8
 10
135.359
 20
216.722
 30
0.000000
  70
    32
  0
VERTEX
  8
0
  5
257A9
 10
135.005
 20
216.887
 30
0.000000
  70
    32
  0
VERTEX
  8
0
  5
257AA
 10
134.649
 20
217.049
 30
0.000000
  70
    32
  0
VERTEX
  8
0
  5
257AB
 10
134.292
 20
217.205
 30
0.000000
  70
    32
  0
VERTEX
  8
0
  5
257AC
 10
133.933
 20
217.357
 30
0.000000
  70
    32
  0
VERTEX
  8
0
  5
257AD
 10
133.573
 20
217.505
 30
0.000000
  70
    32
  0
VERTEX
  8
0
  5
257AE
 10
133.211
 20
217.647
 30
0.000000
  70
    32
  0
VERTEX
  8
0
  5
257AF
 10
132.849
 20
217.785
 30
0.000000
  70
    32
  0
VERTEX
  8
0
  5
257B0
 10
132.485
 20
217.919
 30
0.000000
  70
    32
  0
VERTEX
  8
0
  5
257B1
 10
132.119
 20
218.047
 30
0.000000
  70
    32
  0
VERTEX
  8
0
  5
257B2
 10
131.753
 20
218.171
 30
0.000000
  70
    32
  0
VERTEX
  8
0
  5
257B3
 10
131.385
 20
218.290
 30
0.000000
  70
    32
  0
VERTEX
  8
0
  5
257B4
 10
131.017
 20
218.405
 30
0.000000
  70
    32
  0
VERTEX
  8
0
  5
257B5
 10
130.647
 20
218.514
 30
0.000000
  70
    32
  0
VERTEX
  8
0
  5
257B6
 10
130.276
 20
218.619
 30
0.000000
  70
    32
  0
VERTEX
  8
0
  5
257B7
 10
129.905
 20
218.719
 30
0.000000
  70
    32
  0
VERTEX
  8
0
  5
257B8
 10
129.532
 20
218.815
 30
0.000000
  70
    32
  0
VERTEX
  8
0
  5
257B9
 10
129.158
 20
218.905
 30
0.000000
  70
    32
  0
VERTEX
  8
0
  5
257BA
 10
128.784
 20
218.991
 30
0.000000
  70
    32
  0
VERTEX
  8
0
  5
257BB
 10
128.409
 20
219.072
 30
0.000000
  70
    32
  0
VERTEX
  8
0
  5
257BC
 10
128.033
 20
219.147
 30
0.000000
  70
    32
  0
VERTEX
  8
0
  5
257BD
 10
127.657
 20
219.219
 30
0.000000
  70
    32
  0
VERTEX
  8
0
  5
257BE
 10
127.280
 20
219.285
 30
0.000000
  70
    32
  0
VERTEX
  8
0
  5
257BF
 10
126.902
 20
219.346
 30
0.000000
  70
    32
  0
VERTEX
  8
0
  5
257C0
 10
126.524
 20
219.403
 30
0.000000
  70
    32
  0
VERTEX
  8
0
  5
257C1
 10
126.145
 20
219.454
 30
0.000000
  70
    32
  0
VERTEX
  8
0
  5
257C2
 10
125.766
 20
219.501
 30
0.000000
  70
    32
  0
VERTEX
  8
0
  5
257C3
 10
125.386
 20
219.543
 30
0.000000
  70
    32
  0
VERTEX
  8
0
  5
257C4
 10
125.006
 20
219.580
 30
0.000000
  70
    32
  0
VERTEX
  8
0
  5
257C5
 10
124.625
 20
219.611
 30
0.000000
  70
    32
  0
VERTEX
  8
0
  5
257C6
 10
124.245
 20
219.639
 30
0.000000
  70
    32
  0
VERTEX
  8
0
  5
257C7
 10
123.864
 20
219.661
 30
0.000000
  70
    32
  0
VERTEX
  8
0
  5
257C8
 10
123.483
 20
219.678
 30
0.000000
  70
    32
  0
VERTEX
  8
0
  5
257C9
 10
123.102
 20
219.690
 30
0.000000
  70
    32
  0
VERTEX
  8
0
  5
257CA
 10
122.720
 20
219.698
 30
0.000000
  70
    32
  0
VERTEX
  8
0
  5
257CB
 10
122.339
 20
219.700
 30
0.000000
  70
    32
  0
VERTEX
  8
0
  5
257CC
 10
121.958
 20
219.698
 30
0.000000
  70
    32
  0
VERTEX
  8
0
  5
257CD
 10
121.576
 20
219.690
 30
0.000000
  70
    32
  0
VERTEX
  8
0
  5
257CE
 10
121.195
 20
219.678
 30
0.000000
  70
    32
  0
VERTEX
  8
0
  5
257CF
 10
120.814
 20
219.661
 30
0.000000
  70
    32
  0
VERTEX
  8
0
  5
257D0
 10
120.433
 20
219.639
 30
0.000000
  70
    32
  0
VERTEX
  8
0
  5
257D1
 10
120.053
 20
219.611
 30
0.000000
  70
    32
  0
VERTEX
  8
0
  5
257D2
 10
119.672
 20
219.580
 30
0.000000
  70
    32
  0
VERTEX
  8
0
  5
257D3
 10
119.292
 20
219.543
 30
0.000000
  70
    32
  0
VERTEX
  8
0
  5
257D4
 10
118.913
 20
219.501
 30
0.000000
  70
    32
  0
VERTEX
  8
0
  5
257D5
 10
118.533
 20
219.454
 30
0.000000
  70
    32
  0
VERTEX
  8
0
  5
257D6
 10
118.155
 20
219.403
 30
0.000000
  70
    32
  0
VERTEX
  8
0
  5
257D7
 10
117.776
 20
219.346
 30
0.000000
  70
    32
  0
VERTEX
  8
0
  5
257D8
 10
117.399
 20
219.285
 30
0.000000
  70
    32
  0
VERTEX
  8
0
  5
257D9
 10
117.021
 20
219.219
 30
0.000000
  70
    32
  0
VERTEX
  8
0
  5
257DA
 10
116.645
 20
219.147
 30
0.000000
  70
    32
  0
VERTEX
  8
0
  5
257DB
 10
116.269
 20
219.072
 30
0.000000
  70
    32
  0
VERTEX
  8
0
  5
257DC
 10
115.894
 20
218.991
 30
0.000000
  70
    32
  0
VERTEX
  8
0
  5
257DD
 10
115.520
 20
218.905
 30
0.000000
  70
    32
  0
VERTEX
  8
0
  5
257DE
 10
115.146
 20
218.815
 30
0.000000
  70
    32
  0
VERTEX
  8
0
  5
257DF
 10
114.774
 20
218.719
 30
0.000000
  70
    32
  0
VERTEX
  8
0
  5
257E0
 10
114.402
 20
218.619
 30
0.000000
  70
    32
  0
VERTEX
  8
0
  5
257E1
 10
114.031
 20
218.514
 30
0.000000
  70
    32
  0
VERTEX
  8
0
  5
257E2
 10
113.662
 20
218.405
 30
0.000000
  70
    32
  0
VERTEX
  8
0
  5
257E3
 10
113.293
 20
218.290
 30
0.000000
  70
    32
  0
VERTEX
  8
0
  5
257E4
 10
112.925
 20
218.171
 30
0.000000
  70
    32
  0
VERTEX
  8
0
  5
257E5
 10
112.559
 20
218.047
 30
0.000000
  70
    32
  0
VERTEX
  8
0
  5
257E6
 10
112.194
 20
217.919
 30
0.000000
  70
    32
  0
VERTEX
  8
0
  5
257E7
 10
111.830
 20
217.785
 30
0.000000
  70
    32
  0
VERTEX
  8
0
  5
257E8
 10
111.467
 20
217.647
 30
0.000000
  70
    32
  0
VERTEX
  8
0
  5
257E9
 10
111.105
 20
217.505
 30
0.000000
  70
    32
  0
VERTEX
  8
0
  5
257EA
 10
110.745
 20
217.357
 30
0.000000
  70
    32
  0
VERTEX
  8
0
  5
257EB
 10
110.387
 20
217.205
 30
0.000000
  70
    32
  0
VERTEX
  8
0
  5
257EC
 10
110.029
 20
217.049
 30
0.000000
  70
    32
  0
VERTEX
  8
0
  5
257ED
 10
109.674
 20
216.887
 30
0.000000
  70
    32
  0
VERTEX
  8
0
  5
257EE
 10
109.319
 20
216.722
 30
0.000000
  70
    32
  0
VERTEX
  8
0
  5
257EF
 10
108.967
 20
216.551
 30
0.000000
  70
    32
  0
VERTEX
  8
0
  5
257F0
 10
108.616
 20
216.376
 30
0.000000
  70
    32
  0
VERTEX
  8
0
  5
257F1
 10
108.266
 20
216.197
 30
0.000000
  70
    32
  0
VERTEX
  8
0
  5
257F2
 10
107.919
 20
216.013
 30
0.000000
  70
    32
  0
VERTEX
  8
0
  5
257F3
 10
107.573
 20
215.824
 30
0.000000
  70
    32
  0
VERTEX
  8
0
  5
257F4
 10
107.229
 20
215.632
 30
0.000000
  70
    32
  0
VERTEX
  8
0
  5
257F5
 10
106.886
 20
215.434
 30
0.000000
  70
    32
  0
VERTEX
  8
0
  5
257F6
 10
106.546
 20
215.233
 30
0.000000
  70
    32
  0
VERTEX
  8
0
  5
257F7
 10
106.207
 20
215.026
 30
0.000000
  70
    32
  0
VERTEX
  8
0
  5
257F8
 10
105.871
 20
214.816
 30
0.000000
  70
    32
  0
VERTEX
  8
0
  5
257F9
 10
105.536
 20
214.601
 30
0.000000
  70
    32
  0
VERTEX
  8
0
  5
257FA
 10
105.204
 20
214.382
 30
0.000000
  70
    32
  0
VERTEX
  8
0
  5
257FB
 10
104.873
 20
214.159
 30
0.000000
  70
    32
  0
VERTEX
  8
0
  5
257FC
 10
104.545
 20
213.931
 30
0.000000
  70
    32
  0
VERTEX
  8
0
  5
257FD
 10
104.219
 20
213.699
 30
0.000000
  70
    32
  0
VERTEX
  8
0
  5
257FE
 10
103.895
 20
213.463
 30
0.000000
  70
    32
  0
VERTEX
  8
0
  5
257FF
 10
103.573
 20
213.223
 30
0.000000
  70
    32
  0
VERTEX
  8
0
  5
25800
 10
103.253
 20
212.979
 30
0.000000
  70
    32
  0
VERTEX
  8
0
  5
25801
 10
102.936
 20
212.730
 30
0.000000
  70
    32
  0
VERTEX
  8
0
  5
25802
 10
102.621
 20
212.478
 30
0.000000
  70
    32
  0
VERTEX
  8
0
  5
25803
 10
102.309
 20
212.221
 30
0.000000
  70
    32
  0
VERTEX
  8
0
  5
25804
 10
101.999
 20
211.960
 30
0.000000
  70
    32
  0
VERTEX
  8
0
  5
25805
 10
101.691
 20
211.696
 30
0.000000
  70
    32
  0
VERTEX
  8
0
  5
25806
 10
101.386
 20
211.427
 30
0.000000
  70
    32
  0
VERTEX
  8
0
  5
25807
 10
101.083
 20
211.155
 30
0.000000
  70
    32
  0
VERTEX
  8
0
  5
25808
 10
100.783
 20
210.878
 30
0.000000
  70
    32
  0
VERTEX
  8
0
  5
25809
 10
100.486
 20
210.598
 30
0.000000
  70
    32
  0
VERTEX
  8
0
  5
2580A
 10
100.191
 20
210.314
 30
0.000000
  70
    32
  0
VERTEX
  8
0
  5
2580B
 10
99.8991
 20
210.026
 30
0.000000
  70
    32
  0
SEQEND
  8
0
  5
2580C
  0
POLYLINE
  5
2539B
  8
0
 66
     1
 10
0.0
 20
0.0
 30
0.0
 70
   128
  0
VERTEX
  5
255F7
  8
0
 10
92.833526332977385
 20
162.4558272324698
 30
0.0
  0
VERTEX
  5
255F8
  8
0
 10
92.643185032596989
 20
163.35507830441341
 30
0.0
  0
VERTEX
  5
255F9
  8
0
 10
92.574106623562216
 20
164.2624524498089
 30
0.0
  0
SEQEND
  5
255FA
  8
0
  0
POLYLINE
  5
2539C
  8
0
 66
     1
 10
0.0
 20
0.0
 30
0.0
 70
   128
  0
VERTEX
  5
255FB
  8
0
 10
92.574106623562216
 20
158.84257679779139
 30
0.0
  0
VERTEX
  5
255FC
  8
0
 10
92.724760609339569
 20
161.55432864951669
 30
0.0
  0
VERTEX
  5
255FD
  8
0
 10
92.833526332977385
 20
162.4558272324698
 30
0.0
  0
SEQEND
  5
255FE
  8
0
  0
POLYLINE
  5
2539E
  8
0
 66
     1
 10
0.0
 20
0.0
 30
0.0
 70
   128
  0
VERTEX
  5
255FF
  8
0
 10
97.814686914146819
 20
162.4558272324698
 30
0.0
  0
VERTEX
  5
25600
  8
0
 10
97.923452637784408
 20
161.55432864951669
 30
0.0
  0
VERTEX
  5
25601
  8
0
 10
98.074106623562216
 20
158.84257679779139
 30
0.0
  0
SEQEND
  5
25602
  8
0
  0
POLYLINE
  5
2539F
  8
0
 66
     1
 10
0.0
 20
0.0
 30
0.0
 70
   128
  0
VERTEX
  5
25603
  8
0
 10
98.074106623562216
 20
158.84257679779139
 30
0.0
  0
VERTEX
  5
25604
  8
0
 10
98.005633139007514
 20
157.03595158045221
 30
0.0
  0
VERTEX
  5
25605
  8
0
 10
97.814686914146819
 20
155.22932636311299
 30
0.0
  0
SEQEND
  5
25606
  8
0
  0
LINE
  5
253A0
  8
0
 10
92.833526332977385
 20
155.22932636311299
 30
0.0
 11
97.814686914146819
 21
155.22932636311299
 31
0.0
  0
POLYLINE
  5
253A1
  8
0
 66
     1
 10
0.0
 20
0.0
 30
0.0
 70
   128
  0
VERTEX
  5
25607
  8
0
 10
92.833526332977385
 20
155.22932636311299
 30
0.0
  0
VERTEX
  5
25608
  8
0
 10
92.643185032596989
 20
157.02782850700021
 30
0.0
  0
VERTEX
  5
25609
  8
0
 10
92.574106623562216
 20
158.84257679779139
 30
0.0
  0
SEQEND
  5
2560A
  8
0
  0
LINE
  5
253A2
  8
0
 10
92.833526332977385
 20
162.4558272324698
 30
0.0
 11
97.814686914146819
 21
162.4558272324698
 31
0.0
  0
POLYLINE
  5
253A3
  8
0
 66
     1
 10
0.0
 20
0.0
 30
0.0
 70
   128
  0
VERTEX
  5
2560B
  8
0
 10
97.814686914146819
 20
166.06907766714809
 30
0.0
  0
VERTEX
  5
2560C
  8
0
 10
97.946421903171895
 20
165.50659796930469
 30
0.0
  0
VERTEX
  5
2560D
  8
0
 10
98.074106623562216
 20
164.2624524498089
 30
0.0
  0
SEQEND
  5
2560E
  8
0
  0
POLYLINE
  5
253A4
  8
0
 66
     1
 10
0.0
 20
0.0
 30
0.0
 70
   128
  0
VERTEX
  5
2560F
  8
0
 10
98.074106623562216
 20
164.2624524498089
 30
0.0
  0
VERTEX
  5
25610
  8
0
 10
98.005633139007514
 20
163.35913984113941
 30
0.0
  0
VERTEX
  5
25611
  8
0
 10
97.814686914146819
 20
162.4558272324698
 30
0.0
  0
SEQEND
  5
25612
  8
0
  0
POLYLINE
  5
253A5
  8
0
 66
     1
 10
0.0
 20
0.0
 30
0.0
 70
   128
  0
VERTEX
  5
25613
  8
0
 10
92.574106623562216
 20
164.2624524498089
 30
0.0
  0
VERTEX
  5
25614
  8
0
 10
92.701791343952095
 20
165.50659796930469
 30
0.0
  0
VERTEX
  5
25615
  8
0
 10
92.833526332977385
 20
166.06907766714809
 30
0.0
  0
SEQEND
  5
25616
  8
0
  0
LINE
  5
253A6
  8
0
 10
92.833526332977385
 20
166.06907766714809
 30
0.0
 11
97.814686914146819
 21
166.06907766714809
 31
0.0
  0
POLYLINE
  5
253A7
  8
0
 66
     1
 10
0.0
 20
0.0
 30
0.0
 70
   128
  0
VERTEX
  5
25617
  8
0
 10
97.814686914146819
 20
155.22932636311299
 30
0.0
  0
VERTEX
  5
25618
  8
0
 10
98.005028214527456
 20
154.33007529116929
 30
0.0
  0
VERTEX
  5
25619
  8
0
 10
98.074106623562216
 20
153.42270114577369
 30
0.0
  0
SEQEND
  5
2561A
  8
0
  0
POLYLINE
  5
253A8
  8
0
 66
     1
 10
0.0
 20
0.0
 30
0.0
 70
   128
  0
VERTEX
  5
2561B
  8
0
 10
98.074106623562216
 20
153.42270114577369
 30
0.0
  0
VERTEX
  5
2561C
  8
0
 10
98.072996016983438
 20
153.30879684097641
 30
0.0
  0
VERTEX
  5
2561D
  8
0
 10
97.814686914146819
 20
151.6160759284345
 30
0.0
  0
SEQEND
  5
2561E
  8
0
  0
LINE
  5
253A9
  8
0
 10
92.833526332977385
 20
151.6160759284345
 30
0.0
 11
97.814686914146819
 21
151.6160759284345
 31
0.0
  0
POLYLINE
  5
253AA
  8
0
 66
     1
 10
0.0
 20
0.0
 30
0.0
 70
   128
  0
VERTEX
  5
2561F
  8
0
 10
92.833526332977385
 20
151.6160759284345
 30
0.0
  0
VERTEX
  5
25620
  8
0
 10
92.575217230140765
 20
153.30879684097641
 30
0.0
  0
VERTEX
  5
25621
  8
0
 10
92.574106623562216
 20
153.42270114577369
 30
0.0
  0
SEQEND
  5
25622
  8
0
  0
POLYLINE
  5
253AB
  8
0
 66
     1
 10
0.0
 20
0.0
 30
0.0
 70
   128
  0
VERTEX
  5
25623
  8
0
 10
92.574106623562216
 20
153.42270114577369
 30
0.0
  0
VERTEX
  5
25624
  8
0
 10
92.642580108116704
 20
154.3260137544433
 30
0.0
  0
VERTEX
  5
25625
  8
0
 10
92.833526332977385
 20
155.22932636311299
 30
0.0
  0
SEQEND
  5
25626
  8
0
  0
POLYLINE
  5
253AD
  8
0
 66
     1
 10
0.0
 20
0.0
 30
0.0
 70
   128
  0
VERTEX
  5
25627
  8
0
 10
147.46352633297781
 20
162.4558272324698
 30
0.0
  0
VERTEX
  5
25628
  8
0
 10
147.35476060933979
 20
161.55432864951669
 30
0.0
  0
VERTEX
  5
25629
  8
0
 10
147.20410662356201
 20
158.84257679779139
 30
0.0
  0
SEQEND
  5
2562A
  8
0
  0
POLYLINE
  5
253AF
  8
0
 66
     1
 10
0.0
 20
0.0
 30
0.0
 70
   128
  0
VERTEX
  5
2562B
  8
0
 10
147.20410662356201
 20
164.2624524498089
 30
0.0
  0
VERTEX
  5
2562C
  8
0
 10
147.2725801081169
 20
163.35913984113941
 30
0.0
  0
VERTEX
  5
2562D
  8
0
 10
147.46352633297781
 20
162.4558272324698
 30
0.0
  0
SEQEND
  5
2562E
  8
0
  0
LINE
  5
253B0
  8
0
 10
151.6446869141464
 20
162.4558272324698
 30
0.0
 11
147.46352633297781
 21
162.4558272324698
 31
0.0
  0
POLYLINE
  5
253B1
  8
0
 66
     1
 10
0.0
 20
0.0
 30
0.0
 70
   128
  0
VERTEX
  5
2562F
  8
0
 10
147.46352633297781
 20
166.06907766714809
 30
0.0
  0
VERTEX
  5
25630
  8
0
 10
147.33179134395229
 20
165.50659796930469
 30
0.0
  0
VERTEX
  5
25631
  8
0
 10
147.20410662356201
 20
164.2624524498089
 30
0.0
  0
SEQEND
  5
25632
  8
0
  0
LINE
  5
253B2
  8
0
 10
151.6446869141464
 20
166.06907766714809
 30
0.0
 11
147.46352633297781
 21
166.06907766714809
 31
0.0
  0
POLYLINE
  5
253B3
  8
0
 66
     1
 10
0.0
 20
0.0
 30
0.0
 70
   128
  0
VERTEX
  5
25633
  8
0
 10
151.9041066235622
 20
164.2624524498089
 30
0.0
  0
VERTEX
  5
25634
  8
0
 10
151.77642190317189
 20
165.50659796930469
 30
0.0
  0
VERTEX
  5
25635
  8
0
 10
151.6446869141464
 20
166.06907766714809
 30
0.0
  0
SEQEND
  5
25636
  8
0
  0
POLYLINE
  5
253B4
  8
0
 66
     1
 10
0.0
 20
0.0
 30
0.0
 70
   128
  0
VERTEX
  5
25637
  8
0
 10
151.6446869141464
 20
162.4558272324698
 30
0.0
  0
VERTEX
  5
25638
  8
0
 10
151.83502821452751
 20
163.35507830441341
 30
0.0
  0
VERTEX
  5
25639
  8
0
 10
151.9041066235622
 20
164.2624524498089
 30
0.0
  0
SEQEND
  5
2563A
  8
0
  0
POLYLINE
  5
253B6
  8
0
 66
     1
 10
0.0
 20
0.0
 30
0.0
 70
   128
  0
VERTEX
  5
2563B
  8
0
 10
147.20410662356201
 20
158.84257679779139
 30
0.0
  0
VERTEX
  5
2563C
  8
0
 10
147.2725801081169
 20
157.03595158045221
 30
0.0
  0
VERTEX
  5
2563D
  8
0
 10
147.46352633297781
 20
155.22932636311299
 30
0.0
  0
SEQEND
  5
2563E
  8
0
  0
POLYLINE
  5
253B7
  8
0
 66
     1
 10
0.0
 20
0.0
 30
0.0
 70
   128
  0
VERTEX
  5
2563F
  8
0
 10
147.46352633297781
 20
155.22932636311299
 30
0.0
  0
VERTEX
  5
25640
  8
0
 10
147.2731850325967
 20
154.33007529116929
 30
0.0
  0
VERTEX
  5
25641
  8
0
 10
147.20410662356201
 20
153.42270114577369
 30
0.0
  0
SEQEND
  5
25642
  8
0
  0
LINE
  5
253B8
  8
0
 10
151.6446869141464
 20
155.22932636311299
 30
0.0
 11
147.46352633297781
 21
155.22932636311299
 31
0.0
  0
POLYLINE
  5
253B9
  8
0
 66
     1
 10
0.0
 20
0.0
 30
0.0
 70
   128
  0
VERTEX
  5
25643
  8
0
 10
151.9041066235622
 20
158.84257679779139
 30
0.0
  0
VERTEX
  5
25644
  8
0
 10
151.75345263778439
 20
161.55432864951669
 30
0.0
  0
VERTEX
  5
25645
  8
0
 10
151.6446869141464
 20
162.4558272324698
 30
0.0
  0
SEQEND
  5
25646
  8
0
  0
POLYLINE
  5
253BA
  8
0
 66
     1
 10
0.0
 20
0.0
 30
0.0
 70
   128
  0
VERTEX
  5
25647
  8
0
 10
151.6446869141464
 20
155.22932636311299
 30
0.0
  0
VERTEX
  5
25648
  8
0
 10
151.83502821452751
 20
157.02782850700021
 30
0.0
  0
VERTEX
  5
25649
  8
0
 10
151.9041066235622
 20
158.84257679779139
 30
0.0
  0
SEQEND
  5
2564A
  8
0
  0
LINE
  5
253BB
  8
0
 10
151.6446869141464
 20
151.6160759284345
 30
0.0
 11
147.46352633297781
 21
151.6160759284345
 31
0.0
  0
POLYLINE
  5
253BC
  8
0
 66
     1
 10
0.0
 20
0.0
 30
0.0
 70
   128
  0
VERTEX
  5
2564B
  8
0
 10
147.20410662356201
 20
153.42270114577369
 30
0.0
  0
VERTEX
  5
2564C
  8
0
 10
147.20521723014099
 20
153.30879684097641
 30
0.0
  0
VERTEX
  5
2564D
  8
0
 10
147.46352633297781
 20
151.6160759284345
 30
0.0
  0
SEQEND
  5
2564E
  8
0
  0
POLYLINE
  5
253BD
  8
0
 66
     1
 10
0.0
 20
0.0
 30
0.0
 70
   128
  0
VERTEX
  5
2564F
  8
0
 10
151.9041066235622
 20
153.42270114577369
 30
0.0
  0
VERTEX
  5
25650
  8
0
 10
151.83563313900731
 20
154.3260137544433
 30
0.0
  0
VERTEX
  5
25651
  8
0
 10
151.6446869141464
 20
155.22932636311299
 30
0.0
  0
SEQEND
  5
25652
  8
0
  0
POLYLINE
  5
253BE
  8
0
 66
     1
 10
0.0
 20
0.0
 30
0.0
 70
   128
  0
VERTEX
  5
25653
  8
0
 10
151.6446869141464
 20
151.6160759284345
 30
0.0
  0
VERTEX
  5
25654
  8
0
 10
151.9029960169832
 20
153.30879684097641
 30
0.0
  0
VERTEX
  5
25655
  8
0
 10
151.9041066235622
 20
153.42270114577369
 30
0.0
  0
SEQEND
  5
25656
  8
0
  0
LINE
  5
253C2
  8
0
 10
90.074106623562216
 20
164.65757679779131
 30
0.0
 11
90.074106623562216
 21
153.02757679779131
 31
0.0
  0
LINE
  5
253C4
  8
0
 10
88.004106623562038
 20
162.0755767977914
 30
0.0
 11
88.004106623562038
 21
155.60957679779131
 31
0.0
  0
LINE
  5
253C6
  8
0
 10
88.771106623562105
 20
162.84257679779151
 30
0.0
 11
88.771106623562105
 21
154.84257679779139
 31
0.0
  0
LINE
  5
253C7
  8
0
 10
92.574106623562216
 20
165.10091013112469
 30
0.0
 11
92.574106623562216
 21
152.5842434644581
 31
0.0
  0
LINE
  5
253C9
  8
0
 10
147.20410662356201
 20
165.10091013112469
 30
0.0
 11
147.20410662356201
 21
152.5842434644581
 31
0.0
  0
LINE
  5
253CB
  8
0
 10
151.9041066235622
 20
165.10091013112469
 30
0.0
 11
151.9041066235622
 21
152.5842434644581
 31
0.0
  0
LINE
  5
253CD
  8
0
 10
107.3391066235621
 20
112.6365165892004
 30
0.0
 11
107.3391066235621
 21
205.04863700638339
 31
0.0
  0
LINE
  5
253CF
  8
0
 10
137.33910662356189
 20
112.6365165891998
 30
0.0
 11
137.33910662356209
 21
205.04863700638339
 31
0.0
  0
LINE
  5
253D2
  8
0
 10
100.3391066235621
 20
147.48765979050739
 30
0.0
 11
100.3391066235621
 21
170.1974938050748
 31
0.0
  0
LINE
  5
253D3
  8
0
 10
144.33910662356189
 20
147.48765979050771
 30
0.0
 11
144.3391066235622
 21
170.1974938050754
 31
0.0
  0
LINE
  5
253DA
  8
0
 10
102.16479513806701
 20
145.49527039432431
 30
0.0
 11
102.1647951380673
 21
172.1898832012584
 31
0.0
  0
LINE
  5
253DB
  8
0
 10
142.5134181090568
 20
145.49527039432431
 30
0.0
 11
142.513418109057
 21
172.1898832012584
 31
0.0
  0
LINE
  5
253DD
  8
0
 10
478.96552534442372
 20
225.84257679779151
 30
0.0
 11
478.96552534442372
 21
178.992526436839
 31
0.0
  0
LINE
  5
253DE
  8
0
 10
551.96552534442378
 20
178.99252643683869
 30
0.0
 11
551.96552534442378
 21
225.84257679779151
 31
0.0
  0
LINE
  5
253DF
  8
0
 10
478.96552534442372
 20
233.54257679779141
 30
0.0
 11
480.32324309587892
 21
225.84257679779151
 31
0.0
  0
LINE
  5
253E0
  8
0
 10
550.60780759296847
 20
225.84257679779151
 30
0.0
 11
551.96552534442378
 21
233.54257679779141
 31
0.0
  0
LINE
  5
253E1
  8
0
 10
482.61552534442382
 20
234.34257679779151
 30
0.0
 11
482.61552534442382
 21
233.54257679779141
 31
0.0
  0
LINE
  5
253E2
  8
0
 10
548.31552534442369
 20
233.54257679779141
 30
0.0
 11
548.31552534442369
 21
234.34257679779151
 31
0.0
  0
LINE
  5
253E3
  8
0
 10
493.0255253444239
 20
152.84257679779139
 30
0.0
 11
493.46552534442378
 21
152.84257679779139
 31
0.0
  0
LINE
  5
253E4
  8
0
 10
537.46552534442367
 20
152.84257679779139
 30
0.0
 11
537.90552534442384
 21
152.84257679779139
 31
0.0
  0
LINE
  5
253E5
  8
0
 10
537.90552534442384
 20
164.84257679779151
 30
0.0
 11
537.46552534442367
 21
164.84257679779151
 31
0.0
  0
LINE
  5
253E6
  8
0
 10
493.46552534442378
 20
164.84257679779151
 30
0.0
 11
493.0255253444239
 21
164.84257679779151
 31
0.0
  0
LINE
  5
253E7
  8
0
 10
545.23052534442377
 20
153.02757679779131
 30
0.0
 11
547.73052534442388
 21
153.02757679779131
 31
0.0
  0
LINE
  5
253E8
  8
0
 10
549.03352534442388
 20
154.84257679779139
 30
0.0
 11
549.80052534442382
 21
155.60957679779131
 31
0.0
  0
LINE
  5
253E9
  8
0
 10
549.80052534442382
 20
162.0755767977914
 30
0.0
 11
549.21171670960746
 21
162.66438543260779
 31
0.0
  0
LINE
  5
253EA
  8
0
 10
547.73052534442388
 20
154.84257679779139
 30
0.0
 11
549.03352534442388
 21
154.84257679779139
 31
0.0
  0
LINE
  5
253EB
  8
0
 10
544.97110563500848
 20
151.6160759284345
 30
0.0
 11
545.23052534442377
 21
152.5842434644581
 31
0.0
  0
LINE
  5
253EC
  8
0
 10
485.9005253444239
 20
152.5842434644581
 30
0.0
 11
486.15994505383929
 21
151.6160759284345
 31
0.0
  0
ARC
  5
253ED
  8
0
 10
515.4655253444239
 20
158.84257679779139
 30
0.0
 40
50.000000000001108
 50
254.2861389519895
 51
285.71386104801047
  0
ARC
  5
253EE
  8
0
 10
515.4655253444239
 20
158.84257679779139
 30
0.0
 40
50.000000000001002
 50
74.286138951989543
 51
105.7138610480104
  0
ARC
  5
253EF
  8
0
 10
528.46552534442287
 20
205.04863700638239
 30
0.0
 40
2.0000000000010671
 50
0.000000000014656
 51
74.286138951962471
  0
ARC
  5
253F0
  8
0
 10
528.46552534442287
 20
112.6365165892004
 30
0.0
 40
2.0000000000010671
 50
285.71386104803759
 51
359.99999999998369
  0
ARC
  5
253F1
  8
0
 10
502.46552534442492
 20
205.04863700638239
 30
0.0
 40
2.0000000000010671
 50
105.7138610480375
 51
179.99999999998531
  0
ARC
  5
253F2
  8
0
 10
502.46552534442492
 20
112.6365165892003
 30
0.0
 40
2.0000000000010369
 50
180.00000000001461
 51
254.2861389519625
  0
LINE
  5
253F3
  8
0
 10
530.46552534442367
 20
145.04257679779141
 30
0.0
 11
535.63983682991875
 21
145.49527039432431
 31
0.0
  0
LINE
  5
253F4
  8
0
 10
535.63983682991875
 20
172.1898832012584
 30
0.0
 11
530.46552534442367
 21
172.64257679779121
 31
0.0
  0
LINE
  5
253F5
  8
0
 10
500.46552534442372
 20
172.64257679779121
 30
0.0
 11
495.29121385892893
 21
172.1898832012584
 31
0.0
  0
LINE
  5
253F6
  8
0
 10
495.29121385892893
 20
145.49527039432431
 30
0.0
 11
500.46552534442372
 21
145.0425767977915
 31
0.0
  0
ARC
  5
253F7
  8
0
 10
535.46552534442378
 20
170.1974938050748
 30
0.0
 40
2.000000000000115
 50
0.0000000000081422
 51
85.00000000000675
  0
ARC
  5
253F8
  8
0
 10
535.46552534442378
 20
147.48765979050799
 30
0.0
 40
2.0000000000001719
 50
274.99999999999329
 51
359.99999999999193
  0
ARC
  5
253F9
  8
0
 10
495.46552534442401
 20
170.1974938050748
 30
0.0
 40
2.0000000000001421
 50
94.999999999993236
 51
179.99999999999179
  0
ARC
  5
253FA
  8
0
 10
495.46552534442401
 20
147.48765979050799
 30
0.0
 40
2.0000000000001741
 50
180.0000000000081
 51
265.00000000000671
  0
LINE
  5
253FB
  8
0
 10
557.96552534442355
 20
234.34257679779151
 30
0.0
 11
557.96552534442355
 21
236.84257679779139
 31
0.0
  0
LINE
  5
25402
  8
0
 10
472.9655253444235
 20
234.34257679779151
 30
0.0
 11
472.9655253444235
 21
236.84257679779139
 31
0.0
  0
LINE
  5
25403
  8
0
 10
472.9655253444235
 20
236.84257679779139
 30
0.0
 11
557.96552534442355
 21
236.84257679779139
 31
0.0
  0
LINE
  5
25404
  8
0
 10
472.9655253444235
 20
234.34257679779151
 30
0.0
 11
557.96552534442355
 21
234.34257679779139
 31
0.0
  0
POLYLINE
  5
25405
  8
0
 10
544.05803855662725
 20
152.35810730958676
 30
0.0
 66
     1
 70
     8
  0
VERTEX
  8
0
  5
2580D
 10
544.058
 20
152.358
 30
0.000000
  70
    32
  0
VERTEX
  8
0
  5
2580E
 10
544.835
 20
153.550
 30
0.000000
  70
    32
  0
VERTEX
  8
0
  5
2580F
 10
545.576
 20
154.773
 30
0.000000
  70
    32
  0
VERTEX
  8
0
  5
25810
 10
546.280
 20
156.025
 30
0.000000
  70
    32
  0
VERTEX
  8
0
  5
25811
 10
546.946
 20
157.306
 30
0.000000
  70
    32
  0
VERTEX
  8
0
  5
25812
 10
547.573
 20
158.614
 30
0.000000
  70
    32
  0
VERTEX
  8
0
  5
25813
 10
548.162
 20
159.946
 30
0.000000
  70
    32
  0
VERTEX
  8
0
  5
25814
 10
548.710
 20
161.302
 30
0.000000
  70
    32
  0
VERTEX
  8
0
  5
25815
 10
549.217
 20
162.679
 30
0.000000
  70
    32
  0
VERTEX
  8
0
  5
25816
 10
549.683
 20
164.077
 30
0.000000
  70
    32
  0
VERTEX
  8
0
  5
25817
 10
550.107
 20
165.493
 30
0.000000
  70
    32
  0
VERTEX
  8
0
  5
25818
 10
550.488
 20
166.925
 30
0.000000
  70
    32
  0
VERTEX
  8
0
  5
25819
 10
550.827
 20
168.372
 30
0.000000
  70
    32
  0
VERTEX
  8
0
  5
2581A
 10
551.122
 20
169.832
 30
0.000000
  70
    32
  0
VERTEX
  8
0
  5
2581B
 10
551.373
 20
171.304
 30
0.000000
  70
    32
  0
VERTEX
  8
0
  5
2581C
 10
551.580
 20
172.785
 30
0.000000
  70
    32
  0
VERTEX
  8
0
  5
2581D
 10
551.743
 20
174.273
 30
0.000000
  70
    32
  0
VERTEX
  8
0
  5
2581E
 10
551.862
 20
175.767
 30
0.000000
  70
    32
  0
VERTEX
  8
0
  5
2581F
 10
551.936
 20
177.266
 30
0.000000
  70
    32
  0
VERTEX
  8
0
  5
25820
 10
551.965
 20
178.766
 30
0.000000
  70
    32
  0
VERTEX
  8
0
  5
25821
 10
551.949
 20
180.266
 30
0.000000
  70
    32
  0
VERTEX
  8
0
  5
25822
 10
551.889
 20
181.765
 30
0.000000
  70
    32
  0
VERTEX
  8
0
  5
25823
 10
551.784
 20
183.261
 30
0.000000
  70
    32
  0
VERTEX
  8
0
  5
25824
 10
551.634
 20
184.752
 30
0.000000
  70
    32
  0
VERTEX
  8
0
  5
25825
 10
551.440
 20
186.235
 30
0.000000
  70
    32
  0
VERTEX
  8
0
  5
25826
 10
551.202
 20
187.709
 30
0.000000
  70
    32
  0
VERTEX
  8
0
  5
25827
 10
550.920
 20
189.173
 30
0.000000
  70
    32
  0
VERTEX
  8
0
  5
25828
 10
550.595
 20
190.624
 30
0.000000
  70
    32
  0
VERTEX
  8
0
  5
25829
 10
550.227
 20
192.061
 30
0.000000
  70
    32
  0
VERTEX
  8
0
  5
2582A
 10
549.815
 20
193.482
 30
0.000000
  70
    32
  0
VERTEX
  8
0
  5
2582B
 10
549.362
 20
194.886
 30
0.000000
  70
    32
  0
VERTEX
  8
0
  5
2582C
 10
548.867
 20
196.269
 30
0.000000
  70
    32
  0
VERTEX
  8
0
  5
2582D
 10
548.331
 20
197.632
 30
0.000000
  70
    32
  0
VERTEX
  8
0
  5
2582E
 10
547.755
 20
198.971
 30
0.000000
  70
    32
  0
VERTEX
  8
0
  5
2582F
 10
547.140
 20
200.287
 30
0.000000
  70
    32
  0
VERTEX
  8
0
  5
25830
 10
546.485
 20
201.576
 30
0.000000
  70
    32
  0
VERTEX
  8
0
  5
25831
 10
545.792
 20
202.837
 30
0.000000
  70
    32
  0
VERTEX
  8
0
  5
25832
 10
545.063
 20
204.069
 30
0.000000
  70
    32
  0
VERTEX
  8
0
  5
25833
 10
544.296
 20
205.270
 30
0.000000
  70
    32
  0
VERTEX
  8
0
  5
25834
 10
543.495
 20
206.439
 30
0.000000
  70
    32
  0
VERTEX
  8
0
  5
25835
 10
542.659
 20
207.575
 30
0.000000
  70
    32
  0
VERTEX
  8
0
  5
25836
 10
541.790
 20
208.675
 30
0.000000
  70
    32
  0
VERTEX
  8
0
  5
25837
 10
540.888
 20
209.739
 30
0.000000
  70
    32
  0
VERTEX
  8
0
  5
25838
 10
539.956
 20
210.765
 30
0.000000
  70
    32
  0
VERTEX
  8
0
  5
25839
 10
538.993
 20
211.753
 30
0.000000
  70
    32
  0
VERTEX
  8
0
  5
2583A
 10
538.001
 20
212.700
 30
0.000000
  70
    32
  0
VERTEX
  8
0
  5
2583B
 10
536.982
 20
213.606
 30
0.000000
  70
    32
  0
VERTEX
  8
0
  5
2583C
 10
535.936
 20
214.469
 30
0.000000
  70
    32
  0
VERTEX
  8
0
  5
2583D
 10
534.866
 20
215.289
 30
0.000000
  70
    32
  0
VERTEX
  8
0
  5
2583E
 10
533.771
 20
216.064
 30
0.000000
  70
    32
  0
VERTEX
  8
0
  5
2583F
 10
532.654
 20
216.794
 30
0.000000
  70
    32
  0
VERTEX
  8
0
  5
25840
 10
531.516
 20
217.477
 30
0.000000
  70
    32
  0
VERTEX
  8
0
  5
25841
 10
530.358
 20
218.113
 30
0.000000
  70
    32
  0
VERTEX
  8
0
  5
25842
 10
529.182
 20
218.702
 30
0.000000
  70
    32
  0
VERTEX
  8
0
  5
25843
 10
527.990
 20
219.241
 30
0.000000
  70
    32
  0
VERTEX
  8
0
  5
25844
 10
526.781
 20
219.731
 30
0.000000
  70
    32
  0
VERTEX
  8
0
  5
25845
 10
525.559
 20
220.172
 30
0.000000
  70
    32
  0
VERTEX
  8
0
  5
25846
 10
524.325
 20
220.561
 30
0.000000
  70
    32
  0
VERTEX
  8
0
  5
25847
 10
523.079
 20
220.900
 30
0.000000
  70
    32
  0
VERTEX
  8
0
  5
25848
 10
521.825
 20
221.187
 30
0.000000
  70
    32
  0
VERTEX
  8
0
  5
25849
 10
520.562
 20
221.423
 30
0.000000
  70
    32
  0
VERTEX
  8
0
  5
2584A
 10
519.294
 20
221.606
 30
0.000000
  70
    32
  0
VERTEX
  8
0
  5
2584B
 10
518.020
 20
221.737
 30
0.000000
  70
    32
  0
VERTEX
  8
0
  5
2584C
 10
516.744
 20
221.816
 30
0.000000
  70
    32
  0
VERTEX
  8
0
  5
2584D
 10
515.466
 20
221.843
 30
0.000000
  70
    32
  0
VERTEX
  8
0
  5
2584E
 10
514.187
 20
221.816
 30
0.000000
  70
    32
  0
VERTEX
  8
0
  5
2584F
 10
512.911
 20
221.737
 30
0.000000
  70
    32
  0
VERTEX
  8
0
  5
25850
 10
511.637
 20
221.606
 30
0.000000
  70
    32
  0
VERTEX
  8
0
  5
25851
 10
510.369
 20
221.423
 30
0.000000
  70
    32
  0
VERTEX
  8
0
  5
25852
 10
509.106
 20
221.187
 30
0.000000
  70
    32
  0
VERTEX
  8
0
  5
25853
 10
507.852
 20
220.900
 30
0.000000
  70
    32
  0
VERTEX
  8
0
  5
25854
 10
506.606
 20
220.561
 30
0.000000
  70
    32
  0
VERTEX
  8
0
  5
25855
 10
505.372
 20
220.172
 30
0.000000
  70
    32
  0
VERTEX
  8
0
  5
25856
 10
504.150
 20
219.731
 30
0.000000
  70
    32
  0
VERTEX
  8
0
  5
25857
 10
502.941
 20
219.241
 30
0.000000
  70
    32
  0
VERTEX
  8
0
  5
25858
 10
501.749
 20
218.702
 30
0.000000
  70
    32
  0
VERTEX
  8
0
  5
25859
 10
500.573
 20
218.113
 30
0.000000
  70
    32
  0
VERTEX
  8
0
  5
2585A
 10
499.415
 20
217.477
 30
0.000000
  70
    32
  0
VERTEX
  8
0
  5
2585B
 10
498.277
 20
216.794
 30
0.000000
  70
    32
  0
VERTEX
  8
0
  5
2585C
 10
497.160
 20
216.064
 30
0.000000
  70
    32
  0
VERTEX
  8
0
  5
2585D
 10
496.065
 20
215.289
 30
0.000000
  70
    32
  0
VERTEX
  8
0
  5
2585E
 10
494.995
 20
214.469
 30
0.000000
  70
    32
  0
VERTEX
  8
0
  5
2585F
 10
493.949
 20
213.606
 30
0.000000
  70
    32
  0
VERTEX
  8
0
  5
25860
 10
492.930
 20
212.700
 30
0.000000
  70
    32
  0
VERTEX
  8
0
  5
25861
 10
491.938
 20
211.753
 30
0.000000
  70
    32
  0
VERTEX
  8
0
  5
25862
 10
490.975
 20
210.765
 30
0.000000
  70
    32
  0
VERTEX
  8
0
  5
25863
 10
490.043
 20
209.739
 30
0.000000
  70
    32
  0
VERTEX
  8
0
  5
25864
 10
489.141
 20
208.675
 30
0.000000
  70
    32
  0
VERTEX
  8
0
  5
25865
 10
488.272
 20
207.575
 30
0.000000
  70
    32
  0
VERTEX
  8
0
  5
25866
 10
487.436
 20
206.439
 30
0.000000
  70
    32
  0
VERTEX
  8
0
  5
25867
 10
486.635
 20
205.270
 30
0.000000
  70
    32
  0
VERTEX
  8
0
  5
25868
 10
485.868
 20
204.069
 30
0.000000
  70
    32
  0
VERTEX
  8
0
  5
25869
 10
485.139
 20
202.837
 30
0.000000
  70
    32
  0
VERTEX
  8
0
  5
2586A
 10
484.446
 20
201.576
 30
0.000000
  70
    32
  0
VERTEX
  8
0
  5
2586B
 10
483.791
 20
200.287
 30
0.000000
  70
    32
  0
VERTEX
  8
0
  5
2586C
 10
483.176
 20
198.971
 30
0.000000
  70
    32
  0
VERTEX
  8
0
  5
2586D
 10
482.600
 20
197.632
 30
0.000000
  70
    32
  0
VERTEX
  8
0
  5
2586E
 10
482.064
 20
196.269
 30
0.000000
  70
    32
  0
VERTEX
  8
0
  5
2586F
 10
481.569
 20
194.886
 30
0.000000
  70
    32
  0
VERTEX
  8
0
  5
25870
 10
481.116
 20
193.482
 30
0.000000
  70
    32
  0
VERTEX
  8
0
  5
25871
 10
480.705
 20
192.061
 30
0.000000
  70
    32
  0
VERTEX
  8
0
  5
25872
 10
480.336
 20
190.624
 30
0.000000
  70
    32
  0
VERTEX
  8
0
  5
25873
 10
480.011
 20
189.173
 30
0.000000
  70
    32
  0
VERTEX
  8
0
  5
25874
 10
479.729
 20
187.709
 30
0.000000
  70
    32
  0
VERTEX
  8
0
  5
25875
 10
479.491
 20
186.235
 30
0.000000
  70
    32
  0
VERTEX
  8
0
  5
25876
 10
479.297
 20
184.752
 30
0.000000
  70
    32
  0
VERTEX
  8
0
  5
25877
 10
479.147
 20
183.261
 30
0.000000
  70
    32
  0
VERTEX
  8
0
  5
25878
 10
479.042
 20
181.765
 30
0.000000
  70
    32
  0
VERTEX
  8
0
  5
25879
 10
478.982
 20
180.266
 30
0.000000
  70
    32
  0
VERTEX
  8
0
  5
2587A
 10
478.966
 20
178.766
 30
0.000000
  70
    32
  0
VERTEX
  8
0
  5
2587B
 10
478.995
 20
177.266
 30
0.000000
  70
    32
  0
VERTEX
  8
0
  5
2587C
 10
479.069
 20
175.767
 30
0.000000
  70
    32
  0
VERTEX
  8
0
  5
2587D
 10
479.188
 20
174.273
 30
0.000000
  70
    32
  0
VERTEX
  8
0
  5
2587E
 10
479.351
 20
172.785
 30
0.000000
  70
    32
  0
VERTEX
  8
0
  5
2587F
 10
479.558
 20
171.304
 30
0.000000
  70
    32
  0
VERTEX
  8
0
  5
25880
 10
479.809
 20
169.832
 30
0.000000
  70
    32
  0
VERTEX
  8
0
  5
25881
 10
480.104
 20
168.372
 30
0.000000
  70
    32
  0
VERTEX
  8
0
  5
25882
 10
480.443
 20
166.925
 30
0.000000
  70
    32
  0
VERTEX
  8
0
  5
25883
 10
480.824
 20
165.493
 30
0.000000
  70
    32
  0
VERTEX
  8
0
  5
25884
 10
481.248
 20
164.077
 30
0.000000
  70
    32
  0
VERTEX
  8
0
  5
25885
 10
481.714
 20
162.679
 30
0.000000
  70
    32
  0
VERTEX
  8
0
  5
25886
 10
482.221
 20
161.302
 30
0.000000
  70
    32
  0
VERTEX
  8
0
  5
25887
 10
482.769
 20
159.946
 30
0.000000
  70
    32
  0
VERTEX
  8
0
  5
25888
 10
483.358
 20
158.614
 30
0.000000
  70
    32
  0
VERTEX
  8
0
  5
25889
 10
483.985
 20
157.306
 30
0.000000
  70
    32
  0
VERTEX
  8
0
  5
2588A
 10
484.651
 20
156.025
 30
0.000000
  70
    32
  0
VERTEX
  8
0
  5
2588B
 10
485.355
 20
154.773
 30
0.000000
  70
    32
  0
VERTEX
  8
0
  5
2588C
 10
486.096
 20
153.550
 30
0.000000
  70
    32
  0
VERTEX
  8
0
  5
2588D
 10
486.873
 20
152.358
 30
0.000000
  70
    32
  0
SEQEND
  8
0
  5
2588E
  0
ARC
  5
25406
  8
0
 10
493.09780495914907
 20
156.608752069003
 30
0.0
 40
7.5376406526801212
 50
214.32749750212571
 51
255.42143213387459
  0
ARC
  5
25407
  8
0
 10
537.85306903670801
 20
156.58057305997789
 30
0.0
 40
7.5053889810157433
 50
284.48625655246718
 51
325.7648138115365
  0
LINE
  5
25408
  8
0
 10
478.96552534442372
 20
225.84257679779151
 30
0.0
 11
551.96552534442378
 21
225.84257679779151
 31
0.0
  0
LINE
  5
25409
  8
0
 10
541.68836723446316
 20
152.35810730958639
 30
0.0
 11
544.05803855662691
 21
152.35810730958639
 31
0.0
  0
POLYLINE
  5
2540A
  8
0
 10
541.68836723446361
 20
152.35810730958673
 30
0.0
 66
     1
 70
     8
  0
VERTEX
  8
0
  5
2588F
 10
541.688
 20
152.358
 30
0.000000
  70
    32
  0
VERTEX
  8
0
  5
25890
 10
542.481
 20
153.473
 30
0.000000
  70
    32
  0
VERTEX
  8
0
  5
25891
 10
543.240
 20
154.621
 30
0.000000
  70
    32
  0
VERTEX
  8
0
  5
25892
 10
543.963
 20
155.800
 30
0.000000
  70
    32
  0
VERTEX
  8
0
  5
25893
 10
544.649
 20
157.009
 30
0.000000
  70
    32
  0
VERTEX
  8
0
  5
25894
 10
545.299
 20
158.245
 30
0.000000
  70
    32
  0
VERTEX
  8
0
  5
25895
 10
545.910
 20
159.508
 30
0.000000
  70
    32
  0
VERTEX
  8
0
  5
25896
 10
546.483
 20
160.796
 30
0.000000
  70
    32
  0
VERTEX
  8
0
  5
25897
 10
547.017
 20
162.107
 30
0.000000
  70
    32
  0
VERTEX
  8
0
  5
25898
 10
547.510
 20
163.439
 30
0.000000
  70
    32
  0
VERTEX
  8
0
  5
25899
 10
547.962
 20
164.791
 30
0.000000
  70
    32
  0
VERTEX
  8
0
  5
2589A
 10
548.373
 20
166.161
 30
0.000000
  70
    32
  0
VERTEX
  8
0
  5
2589B
 10
548.742
 20
167.548
 30
0.000000
  70
    32
  0
VERTEX
  8
0
  5
2589C
 10
549.069
 20
168.949
 30
0.000000
  70
    32
  0
VERTEX
  8
0
  5
2589D
 10
549.352
 20
170.363
 30
0.000000
  70
    32
  0
VERTEX
  8
0
  5
2589E
 10
549.593
 20
171.788
 30
0.000000
  70
    32
  0
VERTEX
  8
0
  5
2589F
 10
549.790
 20
173.222
 30
0.000000
  70
    32
  0
VERTEX
  8
0
  5
258A0
 10
549.944
 20
174.664
 30
0.000000
  70
    32
  0
VERTEX
  8
0
  5
258A1
 10
550.054
 20
176.111
 30
0.000000
  70
    32
  0
VERTEX
  8
0
  5
258A2
 10
550.119
 20
177.561
 30
0.000000
  70
    32
  0
VERTEX
  8
0
  5
258A3
 10
550.141
 20
179.014
 30
0.000000
  70
    32
  0
VERTEX
  8
0
  5
258A4
 10
550.118
 20
180.466
 30
0.000000
  70
    32
  0
VERTEX
  8
0
  5
258A5
 10
550.051
 20
181.917
 30
0.000000
  70
    32
  0
VERTEX
  8
0
  5
258A6
 10
549.940
 20
183.364
 30
0.000000
  70
    32
  0
VERTEX
  8
0
  5
258A7
 10
549.785
 20
184.805
 30
0.000000
  70
    32
  0
VERTEX
  8
0
  5
258A8
 10
549.587
 20
186.239
 30
0.000000
  70
    32
  0
VERTEX
  8
0
  5
258A9
 10
549.345
 20
187.663
 30
0.000000
  70
    32
  0
VERTEX
  8
0
  5
258AA
 10
549.060
 20
189.077
 30
0.000000
  70
    32
  0
VERTEX
  8
0
  5
258AB
 10
548.732
 20
190.478
 30
0.000000
  70
    32
  0
VERTEX
  8
0
  5
258AC
 10
548.362
 20
191.864
 30
0.000000
  70
    32
  0
VERTEX
  8
0
  5
258AD
 10
547.949
 20
193.234
 30
0.000000
  70
    32
  0
VERTEX
  8
0
  5
258AE
 10
547.496
 20
194.585
 30
0.000000
  70
    32
  0
VERTEX
  8
0
  5
258AF
 10
547.002
 20
195.917
 30
0.000000
  70
    32
  0
VERTEX
  8
0
  5
258B0
 10
546.467
 20
197.227
 30
0.000000
  70
    32
  0
VERTEX
  8
0
  5
258B1
 10
545.893
 20
198.514
 30
0.000000
  70
    32
  0
VERTEX
  8
0
  5
258B2
 10
545.280
 20
199.776
 30
0.000000
  70
    32
  0
VERTEX
  8
0
  5
258B3
 10
544.630
 20
201.012
 30
0.000000
  70
    32
  0
VERTEX
  8
0
  5
258B4
 10
543.942
 20
202.220
 30
0.000000
  70
    32
  0
VERTEX
  8
0
  5
258B5
 10
543.218
 20
203.398
 30
0.000000
  70
    32
  0
VERTEX
  8
0
  5
258B6
 10
542.458
 20
204.545
 30
0.000000
  70
    32
  0
VERTEX
  8
0
  5
258B7
 10
541.665
 20
205.659
 30
0.000000
  70
    32
  0
VERTEX
  8
0
  5
258B8
 10
540.838
 20
206.740
 30
0.000000
  70
    32
  0
VERTEX
  8
0
  5
258B9
 10
539.978
 20
207.785
 30
0.000000
  70
    32
  0
VERTEX
  8
0
  5
258BA
 10
539.087
 20
208.793
 30
0.000000
  70
    32
  0
VERTEX
  8
0
  5
258BB
 10
538.167
 20
209.764
 30
0.000000
  70
    32
  0
VERTEX
  8
0
  5
258BC
 10
537.217
 20
210.695
 30
0.000000
  70
    32
  0
VERTEX
  8
0
  5
258BD
 10
536.240
 20
211.586
 30
0.000000
  70
    32
  0
VERTEX
  8
0
  5
258BE
 10
535.236
 20
212.435
 30
0.000000
  70
    32
  0
VERTEX
  8
0
  5
258BF
 10
534.207
 20
213.242
 30
0.000000
  70
    32
  0
VERTEX
  8
0
  5
258C0
 10
533.154
 20
214.005
 30
0.000000
  70
    32
  0
VERTEX
  8
0
  5
258C1
 10
532.078
 20
214.724
 30
0.000000
  70
    32
  0
VERTEX
  8
0
  5
258C2
 10
530.982
 20
215.397
 30
0.000000
  70
    32
  0
VERTEX
  8
0
  5
258C3
 10
529.866
 20
216.024
 30
0.000000
  70
    32
  0
VERTEX
  8
0
  5
258C4
 10
528.731
 20
216.603
 30
0.000000
  70
    32
  0
VERTEX
  8
0
  5
258C5
 10
527.579
 20
217.135
 30
0.000000
  70
    32
  0
VERTEX
  8
0
  5
258C6
 10
526.412
 20
217.618
 30
0.000000
  70
    32
  0
VERTEX
  8
0
  5
258C7
 10
525.231
 20
218.052
 30
0.000000
  70
    32
  0
VERTEX
  8
0
  5
258C8
 10
524.038
 20
218.436
 30
0.000000
  70
    32
  0
VERTEX
  8
0
  5
258C9
 10
522.834
 20
218.770
 30
0.000000
  70
    32
  0
VERTEX
  8
0
  5
258CA
 10
521.620
 20
219.054
 30
0.000000
  70
    32
  0
VERTEX
  8
0
  5
258CB
 10
520.399
 20
219.286
 30
0.000000
  70
    32
  0
VERTEX
  8
0
  5
258CC
 10
519.171
 20
219.467
 30
0.000000
  70
    32
  0
VERTEX
  8
0
  5
258CD
 10
517.938
 20
219.596
 30
0.000000
  70
    32
  0
VERTEX
  8
0
  5
258CE
 10
516.703
 20
219.674
 30
0.000000
  70
    32
  0
VERTEX
  8
0
  5
258CF
 10
515.466
 20
219.700
 30
0.000000
  70
    32
  0
VERTEX
  8
0
  5
258D0
 10
514.228
 20
219.674
 30
0.000000
  70
    32
  0
VERTEX
  8
0
  5
258D1
 10
512.993
 20
219.596
 30
0.000000
  70
    32
  0
VERTEX
  8
0
  5
258D2
 10
511.760
 20
219.467
 30
0.000000
  70
    32
  0
VERTEX
  8
0
  5
258D3
 10
510.532
 20
219.286
 30
0.000000
  70
    32
  0
VERTEX
  8
0
  5
258D4
 10
509.311
 20
219.054
 30
0.000000
  70
    32
  0
VERTEX
  8
0
  5
258D5
 10
508.097
 20
218.770
 30
0.000000
  70
    32
  0
VERTEX
  8
0
  5
258D6
 10
506.893
 20
218.436
 30
0.000000
  70
    32
  0
VERTEX
  8
0
  5
258D7
 10
505.700
 20
218.052
 30
0.000000
  70
    32
  0
VERTEX
  8
0
  5
258D8
 10
504.519
 20
217.618
 30
0.000000
  70
    32
  0
VERTEX
  8
0
  5
258D9
 10
503.352
 20
217.135
 30
0.000000
  70
    32
  0
VERTEX
  8
0
  5
258DA
 10
502.200
 20
216.603
 30
0.000000
  70
    32
  0
VERTEX
  8
0
  5
258DB
 10
501.065
 20
216.024
 30
0.000000
  70
    32
  0
VERTEX
  8
0
  5
258DC
 10
499.949
 20
215.397
 30
0.000000
  70
    32
  0
VERTEX
  8
0
  5
258DD
 10
498.853
 20
214.724
 30
0.000000
  70
    32
  0
VERTEX
  8
0
  5
258DE
 10
497.777
 20
214.005
 30
0.000000
  70
    32
  0
VERTEX
  8
0
  5
258DF
 10
496.724
 20
213.242
 30
0.000000
  70
    32
  0
VERTEX
  8
0
  5
258E0
 10
495.695
 20
212.435
 30
0.000000
  70
    32
  0
VERTEX
  8
0
  5
258E1
 10
494.691
 20
211.586
 30
0.000000
  70
    32
  0
VERTEX
  8
0
  5
258E2
 10
493.714
 20
210.695
 30
0.000000
  70
    32
  0
VERTEX
  8
0
  5
258E3
 10
492.764
 20
209.764
 30
0.000000
  70
    32
  0
VERTEX
  8
0
  5
258E4
 10
491.844
 20
208.793
 30
0.000000
  70
    32
  0
VERTEX
  8
0
  5
258E5
 10
490.953
 20
207.785
 30
0.000000
  70
    32
  0
VERTEX
  8
0
  5
258E6
 10
490.094
 20
206.740
 30
0.000000
  70
    32
  0
VERTEX
  8
0
  5
258E7
 10
489.266
 20
205.659
 30
0.000000
  70
    32
  0
VERTEX
  8
0
  5
258E8
 10
488.473
 20
204.545
 30
0.000000
  70
    32
  0
VERTEX
  8
0
  5
258E9
 10
487.713
 20
203.398
 30
0.000000
  70
    32
  0
VERTEX
  8
0
  5
258EA
 10
486.989
 20
202.220
 30
0.000000
  70
    32
  0
VERTEX
  8
0
  5
258EB
 10
486.301
 20
201.012
 30
0.000000
  70
    32
  0
VERTEX
  8
0
  5
258EC
 10
485.651
 20
199.776
 30
0.000000
  70
    32
  0
VERTEX
  8
0
  5
258ED
 10
485.038
 20
198.514
 30
0.000000
  70
    32
  0
VERTEX
  8
0
  5
258EE
 10
484.464
 20
197.227
 30
0.000000
  70
    32
  0
VERTEX
  8
0
  5
258EF
 10
483.930
 20
195.917
 30
0.000000
  70
    32
  0
VERTEX
  8
0
  5
258F0
 10
483.435
 20
194.585
 30
0.000000
  70
    32
  0
VERTEX
  8
0
  5
258F1
 10
482.982
 20
193.234
 30
0.000000
  70
    32
  0
VERTEX
  8
0
  5
258F2
 10
482.570
 20
191.864
 30
0.000000
  70
    32
  0
VERTEX
  8
0
  5
258F3
 10
482.199
 20
190.478
 30
0.000000
  70
    32
  0
VERTEX
  8
0
  5
258F4
 10
481.871
 20
189.077
 30
0.000000
  70
    32
  0
VERTEX
  8
0
  5
258F5
 10
481.586
 20
187.663
 30
0.000000
  70
    32
  0
VERTEX
  8
0
  5
258F6
 10
481.344
 20
186.239
 30
0.000000
  70
    32
  0
VERTEX
  8
0
  5
258F7
 10
481.146
 20
184.805
 30
0.000000
  70
    32
  0
VERTEX
  8
0
  5
258F8
 10
480.991
 20
183.364
 30
0.000000
  70
    32
  0
VERTEX
  8
0
  5
258F9
 10
480.880
 20
181.917
 30
0.000000
  70
    32
  0
VERTEX
  8
0
  5
258FA
 10
480.813
 20
180.466
 30
0.000000
  70
    32
  0
VERTEX
  8
0
  5
258FB
 10
480.791
 20
179.014
 30
0.000000
  70
    32
  0
VERTEX
  8
0
  5
258FC
 10
480.812
 20
177.561
 30
0.000000
  70
    32
  0
VERTEX
  8
0
  5
258FD
 10
480.878
 20
176.111
 30
0.000000
  70
    32
  0
VERTEX
  8
0
  5
258FE
 10
480.987
 20
174.664
 30
0.000000
  70
    32
  0
VERTEX
  8
0
  5
258FF
 10
481.141
 20
173.222
 30
0.000000
  70
    32
  0
VERTEX
  8
0
  5
25900
 10
481.338
 20
171.788
 30
0.000000
  70
    32
  0
VERTEX
  8
0
  5
25901
 10
481.579
 20
170.363
 30
0.000000
  70
    32
  0
VERTEX
  8
0
  5
25902
 10
481.862
 20
168.949
 30
0.000000
  70
    32
  0
VERTEX
  8
0
  5
25903
 10
482.189
 20
167.548
 30
0.000000
  70
    32
  0
VERTEX
  8
0
  5
25904
 10
482.558
 20
166.161
 30
0.000000
  70
    32
  0
VERTEX
  8
0
  5
25905
 10
482.969
 20
164.791
 30
0.000000
  70
    32
  0
VERTEX
  8
0
  5
25906
 10
483.421
 20
163.439
 30
0.000000
  70
    32
  0
VERTEX
  8
0
  5
25907
 10
483.914
 20
162.107
 30
0.000000
  70
    32
  0
VERTEX
  8
0
  5
25908
 10
484.448
 20
160.796
 30
0.000000
  70
    32
  0
VERTEX
  8
0
  5
25909
 10
485.021
 20
159.508
 30
0.000000
  70
    32
  0
VERTEX
  8
0
  5
2590A
 10
485.632
 20
158.245
 30
0.000000
  70
    32
  0
VERTEX
  8
0
  5
2590B
 10
486.282
 20
157.009
 30
0.000000
  70
    32
  0
VERTEX
  8
0
  5
2590C
 10
486.968
 20
155.800
 30
0.000000
  70
    32
  0
VERTEX
  8
0
  5
2590D
 10
487.691
 20
154.621
 30
0.000000
  70
    32
  0
VERTEX
  8
0
  5
2590E
 10
488.450
 20
153.473
 30
0.000000
  70
    32
  0
VERTEX
  8
0
  5
2590F
 10
489.243
 20
152.358
 30
0.000000
  70
    32
  0
SEQEND
  8
0
  5
25910
  0
LINE
  5
2540B
  8
0
 10
486.87301213222059
 20
152.35810730958639
 30
0.0
 11
489.24268345438429
 21
152.35810730958639
 31
0.0
  0
LINE
  5
2540C
  8
0
 10
478.96552534442372
 20
233.54257679779141
 30
0.0
 11
551.96552534442378
 21
233.54257679779141
 31
0.0
  0
ARC
  5
2540D
  8
0
 10
495.5506084592817
 20
157.0899806658349
 30
0.0
 40
7.885464052735597
 50
216.8753012394894
 51
251.32377134184989
  0
ARC
  5
2540E
  8
0
 10
535.41741771279499
 20
157.03890190946419
 30
0.0
 40
7.825256928022104
 50
288.53951368199762
 51
323.26141373667082
  0
LINE
  5
2540F
  8
0
 10
537.90552534442384
 20
210.02636878819371
 30
0.0
 11
537.90552534442384
 21
148.84257679779131
 31
0.0
  0
LINE
  5
25410
  8
0
 10
493.0255253444239
 20
210.02636878819411
 30
0.0
 11
493.0255253444239
 21
148.84257679779131
 31
0.0
  0
LINE
  5
25411
  8
0
 10
539.73052534442388
 20
148.84257679779131
 30
0.0
 11
539.73052534442388
 21
149.31379787637891
 31
0.0
  0
LINE
  5
25412
  8
0
 10
537.90552534442384
 20
148.84257679779131
 30
0.0
 11
539.73052534442388
 21
148.84257679779131
 31
0.0
  0
LINE
  5
25414
  8
0
 10
491.20052534442391
 20
148.84257679779131
 30
0.0
 11
493.0255253444239
 21
148.84257679779131
 31
0.0
  0
LINE
  5
25415
  8
0
 10
491.20052534442391
 20
148.84257679779131
 30
0.0
 11
491.20052534442391
 21
149.31379787637891
 31
0.0
  0
LINE
  5
25417
  8
0
 10
545.15502995402778
 20
154.15843714497939
 30
0.0
 11
545.23052534442377
 21
153.42270114577369
 31
0.0
  0
POLYLINE
  5
25418
  8
0
 66
     1
 10
0.0
 20
0.0
 30
0.0
 70
   128
  0
VERTEX
  5
25657
  8
0
 10
545.23052534442377
 20
153.42270114577369
 30
0.0
  0
VERTEX
  5
25658
  8
0
 10
545.16205185986917
 20
152.51938853710419
 30
0.0
  0
VERTEX
  5
25659
  8
0
 10
544.97110563500871
 20
151.6160759284345
 30
0.0
  0
SEQEND
  5
2565A
  8
0
  0
LINE
  5
25419
  8
0
 10
544.97110563500871
 20
151.6160759284345
 30
0.0
 11
543.48125874703226
 21
151.6160759284345
 31
0.0
  0
LINE
  5
2541A
  8
0
 10
545.23052534442377
 20
153.42270114577369
 30
0.0
 11
545.23052534442377
 21
154.191516097343
 31
0.0
  0
LINE
  5
2541B
  8
0
 10
486.15994505383929
 20
151.6160759284345
 30
0.0
 11
487.49483561832619
 21
151.6160759284345
 31
0.0
  0
POLYLINE
  5
2541C
  8
0
 66
     1
 10
0.0
 20
0.0
 30
0.0
 70
   128
  0
VERTEX
  5
2565B
  8
0
 10
485.9005253444239
 20
153.42270114577369
 30
0.0
  0
VERTEX
  5
2565C
  8
0
 10
485.96899882897861
 20
152.51938853710419
 30
0.0
  0
VERTEX
  5
2565D
  8
0
 10
486.15994505383929
 20
151.6160759284345
 30
0.0
  0
SEQEND
  5
2565E
  8
0
  0
LINE
  5
2541D
  8
0
 10
485.94716609843181
 20
153.8772359401986
 30
0.0
 11
485.9005253444239
 21
153.42270114577369
 31
0.0
  0
LINE
  5
2541E
  8
0
 10
485.9005253444239
 20
153.42270114577369
 30
0.0
 11
485.9005253444239
 21
153.8639766975395
 31
0.0
  0
LINE
  5
2541F
  8
0
 10
547.73052534442388
 20
153.02757679779131
 30
0.0
 11
547.73052534442388
 21
158.9584695224641
 31
0.0
  0
LINE
  5
25420
  8
0
 10
549.80052534442382
 20
155.60957679779131
 30
0.0
 11
549.80052534442382
 21
162.0755767977914
 31
0.0
  0
LINE
  5
25421
  8
0
 10
549.03352534442388
 20
154.84257679779139
 30
0.0
 11
549.03352534442388
 21
162.1657735882832
 31
0.0
  0
LINE
  5
25422
  8
0
 10
545.23052534442377
 20
152.5842434644581
 30
0.0
 11
545.23052534442377
 21
153.42270114577369
 31
0.0
  0
LINE
  5
25423
  8
0
 10
485.9005253444239
 20
152.5842434644581
 30
0.0
 11
485.9005253444239
 21
153.42270114577369
 31
0.0
  0
LINE
  5
25424
  8
0
 10
530.46552534442401
 20
205.04863700638339
 30
0.0
 11
530.46552534442401
 21
112.6365165891994
 31
0.0
  0
LINE
  5
25425
  8
0
 10
500.46552534442401
 20
205.04863700638339
 30
0.0
 11
500.46552534442401
 21
112.6365165891994
 31
0.0
  0
LINE
  5
25426
  8
0
 10
537.46552534442367
 20
170.1974938050754
 30
0.0
 11
537.46552534442367
 21
147.48765979050739
 31
0.0
  0
LINE
  5
25427
  8
0
 10
493.46552534442401
 20
170.1974938050754
 30
0.0
 11
493.46552534442401
 21
147.48765979050739
 31
0.0
  0
LINE
  5
2542A
  8
0
 10
535.63983682991875
 20
172.1898832012584
 30
0.0
 11
535.63983682991875
 21
145.49527039432431
 31
0.0
  0
LINE
  5
2542B
  8
0
 10
495.29121385892893
 20
172.1898832012584
 30
0.0
 11
495.29121385892893
 21
145.49527039432431
 31
0.0
  0
LINE
  5
2542D
  8
0
 10
313.08731598399282
 20
402.13468229401218
 30
0.0
 11
313.08731598399282
 21
399.63468229401229
 31
0.0
  0
LINE
  5
2542E
  8
0
 10
313.08731598399282
 20
345.60468229401221
 30
0.0
 11
313.08731598399282
 21
345.0046822940123
 31
0.0
  0
LINE
  5
2542F
  8
0
 10
315.52973213425321
 20
404.06509844427268
 30
0.0
 11
314.90231598399282
 21
403.43768229401218
 31
0.0
  0
LINE
  5
25430
  8
0
 10
314.90231598399282
 20
403.43768229401218
 30
0.0
 11
314.90231598399282
 21
402.13468229401218
 31
0.0
  0
ARC
  5
25431
  8
0
 10
318.90231598399077
 20
369.86968229401231
 30
0.0
 40
50.000000000000099
 50
164.2861389519895
 51
195.71386104801039
  0
ARC
  5
25432
  8
0
 10
272.69625577540182
 20
382.86968229401123
 30
0.0
 40
2.0000000000010401
 50
90.000000000013031
 51
164.2861389519596
  0
ARC
  5
25433
  8
0
 10
272.69625577540182
 20
356.86968229401322
 30
0.0
 40
2.0000000000010321
 50
195.7138610480404
 51
269.99999999998698
  0
LINE
  5
25435
  8
0
 10
403.90231598399282
 20
336.36968229401191
 30
0.0
 11
403.90231598399282
 21
403.36968229401191
 31
0.0
  0
ARC
  5
25436
  8
0
 10
394.90231598399311
 20
336.36968229401168
 30
0.0
 40
8.9999999999997726
 50
270.0
 51
0.0
  0
LINE
  5
25437
  8
0
 10
312.90231598399282
 20
327.36968229401191
 30
0.0
 11
394.90231598399282
 21
327.36968229401191
 31
0.0
  0
ARC
  5
25438
  8
0
 10
312.90231598399259
 20
336.36968229401168
 30
0.0
 40
8.9999999999997726
 50
179.9999999999967
 51
270.0
  0
LINE
  5
25439
  8
0
 10
303.90231598399282
 20
403.36968229401191
 30
0.0
 11
303.90231598399282
 21
336.36968229401191
 31
0.0
  0
ARC
  5
2543A
  8
0
 10
312.90231598399259
 20
403.36968229401219
 30
0.0
 40
8.9999999999997726
 50
90.0
 51
180.0
  0
LINE
  5
2543B
  8
0
 10
387.13324114276571
 20
345.94665734693592
 30
0.0
 11
389.63324114276571
 21
338.44665734693592
 31
0.0
  0
ARC
  5
2543C
  8
0
 10
393.90231598399282
 20
339.86968229401191
 30
0.0
 40
4.4999999999997682
 50
198.43494882292811
 51
18.434948822928192
  0
LINE
  5
2543D
  8
0
 10
398.1713908252197
 20
341.2927072410879
 30
0.0
 11
395.6713908252197
 21
348.7927072410879
 31
0.0
  0
ARC
  5
2543E
  8
0
 10
391.40231598399282
 20
347.36968229401191
 30
0.0
 40
4.4999999999997682
 50
18.434948822928192
 51
198.43494882292811
  0
LINE
  5
2543F
  8
0
 10
395.6713908252197
 20
390.94665734693592
 30
0.0
 11
398.1713908252197
 21
398.44665734693592
 31
0.0
  0
ARC
  5
25440
  8
0
 10
393.90231598399282
 20
399.86968229401191
 30
0.0
 40
4.4999999999997682
 50
341.56505117707491
 51
161.56505117707181
  0
LINE
  5
25441
  8
0
 10
389.63324114276571
 20
401.2927072410879
 30
0.0
 11
387.13324114276571
 21
393.7927072410879
 31
0.0
  0
ARC
  5
25442
  8
0
 10
391.40231598399282
 20
392.36968229401191
 30
0.0
 40
4.4999999999997771
 50
161.56505117707181
 51
341.56505117707178
  0
LINE
  5
25443
  8
0
 10
318.17139082521999
 20
338.44665734693592
 30
0.0
 11
320.67139082521999
 21
345.94665734693592
 31
0.0
  0
ARC
  5
25444
  8
0
 10
316.40231598399259
 20
347.36968229401162
 30
0.0
 40
4.5000000000000906
 50
341.56505117708309
 51
161.56505117706871
  0
LINE
  5
25445
  8
0
 10
312.13324114276543
 20
348.7927072410879
 30
0.0
 11
309.63324114276543
 21
341.2927072410879
 31
0.0
  0
ARC
  5
25446
  8
0
 10
313.90231598399282
 20
339.86968229401219
 30
0.0
 40
4.5000000000000906
 50
161.56505117708309
 51
341.56505117707178
  0
LINE
  5
25447
  8
0
 10
309.63324114276543
 20
398.44665734693592
 30
0.0
 11
312.13324114276543
 21
390.94665734693592
 31
0.0
  0
ARC
  5
25448
  8
0
 10
316.40231598399259
 20
392.36968229401231
 30
0.0
 40
4.5000000000000906
 50
198.4349488229312
 51
18.43494882292201
  0
LINE
  5
25449
  8
0
 10
320.67139082521999
 20
393.7927072410879
 30
0.0
 11
318.17139082521999
 21
401.2927072410879
 31
0.0
  0
ARC
  5
2544A
  8
0
 10
313.90231598399282
 20
399.86968229401162
 30
0.0
 40
4.5000000000000906
 50
18.434948822931279
 51
198.43494882292191
  0
LINE
  5
2544B
  8
0
 10
394.90231598399282
 20
412.36968229401191
 30
0.0
 11
312.90231598399282
 21
412.36968229401191
 31
0.0
  0
ARC
  5
2544C
  8
0
 10
394.90231598399311
 20
403.36968229401208
 30
0.0
 40
8.999999999999801
 50
0.0
 51
90.0
  0
LINE
  5
2545B
  8
0
 10
320.55739914091208
 20
394.13468229401201
 30
0.0
 11
311.07056616040683
 21
394.13468229401201
 31
0.0
  0
LINE
  5
2545C
  8
0
 10
320.55739914091208
 20
345.60468229401198
 30
0.0
 11
311.07056616040683
 21
345.60468229401198
 31
0.0
  0
POLYLINE
  5
2545D
  8
0
 66
     1
 10
0.0
 20
0.0
 30
0.0
 70
   128
  0
VERTEX
  5
2565F
  8
0
 10
320.53557652466412
 20
394.20015014275589
 30
0.0
  0
VERTEX
  5
25660
  8
0
 10
320.46689931732612
 20
394.20315577856678
 30
0.0
  0
VERTEX
  5
25661
  8
0
 10
318.90231598399282
 20
394.39410200342752
 30
0.0
  0
SEQEND
  5
25662
  8
0
  0
LINE
  5
2545E
  8
0
 10
318.90231598399282
 20
399.09993176476991
 30
0.0
 11
318.90231598399282
 21
394.39410200342752
 31
0.0
  0
POLYLINE
  5
2545F
  8
0
 66
     1
 10
0.0
 20
0.0
 30
0.0
 70
   128
  0
VERTEX
  5
25663
  8
0
 10
318.90231598399282
 20
394.39410200342752
 30
0.0
  0
VERTEX
  5
25664
  8
0
 10
317.92807256910191
 20
394.26236701440217
 30
0.0
  0
VERTEX
  5
25665
  8
0
 10
315.77314931732599
 20
394.13468229401218
 30
0.0
  0
SEQEND
  5
25666
  8
0
  0
POLYLINE
  5
25460
  8
0
 66
     1
 10
0.0
 20
0.0
 30
0.0
 70
   128
  0
VERTEX
  5
25667
  8
0
 10
315.77314931732599
 20
394.13468229401218
 30
0.0
  0
VERTEX
  5
25668
  8
0
 10
314.20856598399268
 20
394.20315577856678
 30
0.0
  0
VERTEX
  5
25669
  8
0
 10
312.64398265065938
 20
394.39410200342752
 30
0.0
  0
SEQEND
  5
2566A
  8
0
  0
LINE
  5
25461
  8
0
 10
312.6439826506595
 20
399.63468229401229
 30
0.0
 11
312.64398265065961
 21
394.13468229401201
 31
0.0
  0
POLYLINE
  5
25462
  8
0
 66
     1
 10
0.0
 20
0.0
 30
0.0
 70
   128
  0
VERTEX
  5
2566B
  8
0
 10
312.64398265065938
 20
399.3752625845969
 30
0.0
  0
VERTEX
  5
2566C
  8
0
 10
314.20153119602651
 20
399.56560388497729
 30
0.0
  0
VERTEX
  5
2566D
  8
0
 10
315.77314931732599
 20
399.63468229401229
 30
0.0
  0
SEQEND
  5
2566E
  8
0
  0
POLYLINE
  5
25463
  8
0
 66
     1
 10
0.0
 20
0.0
 30
0.0
 70
   128
  0
VERTEX
  5
2566F
  8
0
 10
315.77314931732599
 20
399.63468229401229
 30
0.0
  0
VERTEX
  5
25670
  8
0
 10
317.92807256910191
 20
399.50699757362207
 30
0.0
  0
VERTEX
  5
25671
  8
0
 10
318.80620717205898
 20
399.38825820057099
 30
0.0
  0
SEQEND
  5
25672
  8
0
  0
LINE
  5
25464
  8
0
 10
318.72406580757871
 20
399.63468229401229
 30
0.0
 11
312.6439826506595
 21
399.63468229401229
 31
0.0
  0
POLYLINE
  5
25465
  8
0
 66
     1
 10
0.0
 20
0.0
 30
0.0
 70
   128
  0
VERTEX
  5
25673
  8
0
 10
318.90231598399282
 20
344.74526258459667
 30
0.0
  0
VERTEX
  5
25674
  8
0
 10
317.92807256910191
 20
344.87699757362202
 30
0.0
  0
VERTEX
  5
25675
  8
0
 10
315.77314931732599
 20
345.00468229401218
 30
0.0
  0
SEQEND
  5
25676
  8
0
  0
LINE
  5
25466
  8
0
 10
320.35739914091209
 20
345.00468229401218
 30
0.0
 11
312.64398265065938
 21
345.00468229401218
 31
0.0
  0
LINE
  5
25467
  8
0
 10
320.32896327641271
 20
344.91937470051391
 30
0.0
 11
318.90231598399282
 21
344.74526258459667
 31
0.0
  0
LINE
  5
25468
  8
0
 10
312.64398265065938
 20
340.3046822940122
 30
0.0
 11
312.64398265065938
 21
345.0046822940123
 31
0.0
  0
POLYLINE
  5
25469
  8
0
 66
     1
 10
0.0
 20
0.0
 30
0.0
 70
   128
  0
VERTEX
  5
25677
  8
0
 10
315.77314931732599
 20
345.00468229401218
 30
0.0
  0
VERTEX
  5
25678
  8
0
 10
314.20856598399268
 20
344.93620880945753
 30
0.0
  0
VERTEX
  5
25679
  8
0
 10
312.64398265065938
 20
344.74526258459667
 30
0.0
  0
SEQEND
  5
2567A
  8
0
  0
LINE
  5
2546A
  8
0
 10
318.90231598399282
 20
340.63943282325403
 30
0.0
 11
318.90231598399282
 21
344.74526258459667
 31
0.0
  0
POLYLINE
  5
2546B
  8
0
 66
     1
 10
0.0
 20
0.0
 30
0.0
 70
   128
  0
VERTEX
  5
2567B
  8
0
 10
315.77314931732599
 20
340.3046822940122
 30
0.0
  0
VERTEX
  5
2567C
  8
0
 10
317.92807256910191
 20
340.43236701440242
 30
0.0
  0
VERTEX
  5
2567D
  8
0
 10
318.90231598399282
 20
340.56410200342771
 30
0.0
  0
SEQEND
  5
2567E
  8
0
  0
POLYLINE
  5
2546C
  8
0
 66
     1
 10
0.0
 20
0.0
 30
0.0
 70
   128
  0
VERTEX
  5
2567F
  8
0
 10
312.64398265065938
 20
340.56410200342771
 30
0.0
  0
VERTEX
  5
25680
  8
0
 10
314.20153119602651
 20
340.37376070304703
 30
0.0
  0
VERTEX
  5
25681
  8
0
 10
315.77314931732599
 20
340.3046822940122
 30
0.0
  0
SEQEND
  5
25682
  8
0
  0
LINE
  5
2546D
  8
0
 10
318.79073247424549
 20
340.3046822940122
 30
0.0
 11
312.64398265065938
 21
340.3046822940122
 31
0.0
  0
LINE
  5
2546E
  8
0
 10
317.79073147105169
 20
402.13468229401218
 30
0.0
 11
313.08731598399282
 21
402.13468229401218
 31
0.0
  0
LINE
  5
25476
  8
0
 10
316.64446404709929
 20
403.43768229401218
 30
0.0
 11
314.90231598399282
 21
403.43768229401218
 31
0.0
  0
LINE
  5
25477
  8
0
 10
272.69625577540069
 20
384.86968229401231
 30
0.0
 11
303.90231598399282
 21
384.86968229401202
 31
0.0
  0
LINE
  5
25478
  8
0
 10
272.69625577540069
 20
354.86968229401219
 30
0.0
 11
303.90231598399282
 21
354.86968229401202
 31
0.0
  0
ARC
  5
254C2
  8
0
 10
318.90231598399282
 20
158.84257679779051
 30
0.0
 40
50.000000000000739
 50
101.156372280341
 51
33.81836612423151
  0
ARC
  5
254C3
  8
0
 10
318.90231598399282
 20
158.84257679779139
 30
0.0
 40
15.258132479660039
 50
157.67494511807681
 51
346.54266229721532
  0
ARC
  5
254C4
  8
0
 10
318.90231598399282
 20
158.84257679779139
 30
0.0
 40
40.332662348034837
 50
105.4255294896813
 51
29.90258942411236
  0
ARC
  5
254C5
  8
0
 10
318.90231598399282
 20
158.84257679779139
 30
0.0
 40
46.90903718029498
 50
102.31919630084811
 51
32.750230044245917
  0
CIRCLE
  5
254C6
  8
0
 10
318.90231598399282
 20
158.84257679779139
 30
0.0
 40
6.2583333333333391
  0
LINE
  5
254C7
  8
0
 10
318.90231598399282
 20
166.06907766714801
 30
0.0
 11
312.64398265065938
 21
162.4558272324702
 31
0.0
  0
LINE
  5
254C8
  8
0
 10
312.64398265065938
 20
162.4558272324702
 30
0.0
 11
312.64398265065938
 21
155.21703277324551
 31
0.0
  0
LINE
  5
254C9
  8
0
 10
318.90231598399282
 20
166.06907766714801
 30
0.0
 11
325.16064931732598
 21
162.4558272324702
 31
0.0
  0
LINE
  5
254CA
  8
0
 10
325.16064931732598
 20
162.4558272324702
 30
0.0
 11
325.16064931732598
 21
155.21703277324551
 31
0.0
  0
LINE
  5
254CB
  8
0
 10
318.91651138513703
 20
151.61608987084071
 30
0.0
 11
312.65109242570873
 21
155.21703975630811
 31
0.0
  0
LINE
  5
254CC
  8
0
 10
318.91651138513703
 20
151.61608987084071
 30
0.0
 11
325.16773494342101
 21
155.2416269123236
 31
0.0
  0
CIRCLE
  5
254D4
  8
0
 10
353.90231598399271
 20
369.86968229401191
 30
0.0
 40
8.9249999999999972
  0
CIRCLE
  5
254D5
  8
0
 10
353.90231598399271
 20
369.86968229401191
 30
0.0
 40
13.57900689360916
  0
CIRCLE
  5
254D6
  8
0
 10
353.90231598399271
 20
369.86968229401191
 30
0.0
 40
20.175000000000001
  0
CIRCLE
  5
254D7
  8
0
 10
353.90231598399271
 20
369.86968229401191
 30
0.0
 40
23.802288713680468
  0
CIRCLE
  5
254D8
  8
0
 10
353.90231598399271
 20
369.86968229401191
 30
0.0
 40
25.668546822706869
  0
CIRCLE
  5
254D9
  8
0
 10
353.90231598399271
 20
369.86968229401191
 30
0.0
 40
27.189555828815632
  0
CIRCLE
  5
254DA
  8
0
 10
353.90231598399271
 20
369.86968229401191
 30
0.0
 40
31.175000000000001
  0
LINE
  5
254DB
  8
3
 10
88.004106623562038
 20
162.0755767977914
 30
0.0
 11
90.074106623562216
 21
162.0755767977914
 31
0.0
  0
LINE
  5
254DC
  8
3
 10
88.004106623562038
 20
155.60957679779131
 30
0.0
 11
90.074106623562216
 21
155.60957679779131
 31
0.0
  0
LINE
  5
254DD
  8
3
 10
549.80052534442382
 20
155.60957679779131
 30
0.0
 11
547.73052534442388
 21
155.60957679779131
 31
0.0
  0
LINE
  5
254DF
  8
3
 10
549.80052534442382
 20
162.0755767977914
 30
0.0
 11
549.00061561194013
 21
162.0755767977914
 31
0.0
  0
LINE
  5
254E0
  8
1
 10
318.90231598398918
 20
319.89255671863287
 30
0.0
 11
318.90231598398918
 21
419.84680786939168
 31
0.0
  0
LINE
  5
254E1
  8
1
 10
353.90231598399259
 20
248.37903916887029
 30
0.0
 11
353.90231598399259
 21
197.55494944640481
 31
0.0
  0
LINE
  5
254E2
  8
1
 10
306.4291022345293
 20
339.8696822940118
 30
0.0
 11
321.37552973345657
 21
339.8696822940118
 31
0.0
  0
LINE
  5
254E3
  8
1
 10
313.90231598399299
 20
347.34289604347532
 30
0.0
 11
313.90231598399299
 21
332.39646854454799
 31
0.0
  0
LINE
  5
254E4
  8
1
 10
308.92910223452918
 20
347.36968229401191
 30
0.0
 11
323.87552973345657
 21
347.36968229401191
 31
0.0
  0
LINE
  5
254E5
  8
1
 10
316.40231598399288
 20
354.84289604347521
 30
0.0
 11
316.40231598399288
 21
339.89646854454799
 31
0.0
  0
LINE
  5
254E6
  8
1
 10
306.4291022345289
 20
399.8696822940114
 30
0.0
 11
321.37552973345629
 21
399.8696822940118
 31
0.0
  0
LINE
  5
254E7
  8
1
 10
313.90231598399271
 20
407.34289604347572
 30
0.0
 11
313.90231598399271
 21
392.39646854454799
 31
0.0
  0
LINE
  5
254E8
  8
1
 10
308.92910223452913
 20
392.36968229401191
 30
0.0
 11
323.87552973345629
 21
392.36968229401191
 31
0.0
  0
LINE
  5
254E9
  8
1
 10
316.40231598399271
 20
399.84289604347532
 30
0.0
 11
316.40231598399271
 21
384.89646854454799
 31
0.0
  0
LINE
  5
254EA
  8
1
 10
383.92910223452918
 20
347.36968229401231
 30
0.0
 11
398.87552973345652
 21
347.36968229401231
 31
0.0
  0
LINE
  5
254EB
  8
1
 10
391.40231598399299
 20
354.84289604347572
 30
0.0
 11
391.40231598399299
 21
339.8964685445485
 31
0.0
  0
LINE
  5
254EC
  8
1
 10
386.42910223452918
 20
339.86968229401231
 30
0.0
 11
401.3755297334564
 21
339.86968229401231
 31
0.0
  0
LINE
  5
254ED
  8
1
 10
393.90231598399311
 20
347.34289604347572
 30
0.0
 11
393.90231598399311
 21
332.39646854454838
 31
0.0
  0
LINE
  5
254EE
  8
1
 10
383.92910223452918
 20
392.36968229401231
 30
0.0
 11
398.87552973345652
 21
392.36968229401231
 31
0.0
  0
LINE
  5
254EF
  8
1
 10
391.40231598399259
 20
399.84289604347572
 30
0.0
 11
391.40231598399259
 21
384.89646854454838
 31
0.0
  0
LINE
  5
254F0
  8
1
 10
386.42910223452918
 20
399.86968229401231
 30
0.0
 11
401.3755297334564
 21
399.86968229401231
 31
0.0
  0
LINE
  5
254F1
  8
1
 10
393.90231598399259
 20
407.34289604347572
 30
0.0
 11
393.90231598399259
 21
392.3964685445485
 31
0.0
  0
LINE
  5
254F2
  8
1
 10
255.08611600354649
 20
369.86968229401231
 30
0.0
 11
413.71851596443179
 21
369.86968229401231
 31
0.0
  0
LINE
  5
254F3
  8
1
 10
353.90231598399271
 20
424.18588227445468
 30
0.0
 11
353.90231598399271
 21
315.55348231356942
 31
0.0
  0
LINE
  5
254F4
  8
1
 10
257.36585361291208
 20
158.84257679779139
 30
0.0
 11
380.43877835507351
 21
158.84257679779139
 31
0.0
  0
LINE
  5
254F5
  8
1
 10
318.90231598399282
 20
97.306114426710735
 30
0.0
 11
318.90231598399282
 21
208.19382961661171
 31
0.0
  0
LINE
  5
254F6
  8
1
 10
473.26830134371897
 20
158.84257679779091
 30
0.0
 11
557.66274934512796
 21
158.84257679779091
 31
0.0
  0
LINE
  5
254F7
  8
1
 10
515.46552534442355
 20
97.30611442671028
 30
0.0
 11
515.46552534442355
 21
248.37903916887029
 31
0.0
  0
LINE
  5
254F8
  8
1
 10
164.53633062426661
 20
158.84257679779091
 30
0.0
 11
80.141882622857793
 21
158.84257679779091
 31
0.0
  0
LINE
  5
254F9
  8
1
 10
122.3391066235622
 20
97.30611442671028
 30
0.0
 11
122.3391066235622
 21
248.37903916887029
 31
0.0
  0
TEXT
  5
25596
  8
0
 62
     3
 10
0.0
 20
0.0
 30
0.0
 40
10.0
  1
CAF8-100SBL-SUS
  7
STANDARD1
  0
ENDSEC
  0
EOF
