  0
SECTION
  2
HEADER
  9
$ACADVER
  1
AC1009
  9
$INSBASE
 10
0.0
 20
0.0
 30
0.0
  9
$EXTMIN
 10
0.0
 20
-2.960436562073669
 30
0.0
  9
$EXTMAX
 10
557.96552534442742
 20
398.33364039036769
 30
0.0
  9
$LIMMIN
 10
0.0
 20
0.0
  9
$LIMMAX
 10
375.0
 20
270.0
  9
$ORTHOMODE
 70
     1
  9
$REGENMODE
 70
     1
  9
$FILLMODE
 70
     1
  9
$QTEXTMODE
 70
     0
  9
$MIRRTEXT
 70
     1
  9
$DRAGMODE
 70
     2
  9
$LTSCALE
 40
10.0
  9
$OSMODE
 70
  3071
  9
$ATTMODE
 70
     1
  9
$TEXTSIZE
 40
5.0
  9
$TRACEWID
 40
0.05
  9
$TEXTSTYLE
  7
STANDARD
  9
$CLAYER
  8
0
  9
$CELTYPE
  6
BYLAYER
  9
$CECOLOR
 62
     6
  9
$DIMSCALE
 40
2.0
  9
$DIMASZ
 40
3.0
  9
$DIMEXO
 40
2.0
  9
$DIMDLI
 40
0.38
  9
$DIMRND
 40
0.0
  9
$DIMDLE
 40
0.0
  9
$DIMEXE
 40
2.0
  9
$DIMTP
 40
0.0
  9
$DIMTM
 40
0.0
  9
$DIMTXT
 40
3.2000000000000002
  9
$DIMCEN
 40
0.0
  9
$DIMTSZ
 40
0.0
  9
$DIMTOL
 70
     0
  9
$DIMLIM
 70
     0
  9
$DIMTIH
 70
     0
  9
$DIMTOH
 70
     0
  9
$DIMSE1
 70
     0
  9
$DIMSE2
 70
     0
  9
$DIMTAD
 70
     1
  9
$DIMZIN
 70
     8
  9
$DIMBLK
  1

  9
$DIMASO
 70
     0
  9
$DIMSHO
 70
     0
  9
$DIMPOST
  1

  9
$DIMAPOST
  1

  9
$DIMALT
 70
     0
  9
$DIMALTD
 70
     2
  9
$DIMALTF
 40
25.399999999999999
  9
$DIMLFAC
 40
1.0
  9
$DIMTOFL
 70
     0
  9
$DIMTVP
 40
1.6000000000000001
  9
$DIMTIX
 70
     1
  9
$DIMSOXD
 70
     0
  9
$DIMSAH
 70
     0
  9
$DIMBLK1
  1

  9
$DIMBLK2
  1

  9
$DIMSTYLE
  2
STANDARD
  9
$DIMCLRD
 70
     0
  9
$DIMCLRE
 70
     0
  9
$DIMCLRT
 70
     0
  9
$DIMTFAC
 40
1.0
  9
$DIMGAP
 40
1.1999999999999991
  9
$LUNITS
 70
     2
  9
$LUPREC
 70
     4
  9
$SKETCHINC
 40
0.1
  9
$FILLETRAD
 40
0.0
  9
$AUNITS
 70
     0
  9
$AUPREC
 70
     4
  9
$MENU
  1
ACAD
  9
$ELEVATION
 40
0.0
  9
$PELEVATION
 40
0.0
  9
$THICKNESS
 40
0.0
  9
$LIMCHECK
 70
     0
  9
$BLIPMODE
 70
     0
  9
$CHAMFERA
 40
0.0
  9
$CHAMFERB
 40
0.0
  9
$SKPOLY
 70
     0
  9
$TDCREATE
 40
2448055.7149187499
  9
$TDUPDATE
 40
2456598.5605549542
  9
$TDINDWG
 40
2.540849294
  9
$TDUSRTIMER
 40
2.540849294
  9
$USRTIMER
 70
     1
  9
$ANGBASE
 50
0.0
  9
$ANGDIR
 70
     0
  9
$PDMODE
 70
     0
  9
$PDSIZE
 40
0.0
  9
$PLINEWID
 40
0.0
  9
$COORDS
 70
     1
  9
$SPLFRAME
 70
     0
  9
$SPLINETYPE
 70
     6
  9
$SPLINESEGS
 70
     8
  9
$ATTDIA
 70
     0
  9
$ATTREQ
 70
     1
  9
$HANDLING
 70
     1
  9
$HANDSEED
  5
25A10
  9
$SURFTAB1
 70
     6
  9
$SURFTAB2
 70
     6
  9
$SURFTYPE
 70
     6
  9
$SURFU
 70
     6
  9
$SURFV
 70
     6
  9
$UCSNAME
  2

  9
$UCSORG
 10
0.0
 20
0.0
 30
0.0
  9
$UCSXDIR
 10
1.0
 20
0.0
 30
0.0
  9
$UCSYDIR
 10
0.0
 20
1.0
 30
0.0
  9
$PUCSNAME
  2

  9
$PUCSORG
 10
0.0
 20
0.0
 30
0.0
  9
$PUCSXDIR
 10
1.0
 20
0.0
 30
0.0
  9
$PUCSYDIR
 10
0.0
 20
1.0
 30
0.0
  9
$USERI1
 70
     0
  9
$USERI2
 70
     0
  9
$USERI3
 70
     0
  9
$USERI4
 70
     0
  9
$USERI5
 70
     0
  9
$USERR1
 40
0.0
  9
$USERR2
 40
0.0
  9
$USERR3
 40
0.0
  9
$USERR4
 40
0.0
  9
$USERR5
 40
0.0
  9
$WORLDVIEW
 70
     1
  9
$SHADEDGE
 70
     3
  9
$SHADEDIF
 70
    70
  9
$TILEMODE
 70
     1
  9
$MAXACTVP
 70
    16
  9
$PLIMCHECK
 70
     0
  9
$PEXTMIN
 10
1.0000000000000000E+020
 20
1.0000000000000000E+020
 30
1.0000000000000000E+020
  9
$PEXTMAX
 10
-1.0000000000000000E+020
 20
-1.0000000000000000E+020
 30
-1.0000000000000000E+020
  9
$PLIMMIN
 10
0.0
 20
0.0
  9
$PLIMMAX
 10
12.0
 20
9.0
  9
$UNITMODE
 70
     0
  9
$VISRETAIN
 70
     0
  9
$PLINEGEN
 70
     1
  9
$PSLTSCALE
 70
     0
  0
ENDSEC
  0
SECTION
  2
TABLES
  0
TABLE
  2
VPORT
 70
     1
  0
VPORT
  2
*ACTIVE
 70
     0
 10
0.0
 20
0.0
 11
1.0
 21
1.0
 12
290.10335713754631
 22
197.67768931706539
 13
0.0
 23
0.0
 14
5.0
 24
5.0
 15
10.0
 25
10.0
 16
0.0
 26
0.0
 36
1.0
 17
0.0
 27
0.0
 37
0.0
 40
404.93564430689338
 41
1.831871345029239
 42
50.0
 43
0.0
 44
0.0
 50
0.0
 51
0.0
 71
     0
 72
   500
 73
     1
 74
     1
 75
     0
 76
     0
 77
     0
 78
     2
  0
ENDTAB
  0
TABLE
  2
LTYPE
 70
     3
  0
LTYPE
  2
CONTINUOUS
 70
     0
  3
実線
 72
    65
 73
     0
 40
0.0
  0
LTYPE
  2
CENTER
 70
     0
  3
____ _ ____ _ ____ _ ____ _ ____ _ ____ _ ____
 72
    65
 73
     4
 40
2.0
 49
1.25
 49
-0.25
 49
0.25
 49
-0.25
  0
LTYPE
  2
PHANTOM2
 70
     0
  3
___ _ _ ___ _ _ ___ _ _ ___ _ _
 72
    65
 73
     6
 40
1.25
 49
0.625
 49
-0.125
 49
0.125
 49
-0.125
 49
0.125
 49
-0.125
  0
ENDTAB
  0
TABLE
  2
LAYER
 70
     4
  0
LAYER
  2
0
 70
     0
 62
     7
  6
CONTINUOUS
  0
LAYER
  2
1
 70
     0
 62
     1
  6
CENTER
  0
LAYER
  2
DEFPOINTS
 70
     0
 62
     7
  6
CONTINUOUS
  0
LAYER
  2
3
 70
     0
 62
     3
  6
CONTINUOUS
  0
ENDTAB
  0
TABLE
  2
STYLE
 70
     3
  0
STYLE
  2
STANDARD
 70
     0
 40
0.0
 41
1.0
 50
0.0
 71
     0
 42
5.0
  3
simplex.shx
  4
bigfont.shx
  0
STYLE
  2
07500
 70
     0
 40
0.0
 41
0.75
 50
0.0
 71
     0
 42
0.2
  3
simplex.shx
  4
bigfont.shx
  0
STYLE
  2
STANDARD1
 70
     0
 40
0.0
 41
1.0
 50
0.0
 71
     0
 42
3.0
  3
txt
  4

  0
ENDTAB
  0
TABLE
  2
VIEW
 70
     2
  0
VIEW
  2
ALL
 70
     0
 40
270.0
 10
220.99159663865549
 20
135.0
 41
0.0
 11
0.0
 21
0.0
 31
1.0
 12
0.0
 22
0.0
 32
0.0
 42
0.0
 43
0.0
 44
0.0
 50
0.0
 71
     0
  0
VIEW
  2
OLE1
 70
     0
 40
168.2487151179721
 10
2892.3009567448912
 20
702.51600084347126
 41
162.5749581879237
 11
0.0
 21
0.0
 31
1.0
 12
0.0
 22
0.0
 32
0.0
 42
50.0
 43
0.0
 44
0.0
 50
0.0
 71
     0
  0
ENDTAB
  0
TABLE
  2
UCS
 70
     0
  0
ENDTAB
  0
TABLE
  2
APPID
 70
    48
  0
APPID
  2
ACAD
 70
     0
  0
APPID
  2
DCO15
 70
     0
  0
APPID
  2
GENIUS_GENOREF_13
 70
     0
  0
APPID
  2
GENIUS_GENOENT_13
 70
     0
  0
APPID
  2
GENIUS_GENBH_13
 70
     0
  0
APPID
  2
GENIUS_GENOBJ_13
 70
     0
  0
APPID
  2
GENIUS_GENODEF_13
 70
     0
  0
APPID
  2
GENIUS_GENOLIS_13
 70
     0
  0
APPID
  2
GENIUS_GENOBJ-NBEHI-BHF_13
 70
     0
  0
APPID
  2
GENIUS_GENOBJ-NBEHI-BHB_13
 70
     0
  0
APPID
  2
GENIUS_GENOBJ-F-PART_13
 70
     0
  0
APPID
  2
GENIUS_GEFSTDP_13
 70
     0
  0
APPID
  2
GENIUS_GENOBJ-N-RSSYM_13
 70
     0
  0
APPID
  2
GENIUS_GENSYMENT_13
 70
     0
  0
APPID
  2
GENIUS_GENOBJ-N-TIT_13
 70
     0
  0
APPID
  2
GENIUS_GENTITLE_13
 70
     0
  0
APPID
  2
GENIUS_GENZVEED_13
 70
     0
  0
APPID
  2
GENIUS_GENOBJ-N-LEADER_13
 70
     0
  0
APPID
  2
GENIUS_GENOBJ-N-FIL_13
 70
     0
  0
APPID
  2
GENIUS_GENOBJ-N-SEC_13
 70
     0
  0
APPID
  2
GENIUS_GENOBJ-N-CRS_13
 70
     0
  0
APPID
  2
GENIUS_GENOBJ-N-ZOO_13
 70
     0
  0
APPID
  2
GENIUS_GENZOO_13
 70
     0
  0
APPID
  2
GENIUS_GENOBJ-F-TOL_13
 70
     0
  0
APPID
  2
GENIUS_GENFIL_13
 70
     0
  0
APPID
  2
GENIUS_GENOBJ-N-CHA_13
 70
     0
  0
APPID
  2
_CALL_MAC$
 70
     0
  0
APPID
  2
ASM_BASE
 70
     0
  0
APPID
  2
ASM_EXPLO_VER_2_00
 70
     0
  0
APPID
  2
ASM_CADM_VER_12_00
 70
     0
  0
APPID
  2
ASM_BASEFORO
 70
     0
  0
APPID
  2
ASM_BASETRAVI
 70
     0
  0
APPID
  2
ASM_BASETRAVI1
 70
     0
  0
APPID
  2
ASM_GRUPPI
 70
     0
  0
APPID
  2
ASM_CADM_ALBERO
 70
     0
  0
APPID
  2
ASM_GOLE
 70
     0
  0
APPID
  2
ACAD_MLEADERVER
 70
     0
  0
APPID
  2
ACAD_DSTYLE_DIMJAG
 70
     0
  0
APPID
  2
ACAD_DSTYLE_DIMTALN
 70
     0
  0
APPID
  2
ACAD_EXEMPT_FROM_CAD_STANDARDS
 70
     0
  0
APPID
  2
ACAD_DSTYLE_DIMRADIAL_EXTENSION
 70
     0
  0
APPID
  2
ACAD_PSEXT
 70
     0
  0
APPID
  2
ACAD_DSTYLE_DIMBREAK
 70
     0
  0
APPID
  2
ACAECLAYERSTANDARD
 70
     0
  0
APPID
  2
ACCMTRANSPARENCY
 70
     0
  0
APPID
  2
GRADIENTCOLOR1ACI
 70
     0
  0
APPID
  2
GRADIENTCOLOR2ACI
 70
     0
  0
APPID
  2
ACAD_NAV_VCDISPLAY
 70
     0
  0
ENDTAB
  0
TABLE
  2
DIMSTYLE
 70
     1
  0
DIMSTYLE
  2
STANDARD
 70
     0
  3

  4

  5

  6

  7

 40
1.0
 41
0.18
 42
0.0625
 43
0.38
 44
0.18
 45
0.0
 46
0.0
 47
0.0
 48
0.0
140
0.18
141
0.09
142
0.0
143
25.399999999999999
144
1.0
145
0.0
146
1.0
147
0.09
 71
     0
 72
     0
 73
     1
 74
     1
 75
     0
 76
     0
 77
     0
 78
     0
170
     0
171
     2
172
     0
173
     0
174
     0
175
     0
176
     0
177
     0
178
     0
  0
ENDTAB
  0
ENDSEC
  0
SECTION
  2
BLOCKS
  0
BLOCK
  8
0
  2
$MODEL_SPACE
 70
     0
 10
0.0
 20
0.0
 30
0.0
  3
$MODEL_SPACE
  1

  0
ENDBLK
  5
36
  8
0
  0
BLOCK
 67
     1
  8
0
  2
$PAPER_SPACE
 70
     0
 10
0.0
 20
0.0
 30
0.0
  3
$PAPER_SPACE
  1

  0
ENDBLK
  5
34
 67
     1
  8
0
  0
ENDSEC
  0
SECTION
  2
ENTITIES
  0
LINE
  5
25301
  8
0
 10
321.4023159839856
 20
197.32567680462171
 30
0.0
 11
321.4023159839856
 21
193.32567680462171
 31
0.0
  0
LINE
  5
25302
  8
0
 10
394.4023159839856
 20
193.32567680462179
 30
0.0
 11
394.4023159839856
 21
197.32567680462171
 31
0.0
  0
LINE
  5
25303
  8
0
 10
321.4023159839856
 20
205.0256768046217
 30
0.0
 11
322.76003373544103
 21
197.32567680462171
 31
0.0
  0
LINE
  5
25304
  8
0
 10
393.0445982325304
 20
197.32567680462171
 30
0.0
 11
394.4023159839856
 21
205.0256768046217
 31
0.0
  0
LINE
  5
25305
  8
0
 10
325.05231598398581
 20
205.82567680462171
 30
0.0
 11
325.05231598398581
 21
205.0256768046217
 31
0.0
  0
LINE
  5
25306
  8
0
 10
390.75231598398562
 20
205.0256768046217
 30
0.0
 11
390.75231598398562
 21
205.82567680462171
 31
0.0
  0
LINE
  5
25309
  8
0
 10
407.9023159839856
 20
205.82567680462171
 30
0.0
 11
407.9023159839856
 21
208.32567680462171
 31
0.0
  0
LINE
  5
2530E
  8
0
 10
307.90231598398572
 20
205.82567680462171
 30
0.0
 11
307.90231598398572
 21
208.32567680462171
 31
0.0
  0
LINE
  5
2530F
  8
0
 10
307.90231598398572
 20
208.32567680462171
 30
0.0
 11
407.9023159839856
 21
208.32567680462171
 31
0.0
  0
LINE
  5
25310
  8
0
 10
307.90231598398572
 20
205.82567680462171
 30
0.0
 11
407.9023159839856
 21
205.82567680462171
 31
0.0
  0
LINE
  5
25313
  8
0
 10
394.4023159839856
 20
193.32567680462179
 30
0.0
 11
330.40089011595262
 21
133.99223356340491
 31
0.0
  0
POLYLINE
  5
25314
  8
0
 66
     1
 10
0.0
 20
0.0
 30
0.0
 70
   128
  0
VERTEX
  5
2564C
  8
0
 10
330.40089011595262
 20
133.99223356340491
 30
0.0
  0
VERTEX
  5
2564D
  8
0
 10
329.06507460711862
 20
132.94962354396341
 30
0.0
  0
VERTEX
  5
2564E
  8
0
 10
328.56447736216472
 20
132.6436865686847
 30
0.0
  0
SEQEND
  5
2564F
  8
0
  0
LINE
  5
25315
  8
0
 10
328.56447736216472
 20
193.32567680462171
 30
0.0
 11
328.56447736216472
 21
132.6436865686847
 31
0.0
  0
LINE
  5
25317
  8
0
 10
321.4023159839856
 20
197.32567680462171
 30
0.0
 11
394.4023159839856
 21
197.32567680462171
 31
0.0
  0
LINE
  5
25319
  8
0
 10
321.4023159839856
 20
205.0256768046217
 30
0.0
 11
394.4023159839856
 21
205.0256768046217
 31
0.0
  0
LINE
  5
2531A
  8
0
 10
314.20231598398561
 20
131.32567680462171
 30
0.0
 11
323.6023159839857
 21
131.32567680462171
 31
0.0
  0
LINE
  5
2531B
  8
0
 10
314.10231598398548
 20
193.32567680462171
 30
0.0
 11
314.10231598398548
 21
191.50067680462169
 31
0.0
  0
ARC
  5
2531C
  8
0
 10
314.20231598398487
 20
141.32567680462151
 30
0.0
 40
9.999999999999801
 50
168.6180441993431
 51
270.0
  0
LINE
  5
2531D
  8
0
 10
328.56447736216472
 20
193.32567680462171
 30
0.0
 11
314.10231598398548
 21
193.32567680462171
 31
0.0
  0
LINE
  5
2531E
  8
0
 10
314.10231598398548
 20
191.50067680462169
 30
0.0
 11
304.3989822402765
 21
143.2991629356755
 31
0.0
  0
ARC
  5
2531F
  8
0
 10
323.60231598398548
 20
141.32567680462179
 30
0.0
 40
10.00000000000011
 50
270.0
 51
299.74997585567149
  0
LINE
  5
25320
  8
0
 10
258.41897648238057
 20
181.32567680462179
 30
0.0
 11
261.90231598398572
 21
168.32567680462171
 31
0.0
  0
LINE
  5
25321
  8
0
 10
302.83038109245069
 20
193.22567680462171
 30
0.0
 11
258.41897648238057
 21
181.32567680462179
 31
0.0
  0
LINE
  5
25322
  8
0
 10
314.10231598398548
 20
193.22567680462171
 30
0.0
 11
302.83038109245069
 21
193.22567680462171
 31
0.0
  0
LINE
  5
25323
  8
0
 10
261.90231598398572
 20
168.32567680462171
 30
0.0
 11
309.43701107008047
 21
168.32567680462171
 31
0.0
  0
LINE
  5
2534F
  8
0
 10
85.839106623666794
 20
205.0256768046217
 30
0.0
 11
87.196824375121878
 21
197.32567680462171
 31
0.0
  0
LINE
  5
25350
  8
0
 10
157.48138887221151
 20
197.32567680462171
 30
0.0
 11
158.83910662366679
 21
205.0256768046217
 31
0.0
  0
LINE
  5
25351
  8
0
 10
85.839106623666794
 20
197.32567680462171
 30
0.0
 11
85.839106623666794
 21
159.487826335948
 31
0.0
  0
LINE
  5
25352
  8
0
 10
158.83910662366679
 20
159.4878263359478
 30
0.0
 11
158.83910662366679
 21
197.32567680462171
 31
0.0
  0
LINE
  5
25353
  8
0
 10
89.489106623666657
 20
205.82567680462171
 30
0.0
 11
89.489106623666657
 21
205.0256768046217
 31
0.0
  0
LINE
  5
25354
  8
0
 10
155.1891066236667
 20
205.0256768046217
 30
0.0
 11
155.1891066236667
 21
205.82567680462171
 31
0.0
  0
LINE
  5
25355
  8
0
 10
142.22910662366689
 20
147.32567680462171
 30
0.0
 11
141.83910662366679
 21
147.32567680462171
 31
0.0
  0
LINE
  5
25356
  8
0
 10
102.83910662366679
 20
147.32567680462171
 30
0.0
 11
102.44910662366691
 21
147.32567680462171
 31
0.0
  0
LINE
  5
25357
  8
0
 10
102.44910662366691
 20
135.32567680462171
 30
0.0
 11
102.83910662366679
 21
135.32567680462171
 31
0.0
  0
LINE
  5
25358
  8
0
 10
141.83910662366679
 20
135.32567680462171
 30
0.0
 11
142.22910662366689
 21
135.32567680462171
 31
0.0
  0
LINE
  5
25359
  8
0
 10
95.124106623666876
 20
147.14067680462159
 30
0.0
 11
92.624106623666876
 21
147.14067680462159
 31
0.0
  0
LINE
  5
2535A
  8
0
 10
92.624106623666876
 20
135.51067680462171
 30
0.0
 11
95.124106623666876
 21
135.51067680462171
 31
0.0
  0
LINE
  5
2535B
  8
0
 10
144.65410662366679
 20
147.14067680462159
 30
0.0
 11
144.05410662366691
 21
147.14067680462159
 31
0.0
  0
LINE
  5
2535C
  8
0
 10
144.05410662366691
 20
135.51067680462171
 30
0.0
 11
144.65410662366679
 21
135.51067680462171
 31
0.0
  0
LINE
  5
2535D
  8
0
 10
91.971106623666856
 20
145.32567680462171
 30
0.0
 11
91.204106623666803
 21
144.5586768046218
 31
0.0
  0
LINE
  5
2535E
  8
0
 10
91.204106623666803
 20
138.09267680462159
 30
0.0
 11
91.971106623666856
 21
137.32567680462171
 31
0.0
  0
LINE
  5
2535F
  8
0
 10
92.624106623666876
 20
145.32567680462171
 30
0.0
 11
91.971106623666856
 21
145.32567680462171
 31
0.0
  0
LINE
  5
25360
  8
0
 10
91.971106623666856
 20
137.32567680462171
 30
0.0
 11
92.624106623666876
 21
137.32567680462171
 31
0.0
  0
LINE
  5
25361
  8
0
 10
95.124106623666876
 20
135.06734347128841
 30
0.0
 11
95.383526333082045
 21
134.0991759352649
 31
0.0
  0
LINE
  5
25362
  8
0
 10
95.383526333082045
 20
148.55217767397841
 30
0.0
 11
95.124106623666876
 21
147.584010137955
 31
0.0
  0
LINE
  5
25363
  8
0
 10
100.36468691425149
 20
134.0991759352649
 30
0.0
 11
100.6241066236668
 21
135.06734347128841
 31
0.0
  0
LINE
  5
25364
  8
0
 10
100.6241066236668
 20
147.584010137955
 30
0.0
 11
100.36468691425149
 21
148.55217767397841
 31
0.0
  0
LINE
  5
25365
  8
0
 10
144.65410662366679
 20
135.06734347128841
 30
0.0
 11
144.91352633308219
 21
134.0991759352649
 31
0.0
  0
LINE
  5
25366
  8
0
 10
144.91352633308219
 20
148.55217767397841
 30
0.0
 11
144.65410662366679
 21
147.584010137955
 31
0.0
  0
LINE
  5
25367
  8
0
 10
149.09468691425121
 20
134.0991759352649
 30
0.0
 11
149.35410662366689
 21
135.06734347128841
 31
0.0
  0
LINE
  5
25368
  8
0
 10
149.35410662366689
 20
147.584010137955
 30
0.0
 11
149.09468691425121
 21
148.55217767397841
 31
0.0
  0
ARC
  5
25369
  8
0
 10
122.33910662366679
 20
141.32567680462171
 30
0.0
 40
39.999999999997272
 50
249.9948099118391
 51
290.00519008816087
  0
ARC
  5
2536C
  8
0
 10
109.33910662366701
 20
105.618534661908
 30
0.0
 40
2.0000000000002172
 50
180.00000000000321
 51
249.99480991183211
  0
ARC
  5
2536E
  8
0
 10
135.33910662366679
 20
105.618534661908
 30
0.0
 40
2.0000000000001972
 50
290.00519008816781
 51
359.99999999999682
  0
LINE
  5
25370
  8
0
 10
107.33910662366701
 20
155.12567680462169
 30
0.0
 11
104.6647951381719
 21
154.89170486690369
 31
0.0
  0
LINE
  5
25371
  8
0
 10
104.6647951381719
 20
127.75964874233961
 30
0.0
 11
107.33910662366701
 21
127.5256768046216
 31
0.0
  0
LINE
  5
25372
  8
0
 10
137.33910662366679
 20
127.5256768046216
 30
0.0
 11
140.0134181091619
 21
127.75964874233961
 31
0.0
  0
LINE
  5
25373
  8
0
 10
140.0134181091619
 20
154.89170486690369
 30
0.0
 11
137.33910662366679
 21
155.12567680462161
 31
0.0
  0
ARC
  5
25374
  8
0
 10
104.83910662366701
 20
129.75203813852329
 30
0.0
 40
2.0000000000001181
 50
179.99999999999349
 51
265.00000000000671
  0
ARC
  5
25375
  8
0
 10
104.83910662366701
 20
152.8993154707201
 30
0.0
 40
2.0000000000001181
 50
94.999999999993236
 51
180.00000000000651
  0
ARC
  5
25376
  8
0
 10
139.83910662366679
 20
129.75203813852329
 30
0.0
 40
2.0000000000001128
 50
274.99999999999329
 51
359.99999999999022
  0
ARC
  5
25377
  8
0
 10
139.83910662366679
 20
152.8993154707201
 30
0.0
 40
2.0000000000001128
 50
0.0000000000065138
 51
85.00000000000675
  0
LINE
  5
25382
  8
0
 10
103.33910662366679
 20
179.56286217164379
 30
0.0
 11
102.44910662366691
 21
179.56286217164379
 31
0.0
  0
LINE
  5
25383
  8
0
 10
102.44910662366691
 20
179.56286217164379
 30
0.0
 11
102.44910662366691
 21
168.32567680462171
 31
0.0
  0
LINE
  5
25384
  8
0
 10
102.44910662366691
 20
168.32567680462171
 30
0.0
 11
100.724106623667
 21
168.32567680462171
 31
0.0
  0
LINE
  5
25385
  8
0
 10
103.33910662366679
 20
181.32567680462179
 30
0.0
 11
100.724106623667
 21
181.32567680462179
 31
0.0
  0
LINE
  5
25387
  8
0
 10
143.9541066236668
 20
193.22567680462171
 30
0.0
 11
143.9541066236668
 21
168.32567680462171
 31
0.0
  0
LINE
  5
25388
  8
0
 10
143.954106623667
 20
181.32567680462179
 30
0.0
 11
141.33910662366679
 21
181.32567680462179
 31
0.0
  0
LINE
  5
25389
  8
0
 10
143.9541066236668
 20
193.22567680462171
 30
0.0
 11
100.7241066236667
 21
193.22567680462171
 31
0.0
  0
LINE
  5
2538A
  8
0
 10
100.7241066236667
 20
193.22567680462171
 30
0.0
 11
100.724106623667
 21
168.32567680462171
 31
0.0
  0
LINE
  5
2538C
  8
0
 10
143.954106623667
 20
168.32567680462171
 30
0.0
 11
142.22910662366709
 21
168.32567680462171
 31
0.0
  0
LINE
  5
2538D
  8
0
 10
142.22910662366709
 20
179.56286217164379
 30
0.0
 11
142.22910662366709
 21
168.32567680462171
 31
0.0
  0
LINE
  5
2538E
  8
0
 10
142.22910662366709
 20
179.56286217164379
 30
0.0
 11
141.33910662366679
 21
179.56286217164379
 31
0.0
  0
LINE
  5
2538F
  8
0
 10
102.44910662366691
 20
143.2991629356755
 30
0.0
 11
100.6241066236668
 21
143.2991629356755
 31
0.0
  0
LINE
  5
25390
  8
0
 10
102.44910662366691
 20
131.32567680462171
 30
0.0
 11
100.6241066236668
 21
131.32567680462171
 31
0.0
  0
LINE
  5
25393
  8
0
 10
144.05410662366691
 20
143.2991629356755
 30
0.0
 11
142.22910662366689
 21
143.2991629356755
 31
0.0
  0
LINE
  5
25395
  8
0
 10
144.05410662366691
 20
131.32567680462171
 30
0.0
 11
142.22910662366689
 21
131.32567680462171
 31
0.0
  0
LINE
  5
25397
  8
0
 10
100.7241066236667
 20
191.50067680462169
 30
0.0
 11
100.6241066236668
 21
191.50067680462169
 31
0.0
  0
LINE
  5
25398
  8
0
 10
100.6241066236668
 20
193.32567680462171
 30
0.0
 11
100.6241066236668
 21
131.32567680462171
 31
0.0
  0
LINE
  5
25399
  8
0
 10
102.44910662366691
 20
131.32567680462171
 30
0.0
 11
102.44910662366691
 21
168.32567680462171
 31
0.0
  0
LINE
  5
2539A
  8
0
 10
144.05410662366691
 20
191.50067680462169
 30
0.0
 11
143.9541066236668
 21
191.50067680462169
 31
0.0
  0
LINE
  5
2539B
  8
0
 10
144.05410662366691
 20
193.32567680462171
 30
0.0
 11
144.05410662366691
 21
131.32567680462171
 31
0.0
  0
LINE
  5
2539C
  8
0
 10
142.22910662366689
 20
131.32567680462171
 30
0.0
 11
142.22910662366689
 21
168.32567680462171
 31
0.0
  0
LINE
  5
2539E
  8
0
 10
79.839106623666794
 20
205.82567680462171
 30
0.0
 11
79.839106623666794
 21
208.32567680462171
 31
0.0
  0
LINE
  5
2539F
  8
0
 10
79.839106623666794
 20
208.32567680462171
 30
0.0
 11
164.83910662366679
 21
208.32567680462171
 31
0.0
  0
LINE
  5
253A0
  8
0
 10
79.839106623666794
 20
205.82567680462171
 30
0.0
 11
164.83910662366679
 21
205.82567680462171
 31
0.0
  0
LINE
  5
253A4
  8
0
 10
164.83910662366679
 20
205.82567680462171
 30
0.0
 11
164.83910662366679
 21
208.32567680462171
 31
0.0
  0
LINE
  5
253A7
  8
0
 10
144.05410662366691
 20
193.32567680462171
 30
0.0
 11
100.6241066236668
 21
193.32567680462171
 31
0.0
  0
LINE
  5
253AA
  8
0
 10
85.839106623666794
 20
205.0256768046217
 30
0.0
 11
158.83910662366679
 21
205.0256768046217
 31
0.0
  0
POLYLINE
  5
253AB
  8
0
 10
98.209183848672623
 20
134.09917593526458
 30
0.0
 66
     1
 70
     8
  0
VERTEX
  8
0
  5
25704
 10
98.2092
 20
134.099
 30
0.000000
  70
    32
  0
VERTEX
  8
0
  5
25705
 10
98.2102
 20
134.098
 30
0.000000
  70
    32
  0
VERTEX
  8
0
  5
25706
 10
98.2112
 20
134.098
 30
0.000000
  70
    32
  0
VERTEX
  8
0
  5
25707
 10
98.2123
 20
134.097
 30
0.000000
  70
    32
  0
VERTEX
  8
0
  5
25708
 10
98.2133
 20
134.096
 30
0.000000
  70
    32
  0
VERTEX
  8
0
  5
25709
 10
98.2143
 20
134.095
 30
0.000000
  70
    32
  0
VERTEX
  8
0
  5
2570A
 10
98.2153
 20
134.094
 30
0.000000
  70
    32
  0
VERTEX
  8
0
  5
2570B
 10
98.2164
 20
134.093
 30
0.000000
  70
    32
  0
VERTEX
  8
0
  5
2570C
 10
98.2174
 20
134.092
 30
0.000000
  70
    32
  0
VERTEX
  8
0
  5
2570D
 10
98.2184
 20
134.092
 30
0.000000
  70
    32
  0
VERTEX
  8
0
  5
2570E
 10
98.2194
 20
134.091
 30
0.000000
  70
    32
  0
VERTEX
  8
0
  5
2570F
 10
98.2205
 20
134.090
 30
0.000000
  70
    32
  0
VERTEX
  8
0
  5
25710
 10
98.2215
 20
134.089
 30
0.000000
  70
    32
  0
VERTEX
  8
0
  5
25711
 10
98.2225
 20
134.088
 30
0.000000
  70
    32
  0
VERTEX
  8
0
  5
25712
 10
98.2235
 20
134.087
 30
0.000000
  70
    32
  0
VERTEX
  8
0
  5
25713
 10
98.2246
 20
134.087
 30
0.000000
  70
    32
  0
VERTEX
  8
0
  5
25714
 10
98.2256
 20
134.086
 30
0.000000
  70
    32
  0
VERTEX
  8
0
  5
25715
 10
98.2266
 20
134.085
 30
0.000000
  70
    32
  0
VERTEX
  8
0
  5
25716
 10
98.2277
 20
134.084
 30
0.000000
  70
    32
  0
VERTEX
  8
0
  5
25717
 10
98.2287
 20
134.083
 30
0.000000
  70
    32
  0
VERTEX
  8
0
  5
25718
 10
98.2297
 20
134.082
 30
0.000000
  70
    32
  0
VERTEX
  8
0
  5
25719
 10
98.2307
 20
134.082
 30
0.000000
  70
    32
  0
VERTEX
  8
0
  5
2571A
 10
98.2318
 20
134.081
 30
0.000000
  70
    32
  0
VERTEX
  8
0
  5
2571B
 10
98.2328
 20
134.080
 30
0.000000
  70
    32
  0
VERTEX
  8
0
  5
2571C
 10
98.2338
 20
134.079
 30
0.000000
  70
    32
  0
VERTEX
  8
0
  5
2571D
 10
98.2348
 20
134.078
 30
0.000000
  70
    32
  0
VERTEX
  8
0
  5
2571E
 10
98.2359
 20
134.077
 30
0.000000
  70
    32
  0
VERTEX
  8
0
  5
2571F
 10
98.2369
 20
134.077
 30
0.000000
  70
    32
  0
VERTEX
  8
0
  5
25720
 10
98.2379
 20
134.076
 30
0.000000
  70
    32
  0
VERTEX
  8
0
  5
25721
 10
98.2389
 20
134.075
 30
0.000000
  70
    32
  0
VERTEX
  8
0
  5
25722
 10
98.2400
 20
134.074
 30
0.000000
  70
    32
  0
VERTEX
  8
0
  5
25723
 10
98.2410
 20
134.073
 30
0.000000
  70
    32
  0
VERTEX
  8
0
  5
25724
 10
98.2420
 20
134.072
 30
0.000000
  70
    32
  0
VERTEX
  8
0
  5
25725
 10
98.2430
 20
134.072
 30
0.000000
  70
    32
  0
VERTEX
  8
0
  5
25726
 10
98.2441
 20
134.071
 30
0.000000
  70
    32
  0
VERTEX
  8
0
  5
25727
 10
98.2451
 20
134.070
 30
0.000000
  70
    32
  0
VERTEX
  8
0
  5
25728
 10
98.2461
 20
134.069
 30
0.000000
  70
    32
  0
VERTEX
  8
0
  5
25729
 10
98.2472
 20
134.068
 30
0.000000
  70
    32
  0
VERTEX
  8
0
  5
2572A
 10
98.2482
 20
134.067
 30
0.000000
  70
    32
  0
VERTEX
  8
0
  5
2572B
 10
98.2492
 20
134.067
 30
0.000000
  70
    32
  0
VERTEX
  8
0
  5
2572C
 10
98.2502
 20
134.066
 30
0.000000
  70
    32
  0
VERTEX
  8
0
  5
2572D
 10
98.2513
 20
134.065
 30
0.000000
  70
    32
  0
VERTEX
  8
0
  5
2572E
 10
98.2523
 20
134.064
 30
0.000000
  70
    32
  0
VERTEX
  8
0
  5
2572F
 10
98.2533
 20
134.063
 30
0.000000
  70
    32
  0
VERTEX
  8
0
  5
25730
 10
98.2543
 20
134.062
 30
0.000000
  70
    32
  0
VERTEX
  8
0
  5
25731
 10
98.2554
 20
134.062
 30
0.000000
  70
    32
  0
VERTEX
  8
0
  5
25732
 10
98.2564
 20
134.061
 30
0.000000
  70
    32
  0
VERTEX
  8
0
  5
25733
 10
98.2574
 20
134.060
 30
0.000000
  70
    32
  0
VERTEX
  8
0
  5
25734
 10
98.2585
 20
134.059
 30
0.000000
  70
    32
  0
VERTEX
  8
0
  5
25735
 10
98.2595
 20
134.058
 30
0.000000
  70
    32
  0
VERTEX
  8
0
  5
25736
 10
98.2605
 20
134.057
 30
0.000000
  70
    32
  0
VERTEX
  8
0
  5
25737
 10
98.2615
 20
134.056
 30
0.000000
  70
    32
  0
VERTEX
  8
0
  5
25738
 10
98.2626
 20
134.056
 30
0.000000
  70
    32
  0
VERTEX
  8
0
  5
25739
 10
98.2636
 20
134.055
 30
0.000000
  70
    32
  0
VERTEX
  8
0
  5
2573A
 10
98.2646
 20
134.054
 30
0.000000
  70
    32
  0
VERTEX
  8
0
  5
2573B
 10
98.2656
 20
134.053
 30
0.000000
  70
    32
  0
VERTEX
  8
0
  5
2573C
 10
98.2667
 20
134.052
 30
0.000000
  70
    32
  0
VERTEX
  8
0
  5
2573D
 10
98.2677
 20
134.051
 30
0.000000
  70
    32
  0
VERTEX
  8
0
  5
2573E
 10
98.2687
 20
134.051
 30
0.000000
  70
    32
  0
VERTEX
  8
0
  5
2573F
 10
98.2698
 20
134.050
 30
0.000000
  70
    32
  0
VERTEX
  8
0
  5
25740
 10
98.2708
 20
134.049
 30
0.000000
  70
    32
  0
VERTEX
  8
0
  5
25741
 10
98.2718
 20
134.048
 30
0.000000
  70
    32
  0
VERTEX
  8
0
  5
25742
 10
98.2728
 20
134.047
 30
0.000000
  70
    32
  0
VERTEX
  8
0
  5
25743
 10
98.2739
 20
134.046
 30
0.000000
  70
    32
  0
VERTEX
  8
0
  5
25744
 10
98.2749
 20
134.046
 30
0.000000
  70
    32
  0
VERTEX
  8
0
  5
25745
 10
98.2759
 20
134.045
 30
0.000000
  70
    32
  0
VERTEX
  8
0
  5
25746
 10
98.2769
 20
134.044
 30
0.000000
  70
    32
  0
VERTEX
  8
0
  5
25747
 10
98.2780
 20
134.043
 30
0.000000
  70
    32
  0
VERTEX
  8
0
  5
25748
 10
98.2790
 20
134.042
 30
0.000000
  70
    32
  0
VERTEX
  8
0
  5
25749
 10
98.2800
 20
134.041
 30
0.000000
  70
    32
  0
VERTEX
  8
0
  5
2574A
 10
98.2811
 20
134.041
 30
0.000000
  70
    32
  0
VERTEX
  8
0
  5
2574B
 10
98.2821
 20
134.040
 30
0.000000
  70
    32
  0
VERTEX
  8
0
  5
2574C
 10
98.2831
 20
134.039
 30
0.000000
  70
    32
  0
VERTEX
  8
0
  5
2574D
 10
98.2841
 20
134.038
 30
0.000000
  70
    32
  0
VERTEX
  8
0
  5
2574E
 10
98.2852
 20
134.037
 30
0.000000
  70
    32
  0
VERTEX
  8
0
  5
2574F
 10
98.2862
 20
134.036
 30
0.000000
  70
    32
  0
VERTEX
  8
0
  5
25750
 10
98.2872
 20
134.036
 30
0.000000
  70
    32
  0
VERTEX
  8
0
  5
25751
 10
98.2883
 20
134.035
 30
0.000000
  70
    32
  0
VERTEX
  8
0
  5
25752
 10
98.2893
 20
134.034
 30
0.000000
  70
    32
  0
VERTEX
  8
0
  5
25753
 10
98.2903
 20
134.033
 30
0.000000
  70
    32
  0
VERTEX
  8
0
  5
25754
 10
98.2913
 20
134.032
 30
0.000000
  70
    32
  0
VERTEX
  8
0
  5
25755
 10
98.2924
 20
134.031
 30
0.000000
  70
    32
  0
VERTEX
  8
0
  5
25756
 10
98.2934
 20
134.031
 30
0.000000
  70
    32
  0
VERTEX
  8
0
  5
25757
 10
98.2944
 20
134.030
 30
0.000000
  70
    32
  0
VERTEX
  8
0
  5
25758
 10
98.2955
 20
134.029
 30
0.000000
  70
    32
  0
VERTEX
  8
0
  5
25759
 10
98.2965
 20
134.028
 30
0.000000
  70
    32
  0
VERTEX
  8
0
  5
2575A
 10
98.2975
 20
134.027
 30
0.000000
  70
    32
  0
VERTEX
  8
0
  5
2575B
 10
98.2985
 20
134.026
 30
0.000000
  70
    32
  0
VERTEX
  8
0
  5
2575C
 10
98.2996
 20
134.026
 30
0.000000
  70
    32
  0
VERTEX
  8
0
  5
2575D
 10
98.3006
 20
134.025
 30
0.000000
  70
    32
  0
VERTEX
  8
0
  5
2575E
 10
98.3016
 20
134.024
 30
0.000000
  70
    32
  0
VERTEX
  8
0
  5
2575F
 10
98.3027
 20
134.023
 30
0.000000
  70
    32
  0
VERTEX
  8
0
  5
25760
 10
98.3037
 20
134.022
 30
0.000000
  70
    32
  0
VERTEX
  8
0
  5
25761
 10
98.3047
 20
134.021
 30
0.000000
  70
    32
  0
VERTEX
  8
0
  5
25762
 10
98.3057
 20
134.021
 30
0.000000
  70
    32
  0
VERTEX
  8
0
  5
25763
 10
98.3068
 20
134.020
 30
0.000000
  70
    32
  0
VERTEX
  8
0
  5
25764
 10
98.3078
 20
134.019
 30
0.000000
  70
    32
  0
VERTEX
  8
0
  5
25765
 10
98.3088
 20
134.018
 30
0.000000
  70
    32
  0
VERTEX
  8
0
  5
25766
 10
98.3099
 20
134.017
 30
0.000000
  70
    32
  0
VERTEX
  8
0
  5
25767
 10
98.3109
 20
134.016
 30
0.000000
  70
    32
  0
VERTEX
  8
0
  5
25768
 10
98.3119
 20
134.016
 30
0.000000
  70
    32
  0
VERTEX
  8
0
  5
25769
 10
98.3129
 20
134.015
 30
0.000000
  70
    32
  0
VERTEX
  8
0
  5
2576A
 10
98.3140
 20
134.014
 30
0.000000
  70
    32
  0
VERTEX
  8
0
  5
2576B
 10
98.3150
 20
134.013
 30
0.000000
  70
    32
  0
VERTEX
  8
0
  5
2576C
 10
98.3160
 20
134.012
 30
0.000000
  70
    32
  0
VERTEX
  8
0
  5
2576D
 10
98.3171
 20
134.011
 30
0.000000
  70
    32
  0
VERTEX
  8
0
  5
2576E
 10
98.3181
 20
134.011
 30
0.000000
  70
    32
  0
VERTEX
  8
0
  5
2576F
 10
98.3191
 20
134.010
 30
0.000000
  70
    32
  0
VERTEX
  8
0
  5
25770
 10
98.3201
 20
134.009
 30
0.000000
  70
    32
  0
VERTEX
  8
0
  5
25771
 10
98.3212
 20
134.008
 30
0.000000
  70
    32
  0
VERTEX
  8
0
  5
25772
 10
98.3222
 20
134.007
 30
0.000000
  70
    32
  0
VERTEX
  8
0
  5
25773
 10
98.3232
 20
134.006
 30
0.000000
  70
    32
  0
VERTEX
  8
0
  5
25774
 10
98.3243
 20
134.006
 30
0.000000
  70
    32
  0
VERTEX
  8
0
  5
25775
 10
98.3253
 20
134.005
 30
0.000000
  70
    32
  0
VERTEX
  8
0
  5
25776
 10
98.3263
 20
134.004
 30
0.000000
  70
    32
  0
VERTEX
  8
0
  5
25777
 10
98.3274
 20
134.003
 30
0.000000
  70
    32
  0
VERTEX
  8
0
  5
25778
 10
98.3284
 20
134.002
 30
0.000000
  70
    32
  0
VERTEX
  8
0
  5
25779
 10
98.3294
 20
134.001
 30
0.000000
  70
    32
  0
VERTEX
  8
0
  5
2577A
 10
98.3304
 20
134.001
 30
0.000000
  70
    32
  0
VERTEX
  8
0
  5
2577B
 10
98.3315
 20
134.000
 30
0.000000
  70
    32
  0
VERTEX
  8
0
  5
2577C
 10
98.3325
 20
133.999
 30
0.000000
  70
    32
  0
VERTEX
  8
0
  5
2577D
 10
98.3335
 20
133.998
 30
0.000000
  70
    32
  0
VERTEX
  8
0
  5
2577E
 10
98.3346
 20
133.997
 30
0.000000
  70
    32
  0
VERTEX
  8
0
  5
2577F
 10
98.3356
 20
133.996
 30
0.000000
  70
    32
  0
VERTEX
  8
0
  5
25780
 10
98.3366
 20
133.996
 30
0.000000
  70
    32
  0
VERTEX
  8
0
  5
25781
 10
98.3377
 20
133.995
 30
0.000000
  70
    32
  0
VERTEX
  8
0
  5
25782
 10
98.3387
 20
133.994
 30
0.000000
  70
    32
  0
VERTEX
  8
0
  5
25783
 10
98.3397
 20
133.993
 30
0.000000
  70
    32
  0
VERTEX
  8
0
  5
25784
 10
98.3407
 20
133.992
 30
0.000000
  70
    32
  0
SEQEND
  8
0
  5
25785
  0
POLYLINE
  5
253AC
  8
0
 10
85.839106623666794
 20
159.48782633594752
 30
0.0
 66
     1
 70
     8
  0
VERTEX
  8
0
  5
25786
 10
85.8391
 20
159.488
 30
0.000000
  70
    32
  0
VERTEX
  8
0
  5
25787
 10
85.8394
 20
159.343
 30
0.000000
  70
    32
  0
VERTEX
  8
0
  5
25788
 10
85.8404
 20
159.198
 30
0.000000
  70
    32
  0
VERTEX
  8
0
  5
25789
 10
85.8421
 20
159.052
 30
0.000000
  70
    32
  0
VERTEX
  8
0
  5
2578A
 10
85.8445
 20
158.907
 30
0.000000
  70
    32
  0
VERTEX
  8
0
  5
2578B
 10
85.8475
 20
158.762
 30
0.000000
  70
    32
  0
VERTEX
  8
0
  5
2578C
 10
85.8512
 20
158.617
 30
0.000000
  70
    32
  0
VERTEX
  8
0
  5
2578D
 10
85.8556
 20
158.472
 30
0.000000
  70
    32
  0
VERTEX
  8
0
  5
2578E
 10
85.8606
 20
158.327
 30
0.000000
  70
    32
  0
VERTEX
  8
0
  5
2578F
 10
85.8663
 20
158.182
 30
0.000000
  70
    32
  0
VERTEX
  8
0
  5
25790
 10
85.8727
 20
158.037
 30
0.000000
  70
    32
  0
VERTEX
  8
0
  5
25791
 10
85.8797
 20
157.892
 30
0.000000
  70
    32
  0
VERTEX
  8
0
  5
25792
 10
85.8875
 20
157.747
 30
0.000000
  70
    32
  0
VERTEX
  8
0
  5
25793
 10
85.8958
 20
157.602
 30
0.000000
  70
    32
  0
VERTEX
  8
0
  5
25794
 10
85.9049
 20
157.457
 30
0.000000
  70
    32
  0
VERTEX
  8
0
  5
25795
 10
85.9146
 20
157.312
 30
0.000000
  70
    32
  0
VERTEX
  8
0
  5
25796
 10
85.9250
 20
157.167
 30
0.000000
  70
    32
  0
VERTEX
  8
0
  5
25797
 10
85.9361
 20
157.022
 30
0.000000
  70
    32
  0
VERTEX
  8
0
  5
25798
 10
85.9479
 20
156.878
 30
0.000000
  70
    32
  0
VERTEX
  8
0
  5
25799
 10
85.9603
 20
156.733
 30
0.000000
  70
    32
  0
VERTEX
  8
0
  5
2579A
 10
85.9733
 20
156.588
 30
0.000000
  70
    32
  0
VERTEX
  8
0
  5
2579B
 10
85.9871
 20
156.444
 30
0.000000
  70
    32
  0
VERTEX
  8
0
  5
2579C
 10
86.0015
 20
156.299
 30
0.000000
  70
    32
  0
VERTEX
  8
0
  5
2579D
 10
86.0166
 20
156.155
 30
0.000000
  70
    32
  0
VERTEX
  8
0
  5
2579E
 10
86.0324
 20
156.010
 30
0.000000
  70
    32
  0
VERTEX
  8
0
  5
2579F
 10
86.0488
 20
155.866
 30
0.000000
  70
    32
  0
VERTEX
  8
0
  5
257A0
 10
86.0659
 20
155.722
 30
0.000000
  70
    32
  0
VERTEX
  8
0
  5
257A1
 10
86.0836
 20
155.578
 30
0.000000
  70
    32
  0
VERTEX
  8
0
  5
257A2
 10
86.1021
 20
155.433
 30
0.000000
  70
    32
  0
VERTEX
  8
0
  5
257A3
 10
86.1212
 20
155.289
 30
0.000000
  70
    32
  0
VERTEX
  8
0
  5
257A4
 10
86.1409
 20
155.145
 30
0.000000
  70
    32
  0
VERTEX
  8
0
  5
257A5
 10
86.1613
 20
155.001
 30
0.000000
  70
    32
  0
VERTEX
  8
0
  5
257A6
 10
86.1824
 20
154.858
 30
0.000000
  70
    32
  0
VERTEX
  8
0
  5
257A7
 10
86.2042
 20
154.714
 30
0.000000
  70
    32
  0
VERTEX
  8
0
  5
257A8
 10
86.2266
 20
154.570
 30
0.000000
  70
    32
  0
VERTEX
  8
0
  5
257A9
 10
86.2497
 20
154.427
 30
0.000000
  70
    32
  0
VERTEX
  8
0
  5
257AA
 10
86.2734
 20
154.283
 30
0.000000
  70
    32
  0
VERTEX
  8
0
  5
257AB
 10
86.2979
 20
154.140
 30
0.000000
  70
    32
  0
VERTEX
  8
0
  5
257AC
 10
86.3229
 20
153.997
 30
0.000000
  70
    32
  0
VERTEX
  8
0
  5
257AD
 10
86.3487
 20
153.853
 30
0.000000
  70
    32
  0
VERTEX
  8
0
  5
257AE
 10
86.3751
 20
153.710
 30
0.000000
  70
    32
  0
VERTEX
  8
0
  5
257AF
 10
86.4021
 20
153.567
 30
0.000000
  70
    32
  0
VERTEX
  8
0
  5
257B0
 10
86.4299
 20
153.424
 30
0.000000
  70
    32
  0
VERTEX
  8
0
  5
257B1
 10
86.4583
 20
153.282
 30
0.000000
  70
    32
  0
VERTEX
  8
0
  5
257B2
 10
86.4873
 20
153.139
 30
0.000000
  70
    32
  0
VERTEX
  8
0
  5
257B3
 10
86.5170
 20
152.997
 30
0.000000
  70
    32
  0
VERTEX
  8
0
  5
257B4
 10
86.5474
 20
152.854
 30
0.000000
  70
    32
  0
VERTEX
  8
0
  5
257B5
 10
86.5784
 20
152.712
 30
0.000000
  70
    32
  0
VERTEX
  8
0
  5
257B6
 10
86.6101
 20
152.570
 30
0.000000
  70
    32
  0
VERTEX
  8
0
  5
257B7
 10
86.6424
 20
152.428
 30
0.000000
  70
    32
  0
VERTEX
  8
0
  5
257B8
 10
86.6754
 20
152.286
 30
0.000000
  70
    32
  0
VERTEX
  8
0
  5
257B9
 10
86.7091
 20
152.144
 30
0.000000
  70
    32
  0
VERTEX
  8
0
  5
257BA
 10
86.7434
 20
152.002
 30
0.000000
  70
    32
  0
VERTEX
  8
0
  5
257BB
 10
86.7783
 20
151.861
 30
0.000000
  70
    32
  0
VERTEX
  8
0
  5
257BC
 10
86.8139
 20
151.720
 30
0.000000
  70
    32
  0
VERTEX
  8
0
  5
257BD
 10
86.8502
 20
151.578
 30
0.000000
  70
    32
  0
VERTEX
  8
0
  5
257BE
 10
86.8871
 20
151.437
 30
0.000000
  70
    32
  0
VERTEX
  8
0
  5
257BF
 10
86.9247
 20
151.296
 30
0.000000
  70
    32
  0
VERTEX
  8
0
  5
257C0
 10
86.9629
 20
151.156
 30
0.000000
  70
    32
  0
VERTEX
  8
0
  5
257C1
 10
87.0018
 20
151.015
 30
0.000000
  70
    32
  0
VERTEX
  8
0
  5
257C2
 10
87.0413
 20
150.875
 30
0.000000
  70
    32
  0
VERTEX
  8
0
  5
257C3
 10
87.0815
 20
150.734
 30
0.000000
  70
    32
  0
VERTEX
  8
0
  5
257C4
 10
87.1224
 20
150.594
 30
0.000000
  70
    32
  0
VERTEX
  8
0
  5
257C5
 10
87.1638
 20
150.454
 30
0.000000
  70
    32
  0
VERTEX
  8
0
  5
257C6
 10
87.2059
 20
150.315
 30
0.000000
  70
    32
  0
VERTEX
  8
0
  5
257C7
 10
87.2487
 20
150.175
 30
0.000000
  70
    32
  0
VERTEX
  8
0
  5
257C8
 10
87.2921
 20
150.035
 30
0.000000
  70
    32
  0
VERTEX
  8
0
  5
257C9
 10
87.3362
 20
149.896
 30
0.000000
  70
    32
  0
VERTEX
  8
0
  5
257CA
 10
87.3809
 20
149.757
 30
0.000000
  70
    32
  0
VERTEX
  8
0
  5
257CB
 10
87.4262
 20
149.618
 30
0.000000
  70
    32
  0
VERTEX
  8
0
  5
257CC
 10
87.4722
 20
149.479
 30
0.000000
  70
    32
  0
VERTEX
  8
0
  5
257CD
 10
87.5189
 20
149.341
 30
0.000000
  70
    32
  0
VERTEX
  8
0
  5
257CE
 10
87.5661
 20
149.202
 30
0.000000
  70
    32
  0
VERTEX
  8
0
  5
257CF
 10
87.6140
 20
149.064
 30
0.000000
  70
    32
  0
VERTEX
  8
0
  5
257D0
 10
87.6626
 20
148.926
 30
0.000000
  70
    32
  0
VERTEX
  8
0
  5
257D1
 10
87.7118
 20
148.788
 30
0.000000
  70
    32
  0
VERTEX
  8
0
  5
257D2
 10
87.7616
 20
148.651
 30
0.000000
  70
    32
  0
VERTEX
  8
0
  5
257D3
 10
87.8121
 20
148.513
 30
0.000000
  70
    32
  0
VERTEX
  8
0
  5
257D4
 10
87.8632
 20
148.376
 30
0.000000
  70
    32
  0
VERTEX
  8
0
  5
257D5
 10
87.9149
 20
148.239
 30
0.000000
  70
    32
  0
VERTEX
  8
0
  5
257D6
 10
87.9673
 20
148.102
 30
0.000000
  70
    32
  0
VERTEX
  8
0
  5
257D7
 10
88.0203
 20
147.966
 30
0.000000
  70
    32
  0
VERTEX
  8
0
  5
257D8
 10
88.0739
 20
147.829
 30
0.000000
  70
    32
  0
VERTEX
  8
0
  5
257D9
 10
88.1281
 20
147.693
 30
0.000000
  70
    32
  0
VERTEX
  8
0
  5
257DA
 10
88.1830
 20
147.557
 30
0.000000
  70
    32
  0
VERTEX
  8
0
  5
257DB
 10
88.2385
 20
147.422
 30
0.000000
  70
    32
  0
VERTEX
  8
0
  5
257DC
 10
88.2947
 20
147.286
 30
0.000000
  70
    32
  0
VERTEX
  8
0
  5
257DD
 10
88.3515
 20
147.151
 30
0.000000
  70
    32
  0
VERTEX
  8
0
  5
257DE
 10
88.4089
 20
147.016
 30
0.000000
  70
    32
  0
VERTEX
  8
0
  5
257DF
 10
88.4669
 20
146.881
 30
0.000000
  70
    32
  0
VERTEX
  8
0
  5
257E0
 10
88.5255
 20
146.746
 30
0.000000
  70
    32
  0
VERTEX
  8
0
  5
257E1
 10
88.5848
 20
146.612
 30
0.000000
  70
    32
  0
VERTEX
  8
0
  5
257E2
 10
88.6447
 20
146.478
 30
0.000000
  70
    32
  0
VERTEX
  8
0
  5
257E3
 10
88.7052
 20
146.344
 30
0.000000
  70
    32
  0
VERTEX
  8
0
  5
257E4
 10
88.7663
 20
146.211
 30
0.000000
  70
    32
  0
VERTEX
  8
0
  5
257E5
 10
88.8280
 20
146.077
 30
0.000000
  70
    32
  0
VERTEX
  8
0
  5
257E6
 10
88.8904
 20
145.944
 30
0.000000
  70
    32
  0
VERTEX
  8
0
  5
257E7
 10
88.9534
 20
145.811
 30
0.000000
  70
    32
  0
VERTEX
  8
0
  5
257E8
 10
89.0170
 20
145.678
 30
0.000000
  70
    32
  0
VERTEX
  8
0
  5
257E9
 10
89.0812
 20
145.546
 30
0.000000
  70
    32
  0
VERTEX
  8
0
  5
257EA
 10
89.1460
 20
145.414
 30
0.000000
  70
    32
  0
VERTEX
  8
0
  5
257EB
 10
89.2114
 20
145.282
 30
0.000000
  70
    32
  0
VERTEX
  8
0
  5
257EC
 10
89.2774
 20
145.150
 30
0.000000
  70
    32
  0
VERTEX
  8
0
  5
257ED
 10
89.3441
 20
145.019
 30
0.000000
  70
    32
  0
VERTEX
  8
0
  5
257EE
 10
89.4113
 20
144.888
 30
0.000000
  70
    32
  0
VERTEX
  8
0
  5
257EF
 10
89.4792
 20
144.757
 30
0.000000
  70
    32
  0
VERTEX
  8
0
  5
257F0
 10
89.5477
 20
144.627
 30
0.000000
  70
    32
  0
VERTEX
  8
0
  5
257F1
 10
89.6167
 20
144.496
 30
0.000000
  70
    32
  0
VERTEX
  8
0
  5
257F2
 10
89.6864
 20
144.366
 30
0.000000
  70
    32
  0
VERTEX
  8
0
  5
257F3
 10
89.7567
 20
144.237
 30
0.000000
  70
    32
  0
VERTEX
  8
0
  5
257F4
 10
89.8275
 20
144.107
 30
0.000000
  70
    32
  0
VERTEX
  8
0
  5
257F5
 10
89.8990
 20
143.978
 30
0.000000
  70
    32
  0
VERTEX
  8
0
  5
257F6
 10
89.9711
 20
143.849
 30
0.000000
  70
    32
  0
VERTEX
  8
0
  5
257F7
 10
90.0437
 20
143.721
 30
0.000000
  70
    32
  0
VERTEX
  8
0
  5
257F8
 10
90.1170
 20
143.592
 30
0.000000
  70
    32
  0
VERTEX
  8
0
  5
257F9
 10
90.1908
 20
143.464
 30
0.000000
  70
    32
  0
VERTEX
  8
0
  5
257FA
 10
90.2652
 20
143.337
 30
0.000000
  70
    32
  0
VERTEX
  8
0
  5
257FB
 10
90.3403
 20
143.209
 30
0.000000
  70
    32
  0
VERTEX
  8
0
  5
257FC
 10
90.4159
 20
143.082
 30
0.000000
  70
    32
  0
VERTEX
  8
0
  5
257FD
 10
90.4921
 20
142.955
 30
0.000000
  70
    32
  0
VERTEX
  8
0
  5
257FE
 10
90.5689
 20
142.829
 30
0.000000
  70
    32
  0
VERTEX
  8
0
  5
257FF
 10
90.6462
 20
142.703
 30
0.000000
  70
    32
  0
VERTEX
  8
0
  5
25800
 10
90.7242
 20
142.577
 30
0.000000
  70
    32
  0
VERTEX
  8
0
  5
25801
 10
90.8027
 20
142.451
 30
0.000000
  70
    32
  0
VERTEX
  8
0
  5
25802
 10
90.8819
 20
142.326
 30
0.000000
  70
    32
  0
VERTEX
  8
0
  5
25803
 10
90.9616
 20
142.201
 30
0.000000
  70
    32
  0
VERTEX
  8
0
  5
25804
 10
91.0418
 20
142.077
 30
0.000000
  70
    32
  0
VERTEX
  8
0
  5
25805
 10
91.1227
 20
141.952
 30
0.000000
  70
    32
  0
VERTEX
  8
0
  5
25806
 10
91.2041
 20
141.828
 30
0.000000
  70
    32
  0
SEQEND
  8
0
  5
25807
  0
POLYLINE
  5
253AD
  8
0
 10
149.35410662366721
 20
136.73335649475339
 30
0.0
 66
     1
 70
     8
  0
VERTEX
  8
0
  5
25808
 10
149.354
 20
136.733
 30
0.000000
  70
    32
  0
VERTEX
  8
0
  5
25809
 10
149.495
 20
136.878
 30
0.000000
  70
    32
  0
VERTEX
  8
0
  5
2580A
 10
149.635
 20
137.023
 30
0.000000
  70
    32
  0
VERTEX
  8
0
  5
2580B
 10
149.774
 20
137.170
 30
0.000000
  70
    32
  0
VERTEX
  8
0
  5
2580C
 10
149.913
 20
137.317
 30
0.000000
  70
    32
  0
VERTEX
  8
0
  5
2580D
 10
150.050
 20
137.464
 30
0.000000
  70
    32
  0
VERTEX
  8
0
  5
2580E
 10
150.186
 20
137.613
 30
0.000000
  70
    32
  0
VERTEX
  8
0
  5
2580F
 10
150.322
 20
137.762
 30
0.000000
  70
    32
  0
VERTEX
  8
0
  5
25810
 10
150.456
 20
137.912
 30
0.000000
  70
    32
  0
VERTEX
  8
0
  5
25811
 10
150.590
 20
138.062
 30
0.000000
  70
    32
  0
VERTEX
  8
0
  5
25812
 10
150.723
 20
138.213
 30
0.000000
  70
    32
  0
VERTEX
  8
0
  5
25813
 10
150.854
 20
138.365
 30
0.000000
  70
    32
  0
VERTEX
  8
0
  5
25814
 10
150.985
 20
138.518
 30
0.000000
  70
    32
  0
VERTEX
  8
0
  5
25815
 10
151.115
 20
138.671
 30
0.000000
  70
    32
  0
VERTEX
  8
0
  5
25816
 10
151.244
 20
138.825
 30
0.000000
  70
    32
  0
VERTEX
  8
0
  5
25817
 10
151.372
 20
138.980
 30
0.000000
  70
    32
  0
VERTEX
  8
0
  5
25818
 10
151.499
 20
139.136
 30
0.000000
  70
    32
  0
VERTEX
  8
0
  5
25819
 10
151.625
 20
139.292
 30
0.000000
  70
    32
  0
VERTEX
  8
0
  5
2581A
 10
151.750
 20
139.448
 30
0.000000
  70
    32
  0
VERTEX
  8
0
  5
2581B
 10
151.874
 20
139.606
 30
0.000000
  70
    32
  0
VERTEX
  8
0
  5
2581C
 10
151.997
 20
139.764
 30
0.000000
  70
    32
  0
VERTEX
  8
0
  5
2581D
 10
152.119
 20
139.923
 30
0.000000
  70
    32
  0
VERTEX
  8
0
  5
2581E
 10
152.240
 20
140.082
 30
0.000000
  70
    32
  0
VERTEX
  8
0
  5
2581F
 10
152.360
 20
140.242
 30
0.000000
  70
    32
  0
VERTEX
  8
0
  5
25820
 10
152.480
 20
140.403
 30
0.000000
  70
    32
  0
VERTEX
  8
0
  5
25821
 10
152.598
 20
140.564
 30
0.000000
  70
    32
  0
VERTEX
  8
0
  5
25822
 10
152.715
 20
140.726
 30
0.000000
  70
    32
  0
VERTEX
  8
0
  5
25823
 10
152.831
 20
140.889
 30
0.000000
  70
    32
  0
VERTEX
  8
0
  5
25824
 10
152.946
 20
141.052
 30
0.000000
  70
    32
  0
VERTEX
  8
0
  5
25825
 10
153.060
 20
141.216
 30
0.000000
  70
    32
  0
VERTEX
  8
0
  5
25826
 10
153.173
 20
141.380
 30
0.000000
  70
    32
  0
VERTEX
  8
0
  5
25827
 10
153.285
 20
141.545
 30
0.000000
  70
    32
  0
VERTEX
  8
0
  5
25828
 10
153.396
 20
141.711
 30
0.000000
  70
    32
  0
VERTEX
  8
0
  5
25829
 10
153.506
 20
141.877
 30
0.000000
  70
    32
  0
VERTEX
  8
0
  5
2582A
 10
153.615
 20
142.044
 30
0.000000
  70
    32
  0
VERTEX
  8
0
  5
2582B
 10
153.723
 20
142.211
 30
0.000000
  70
    32
  0
VERTEX
  8
0
  5
2582C
 10
153.830
 20
142.379
 30
0.000000
  70
    32
  0
VERTEX
  8
0
  5
2582D
 10
153.936
 20
142.547
 30
0.000000
  70
    32
  0
VERTEX
  8
0
  5
2582E
 10
154.040
 20
142.716
 30
0.000000
  70
    32
  0
VERTEX
  8
0
  5
2582F
 10
154.144
 20
142.886
 30
0.000000
  70
    32
  0
VERTEX
  8
0
  5
25830
 10
154.247
 20
143.056
 30
0.000000
  70
    32
  0
VERTEX
  8
0
  5
25831
 10
154.348
 20
143.227
 30
0.000000
  70
    32
  0
VERTEX
  8
0
  5
25832
 10
154.449
 20
143.398
 30
0.000000
  70
    32
  0
VERTEX
  8
0
  5
25833
 10
154.548
 20
143.570
 30
0.000000
  70
    32
  0
VERTEX
  8
0
  5
25834
 10
154.647
 20
143.742
 30
0.000000
  70
    32
  0
VERTEX
  8
0
  5
25835
 10
154.744
 20
143.915
 30
0.000000
  70
    32
  0
VERTEX
  8
0
  5
25836
 10
154.840
 20
144.089
 30
0.000000
  70
    32
  0
VERTEX
  8
0
  5
25837
 10
154.936
 20
144.262
 30
0.000000
  70
    32
  0
VERTEX
  8
0
  5
25838
 10
155.030
 20
144.437
 30
0.000000
  70
    32
  0
VERTEX
  8
0
  5
25839
 10
155.123
 20
144.612
 30
0.000000
  70
    32
  0
VERTEX
  8
0
  5
2583A
 10
155.215
 20
144.787
 30
0.000000
  70
    32
  0
VERTEX
  8
0
  5
2583B
 10
155.305
 20
144.963
 30
0.000000
  70
    32
  0
VERTEX
  8
0
  5
2583C
 10
155.395
 20
145.139
 30
0.000000
  70
    32
  0
VERTEX
  8
0
  5
2583D
 10
155.484
 20
145.316
 30
0.000000
  70
    32
  0
VERTEX
  8
0
  5
2583E
 10
155.571
 20
145.493
 30
0.000000
  70
    32
  0
VERTEX
  8
0
  5
2583F
 10
155.658
 20
145.671
 30
0.000000
  70
    32
  0
VERTEX
  8
0
  5
25840
 10
155.743
 20
145.849
 30
0.000000
  70
    32
  0
VERTEX
  8
0
  5
25841
 10
155.827
 20
146.028
 30
0.000000
  70
    32
  0
VERTEX
  8
0
  5
25842
 10
155.910
 20
146.207
 30
0.000000
  70
    32
  0
VERTEX
  8
0
  5
25843
 10
155.992
 20
146.387
 30
0.000000
  70
    32
  0
VERTEX
  8
0
  5
25844
 10
156.073
 20
146.566
 30
0.000000
  70
    32
  0
VERTEX
  8
0
  5
25845
 10
156.153
 20
146.747
 30
0.000000
  70
    32
  0
VERTEX
  8
0
  5
25846
 10
156.232
 20
146.928
 30
0.000000
  70
    32
  0
VERTEX
  8
0
  5
25847
 10
156.309
 20
147.109
 30
0.000000
  70
    32
  0
VERTEX
  8
0
  5
25848
 10
156.385
 20
147.291
 30
0.000000
  70
    32
  0
VERTEX
  8
0
  5
25849
 10
156.461
 20
147.473
 30
0.000000
  70
    32
  0
VERTEX
  8
0
  5
2584A
 10
156.535
 20
147.655
 30
0.000000
  70
    32
  0
VERTEX
  8
0
  5
2584B
 10
156.608
 20
147.838
 30
0.000000
  70
    32
  0
VERTEX
  8
0
  5
2584C
 10
156.680
 20
148.021
 30
0.000000
  70
    32
  0
VERTEX
  8
0
  5
2584D
 10
156.750
 20
148.205
 30
0.000000
  70
    32
  0
VERTEX
  8
0
  5
2584E
 10
156.820
 20
148.389
 30
0.000000
  70
    32
  0
VERTEX
  8
0
  5
2584F
 10
156.888
 20
148.573
 30
0.000000
  70
    32
  0
VERTEX
  8
0
  5
25850
 10
156.955
 20
148.758
 30
0.000000
  70
    32
  0
VERTEX
  8
0
  5
25851
 10
157.022
 20
148.943
 30
0.000000
  70
    32
  0
VERTEX
  8
0
  5
25852
 10
157.087
 20
149.128
 30
0.000000
  70
    32
  0
VERTEX
  8
0
  5
25853
 10
157.150
 20
149.314
 30
0.000000
  70
    32
  0
VERTEX
  8
0
  5
25854
 10
157.213
 20
149.500
 30
0.000000
  70
    32
  0
VERTEX
  8
0
  5
25855
 10
157.274
 20
149.687
 30
0.000000
  70
    32
  0
VERTEX
  8
0
  5
25856
 10
157.335
 20
149.874
 30
0.000000
  70
    32
  0
VERTEX
  8
0
  5
25857
 10
157.394
 20
150.061
 30
0.000000
  70
    32
  0
VERTEX
  8
0
  5
25858
 10
157.452
 20
150.248
 30
0.000000
  70
    32
  0
VERTEX
  8
0
  5
25859
 10
157.509
 20
150.436
 30
0.000000
  70
    32
  0
VERTEX
  8
0
  5
2585A
 10
157.565
 20
150.624
 30
0.000000
  70
    32
  0
VERTEX
  8
0
  5
2585B
 10
157.619
 20
150.812
 30
0.000000
  70
    32
  0
VERTEX
  8
0
  5
2585C
 10
157.672
 20
151.001
 30
0.000000
  70
    32
  0
VERTEX
  8
0
  5
2585D
 10
157.725
 20
151.190
 30
0.000000
  70
    32
  0
VERTEX
  8
0
  5
2585E
 10
157.776
 20
151.379
 30
0.000000
  70
    32
  0
VERTEX
  8
0
  5
2585F
 10
157.825
 20
151.568
 30
0.000000
  70
    32
  0
VERTEX
  8
0
  5
25860
 10
157.874
 20
151.758
 30
0.000000
  70
    32
  0
VERTEX
  8
0
  5
25861
 10
157.921
 20
151.948
 30
0.000000
  70
    32
  0
VERTEX
  8
0
  5
25862
 10
157.968
 20
152.138
 30
0.000000
  70
    32
  0
VERTEX
  8
0
  5
25863
 10
158.013
 20
152.328
 30
0.000000
  70
    32
  0
VERTEX
  8
0
  5
25864
 10
158.057
 20
152.519
 30
0.000000
  70
    32
  0
VERTEX
  8
0
  5
25865
 10
158.099
 20
152.710
 30
0.000000
  70
    32
  0
VERTEX
  8
0
  5
25866
 10
158.141
 20
152.901
 30
0.000000
  70
    32
  0
VERTEX
  8
0
  5
25867
 10
158.181
 20
153.093
 30
0.000000
  70
    32
  0
VERTEX
  8
0
  5
25868
 10
158.220
 20
153.284
 30
0.000000
  70
    32
  0
VERTEX
  8
0
  5
25869
 10
158.258
 20
153.476
 30
0.000000
  70
    32
  0
VERTEX
  8
0
  5
2586A
 10
158.295
 20
153.668
 30
0.000000
  70
    32
  0
VERTEX
  8
0
  5
2586B
 10
158.331
 20
153.860
 30
0.000000
  70
    32
  0
VERTEX
  8
0
  5
2586C
 10
158.365
 20
154.052
 30
0.000000
  70
    32
  0
VERTEX
  8
0
  5
2586D
 10
158.398
 20
154.245
 30
0.000000
  70
    32
  0
VERTEX
  8
0
  5
2586E
 10
158.430
 20
154.438
 30
0.000000
  70
    32
  0
VERTEX
  8
0
  5
2586F
 10
158.461
 20
154.630
 30
0.000000
  70
    32
  0
VERTEX
  8
0
  5
25870
 10
158.491
 20
154.823
 30
0.000000
  70
    32
  0
VERTEX
  8
0
  5
25871
 10
158.519
 20
155.017
 30
0.000000
  70
    32
  0
VERTEX
  8
0
  5
25872
 10
158.546
 20
155.210
 30
0.000000
  70
    32
  0
VERTEX
  8
0
  5
25873
 10
158.572
 20
155.403
 30
0.000000
  70
    32
  0
VERTEX
  8
0
  5
25874
 10
158.597
 20
155.597
 30
0.000000
  70
    32
  0
VERTEX
  8
0
  5
25875
 10
158.621
 20
155.791
 30
0.000000
  70
    32
  0
VERTEX
  8
0
  5
25876
 10
158.643
 20
155.985
 30
0.000000
  70
    32
  0
VERTEX
  8
0
  5
25877
 10
158.664
 20
156.179
 30
0.000000
  70
    32
  0
VERTEX
  8
0
  5
25878
 10
158.684
 20
156.373
 30
0.000000
  70
    32
  0
VERTEX
  8
0
  5
25879
 10
158.703
 20
156.567
 30
0.000000
  70
    32
  0
VERTEX
  8
0
  5
2587A
 10
158.720
 20
156.761
 30
0.000000
  70
    32
  0
VERTEX
  8
0
  5
2587B
 10
158.737
 20
156.956
 30
0.000000
  70
    32
  0
VERTEX
  8
0
  5
2587C
 10
158.752
 20
157.150
 30
0.000000
  70
    32
  0
VERTEX
  8
0
  5
2587D
 10
158.766
 20
157.345
 30
0.000000
  70
    32
  0
VERTEX
  8
0
  5
2587E
 10
158.779
 20
157.539
 30
0.000000
  70
    32
  0
VERTEX
  8
0
  5
2587F
 10
158.790
 20
157.734
 30
0.000000
  70
    32
  0
VERTEX
  8
0
  5
25880
 10
158.800
 20
157.929
 30
0.000000
  70
    32
  0
VERTEX
  8
0
  5
25881
 10
158.809
 20
158.123
 30
0.000000
  70
    32
  0
VERTEX
  8
0
  5
25882
 10
158.817
 20
158.318
 30
0.000000
  70
    32
  0
VERTEX
  8
0
  5
25883
 10
158.824
 20
158.513
 30
0.000000
  70
    32
  0
VERTEX
  8
0
  5
25884
 10
158.829
 20
158.708
 30
0.000000
  70
    32
  0
VERTEX
  8
0
  5
25885
 10
158.834
 20
158.903
 30
0.000000
  70
    32
  0
VERTEX
  8
0
  5
25886
 10
158.837
 20
159.098
 30
0.000000
  70
    32
  0
VERTEX
  8
0
  5
25887
 10
158.839
 20
159.293
 30
0.000000
  70
    32
  0
VERTEX
  8
0
  5
25888
 10
158.839
 20
159.488
 30
0.000000
  70
    32
  0
SEQEND
  8
0
  5
25889
  0
POLYLINE
  5
253AE
  8
0
 10
146.33747271857223
 20
133.99223356340519
 30
0.0
 66
     1
 70
     8
  0
VERTEX
  8
0
  5
2588A
 10
146.337
 20
133.992
 30
0.000000
  70
    32
  0
VERTEX
  8
0
  5
2588B
 10
146.339
 20
133.993
 30
0.000000
  70
    32
  0
VERTEX
  8
0
  5
2588C
 10
146.340
 20
133.994
 30
0.000000
  70
    32
  0
VERTEX
  8
0
  5
2588D
 10
146.341
 20
133.995
 30
0.000000
  70
    32
  0
VERTEX
  8
0
  5
2588E
 10
146.342
 20
133.996
 30
0.000000
  70
    32
  0
VERTEX
  8
0
  5
2588F
 10
146.343
 20
133.996
 30
0.000000
  70
    32
  0
VERTEX
  8
0
  5
25890
 10
146.344
 20
133.997
 30
0.000000
  70
    32
  0
VERTEX
  8
0
  5
25891
 10
146.345
 20
133.998
 30
0.000000
  70
    32
  0
VERTEX
  8
0
  5
25892
 10
146.346
 20
133.999
 30
0.000000
  70
    32
  0
VERTEX
  8
0
  5
25893
 10
146.347
 20
134.000
 30
0.000000
  70
    32
  0
VERTEX
  8
0
  5
25894
 10
146.348
 20
134.001
 30
0.000000
  70
    32
  0
VERTEX
  8
0
  5
25895
 10
146.349
 20
134.001
 30
0.000000
  70
    32
  0
VERTEX
  8
0
  5
25896
 10
146.350
 20
134.002
 30
0.000000
  70
    32
  0
VERTEX
  8
0
  5
25897
 10
146.351
 20
134.003
 30
0.000000
  70
    32
  0
VERTEX
  8
0
  5
25898
 10
146.352
 20
134.004
 30
0.000000
  70
    32
  0
VERTEX
  8
0
  5
25899
 10
146.353
 20
134.005
 30
0.000000
  70
    32
  0
VERTEX
  8
0
  5
2589A
 10
146.354
 20
134.006
 30
0.000000
  70
    32
  0
VERTEX
  8
0
  5
2589B
 10
146.355
 20
134.006
 30
0.000000
  70
    32
  0
VERTEX
  8
0
  5
2589C
 10
146.356
 20
134.007
 30
0.000000
  70
    32
  0
VERTEX
  8
0
  5
2589D
 10
146.357
 20
134.008
 30
0.000000
  70
    32
  0
VERTEX
  8
0
  5
2589E
 10
146.358
 20
134.009
 30
0.000000
  70
    32
  0
VERTEX
  8
0
  5
2589F
 10
146.359
 20
134.010
 30
0.000000
  70
    32
  0
VERTEX
  8
0
  5
258A0
 10
146.360
 20
134.011
 30
0.000000
  70
    32
  0
VERTEX
  8
0
  5
258A1
 10
146.361
 20
134.011
 30
0.000000
  70
    32
  0
VERTEX
  8
0
  5
258A2
 10
146.362
 20
134.012
 30
0.000000
  70
    32
  0
VERTEX
  8
0
  5
258A3
 10
146.363
 20
134.013
 30
0.000000
  70
    32
  0
VERTEX
  8
0
  5
258A4
 10
146.364
 20
134.014
 30
0.000000
  70
    32
  0
VERTEX
  8
0
  5
258A5
 10
146.365
 20
134.015
 30
0.000000
  70
    32
  0
VERTEX
  8
0
  5
258A6
 10
146.366
 20
134.016
 30
0.000000
  70
    32
  0
VERTEX
  8
0
  5
258A7
 10
146.367
 20
134.016
 30
0.000000
  70
    32
  0
VERTEX
  8
0
  5
258A8
 10
146.368
 20
134.017
 30
0.000000
  70
    32
  0
VERTEX
  8
0
  5
258A9
 10
146.369
 20
134.018
 30
0.000000
  70
    32
  0
VERTEX
  8
0
  5
258AA
 10
146.370
 20
134.019
 30
0.000000
  70
    32
  0
VERTEX
  8
0
  5
258AB
 10
146.371
 20
134.020
 30
0.000000
  70
    32
  0
VERTEX
  8
0
  5
258AC
 10
146.372
 20
134.021
 30
0.000000
  70
    32
  0
VERTEX
  8
0
  5
258AD
 10
146.374
 20
134.021
 30
0.000000
  70
    32
  0
VERTEX
  8
0
  5
258AE
 10
146.375
 20
134.022
 30
0.000000
  70
    32
  0
VERTEX
  8
0
  5
258AF
 10
146.376
 20
134.023
 30
0.000000
  70
    32
  0
VERTEX
  8
0
  5
258B0
 10
146.377
 20
134.024
 30
0.000000
  70
    32
  0
VERTEX
  8
0
  5
258B1
 10
146.378
 20
134.025
 30
0.000000
  70
    32
  0
VERTEX
  8
0
  5
258B2
 10
146.379
 20
134.026
 30
0.000000
  70
    32
  0
VERTEX
  8
0
  5
258B3
 10
146.380
 20
134.026
 30
0.000000
  70
    32
  0
VERTEX
  8
0
  5
258B4
 10
146.381
 20
134.027
 30
0.000000
  70
    32
  0
VERTEX
  8
0
  5
258B5
 10
146.382
 20
134.028
 30
0.000000
  70
    32
  0
VERTEX
  8
0
  5
258B6
 10
146.383
 20
134.029
 30
0.000000
  70
    32
  0
VERTEX
  8
0
  5
258B7
 10
146.384
 20
134.030
 30
0.000000
  70
    32
  0
VERTEX
  8
0
  5
258B8
 10
146.385
 20
134.031
 30
0.000000
  70
    32
  0
VERTEX
  8
0
  5
258B9
 10
146.386
 20
134.031
 30
0.000000
  70
    32
  0
VERTEX
  8
0
  5
258BA
 10
146.387
 20
134.032
 30
0.000000
  70
    32
  0
VERTEX
  8
0
  5
258BB
 10
146.388
 20
134.033
 30
0.000000
  70
    32
  0
VERTEX
  8
0
  5
258BC
 10
146.389
 20
134.034
 30
0.000000
  70
    32
  0
VERTEX
  8
0
  5
258BD
 10
146.390
 20
134.035
 30
0.000000
  70
    32
  0
VERTEX
  8
0
  5
258BE
 10
146.391
 20
134.036
 30
0.000000
  70
    32
  0
VERTEX
  8
0
  5
258BF
 10
146.392
 20
134.036
 30
0.000000
  70
    32
  0
VERTEX
  8
0
  5
258C0
 10
146.393
 20
134.037
 30
0.000000
  70
    32
  0
VERTEX
  8
0
  5
258C1
 10
146.394
 20
134.038
 30
0.000000
  70
    32
  0
VERTEX
  8
0
  5
258C2
 10
146.395
 20
134.039
 30
0.000000
  70
    32
  0
VERTEX
  8
0
  5
258C3
 10
146.396
 20
134.040
 30
0.000000
  70
    32
  0
VERTEX
  8
0
  5
258C4
 10
146.397
 20
134.041
 30
0.000000
  70
    32
  0
VERTEX
  8
0
  5
258C5
 10
146.398
 20
134.041
 30
0.000000
  70
    32
  0
VERTEX
  8
0
  5
258C6
 10
146.399
 20
134.042
 30
0.000000
  70
    32
  0
VERTEX
  8
0
  5
258C7
 10
146.400
 20
134.043
 30
0.000000
  70
    32
  0
VERTEX
  8
0
  5
258C8
 10
146.401
 20
134.044
 30
0.000000
  70
    32
  0
VERTEX
  8
0
  5
258C9
 10
146.402
 20
134.045
 30
0.000000
  70
    32
  0
VERTEX
  8
0
  5
258CA
 10
146.403
 20
134.046
 30
0.000000
  70
    32
  0
VERTEX
  8
0
  5
258CB
 10
146.404
 20
134.046
 30
0.000000
  70
    32
  0
VERTEX
  8
0
  5
258CC
 10
146.405
 20
134.047
 30
0.000000
  70
    32
  0
VERTEX
  8
0
  5
258CD
 10
146.406
 20
134.048
 30
0.000000
  70
    32
  0
VERTEX
  8
0
  5
258CE
 10
146.407
 20
134.049
 30
0.000000
  70
    32
  0
VERTEX
  8
0
  5
258CF
 10
146.408
 20
134.050
 30
0.000000
  70
    32
  0
VERTEX
  8
0
  5
258D0
 10
146.409
 20
134.051
 30
0.000000
  70
    32
  0
VERTEX
  8
0
  5
258D1
 10
146.411
 20
134.051
 30
0.000000
  70
    32
  0
VERTEX
  8
0
  5
258D2
 10
146.412
 20
134.052
 30
0.000000
  70
    32
  0
VERTEX
  8
0
  5
258D3
 10
146.413
 20
134.053
 30
0.000000
  70
    32
  0
VERTEX
  8
0
  5
258D4
 10
146.414
 20
134.054
 30
0.000000
  70
    32
  0
VERTEX
  8
0
  5
258D5
 10
146.415
 20
134.055
 30
0.000000
  70
    32
  0
VERTEX
  8
0
  5
258D6
 10
146.416
 20
134.056
 30
0.000000
  70
    32
  0
VERTEX
  8
0
  5
258D7
 10
146.417
 20
134.056
 30
0.000000
  70
    32
  0
VERTEX
  8
0
  5
258D8
 10
146.418
 20
134.057
 30
0.000000
  70
    32
  0
VERTEX
  8
0
  5
258D9
 10
146.419
 20
134.058
 30
0.000000
  70
    32
  0
VERTEX
  8
0
  5
258DA
 10
146.420
 20
134.059
 30
0.000000
  70
    32
  0
VERTEX
  8
0
  5
258DB
 10
146.421
 20
134.060
 30
0.000000
  70
    32
  0
VERTEX
  8
0
  5
258DC
 10
146.422
 20
134.061
 30
0.000000
  70
    32
  0
VERTEX
  8
0
  5
258DD
 10
146.423
 20
134.062
 30
0.000000
  70
    32
  0
VERTEX
  8
0
  5
258DE
 10
146.424
 20
134.062
 30
0.000000
  70
    32
  0
VERTEX
  8
0
  5
258DF
 10
146.425
 20
134.063
 30
0.000000
  70
    32
  0
VERTEX
  8
0
  5
258E0
 10
146.426
 20
134.064
 30
0.000000
  70
    32
  0
VERTEX
  8
0
  5
258E1
 10
146.427
 20
134.065
 30
0.000000
  70
    32
  0
VERTEX
  8
0
  5
258E2
 10
146.428
 20
134.066
 30
0.000000
  70
    32
  0
VERTEX
  8
0
  5
258E3
 10
146.429
 20
134.067
 30
0.000000
  70
    32
  0
VERTEX
  8
0
  5
258E4
 10
146.430
 20
134.067
 30
0.000000
  70
    32
  0
VERTEX
  8
0
  5
258E5
 10
146.431
 20
134.068
 30
0.000000
  70
    32
  0
VERTEX
  8
0
  5
258E6
 10
146.432
 20
134.069
 30
0.000000
  70
    32
  0
VERTEX
  8
0
  5
258E7
 10
146.433
 20
134.070
 30
0.000000
  70
    32
  0
VERTEX
  8
0
  5
258E8
 10
146.434
 20
134.071
 30
0.000000
  70
    32
  0
VERTEX
  8
0
  5
258E9
 10
146.435
 20
134.072
 30
0.000000
  70
    32
  0
VERTEX
  8
0
  5
258EA
 10
146.436
 20
134.072
 30
0.000000
  70
    32
  0
VERTEX
  8
0
  5
258EB
 10
146.437
 20
134.073
 30
0.000000
  70
    32
  0
VERTEX
  8
0
  5
258EC
 10
146.438
 20
134.074
 30
0.000000
  70
    32
  0
VERTEX
  8
0
  5
258ED
 10
146.439
 20
134.075
 30
0.000000
  70
    32
  0
VERTEX
  8
0
  5
258EE
 10
146.440
 20
134.076
 30
0.000000
  70
    32
  0
VERTEX
  8
0
  5
258EF
 10
146.441
 20
134.077
 30
0.000000
  70
    32
  0
VERTEX
  8
0
  5
258F0
 10
146.442
 20
134.077
 30
0.000000
  70
    32
  0
VERTEX
  8
0
  5
258F1
 10
146.443
 20
134.078
 30
0.000000
  70
    32
  0
VERTEX
  8
0
  5
258F2
 10
146.444
 20
134.079
 30
0.000000
  70
    32
  0
VERTEX
  8
0
  5
258F3
 10
146.445
 20
134.080
 30
0.000000
  70
    32
  0
VERTEX
  8
0
  5
258F4
 10
146.446
 20
134.081
 30
0.000000
  70
    32
  0
VERTEX
  8
0
  5
258F5
 10
146.447
 20
134.082
 30
0.000000
  70
    32
  0
VERTEX
  8
0
  5
258F6
 10
146.449
 20
134.082
 30
0.000000
  70
    32
  0
VERTEX
  8
0
  5
258F7
 10
146.450
 20
134.083
 30
0.000000
  70
    32
  0
VERTEX
  8
0
  5
258F8
 10
146.451
 20
134.084
 30
0.000000
  70
    32
  0
VERTEX
  8
0
  5
258F9
 10
146.452
 20
134.085
 30
0.000000
  70
    32
  0
VERTEX
  8
0
  5
258FA
 10
146.453
 20
134.086
 30
0.000000
  70
    32
  0
VERTEX
  8
0
  5
258FB
 10
146.454
 20
134.087
 30
0.000000
  70
    32
  0
VERTEX
  8
0
  5
258FC
 10
146.455
 20
134.087
 30
0.000000
  70
    32
  0
VERTEX
  8
0
  5
258FD
 10
146.456
 20
134.088
 30
0.000000
  70
    32
  0
VERTEX
  8
0
  5
258FE
 10
146.457
 20
134.089
 30
0.000000
  70
    32
  0
VERTEX
  8
0
  5
258FF
 10
146.458
 20
134.090
 30
0.000000
  70
    32
  0
VERTEX
  8
0
  5
25900
 10
146.459
 20
134.091
 30
0.000000
  70
    32
  0
VERTEX
  8
0
  5
25901
 10
146.460
 20
134.092
 30
0.000000
  70
    32
  0
VERTEX
  8
0
  5
25902
 10
146.461
 20
134.092
 30
0.000000
  70
    32
  0
VERTEX
  8
0
  5
25903
 10
146.462
 20
134.093
 30
0.000000
  70
    32
  0
VERTEX
  8
0
  5
25904
 10
146.463
 20
134.094
 30
0.000000
  70
    32
  0
VERTEX
  8
0
  5
25905
 10
146.464
 20
134.095
 30
0.000000
  70
    32
  0
VERTEX
  8
0
  5
25906
 10
146.465
 20
134.096
 30
0.000000
  70
    32
  0
VERTEX
  8
0
  5
25907
 10
146.466
 20
134.097
 30
0.000000
  70
    32
  0
VERTEX
  8
0
  5
25908
 10
146.467
 20
134.098
 30
0.000000
  70
    32
  0
VERTEX
  8
0
  5
25909
 10
146.468
 20
134.098
 30
0.000000
  70
    32
  0
VERTEX
  8
0
  5
2590A
 10
146.469
 20
134.099
 30
0.000000
  70
    32
  0
SEQEND
  8
0
  5
2590B
  0
POLYLINE
  5
253AF
  8
0
 66
     1
 10
0.0
 20
0.0
 30
0.0
 70
   128
  0
VERTEX
  5
25650
  8
0
 10
146.33747271857169
 20
133.99223356340491
 30
0.0
  0
VERTEX
  5
25651
  8
0
 10
144.714618009383
 20
132.94962354396341
 30
0.0
  0
VERTEX
  5
25652
  8
0
 10
144.05410662366671
 20
132.6436865686847
 30
0.0
  0
SEQEND
  5
25653
  8
0
  0
POLYLINE
  5
253B0
  8
0
 66
     1
 10
0.0
 20
0.0
 30
0.0
 70
   128
  0
VERTEX
  5
25654
  8
0
 10
100.62410662366661
 20
132.6436865686847
 30
0.0
  0
VERTEX
  5
25655
  8
0
 10
99.897415455431201
 20
132.98341952069001
 30
0.0
  0
VERTEX
  5
25656
  8
0
 10
98.340740528761685
 20
133.99223356340491
 30
0.0
  0
SEQEND
  5
25657
  8
0
  0
LINE
  5
253B1
  8
0
 10
85.839106623666794
 20
197.32567680462171
 30
0.0
 11
158.83910662366679
 21
197.32567680462171
 31
0.0
  0
POLYLINE
  5
253B2
  8
0
 66
     1
 10
0.0
 20
0.0
 30
0.0
 70
   128
  0
VERTEX
  5
25658
  8
0
 10
100.36468691425149
 20
148.55217767397841
 30
0.0
  0
VERTEX
  5
25659
  8
0
 10
100.4964219032767
 20
147.98969797613501
 30
0.0
  0
VERTEX
  5
2565A
  8
0
 10
100.6241066236668
 20
146.7455524566393
 30
0.0
  0
SEQEND
  5
2565B
  8
0
  0
POLYLINE
  5
253B3
  8
0
 66
     1
 10
0.0
 20
0.0
 30
0.0
 70
   128
  0
VERTEX
  5
2565C
  8
0
 10
100.6241066236668
 20
146.7455524566393
 30
0.0
  0
VERTEX
  5
2565D
  8
0
 10
100.5556331391121
 20
145.84223984796969
 30
0.0
  0
VERTEX
  5
2565E
  8
0
 10
100.36468691425149
 20
144.93892723930011
 30
0.0
  0
SEQEND
  5
2565F
  8
0
  0
LINE
  5
253B4
  8
0
 10
95.383526333082045
 20
144.93892723930011
 30
0.0
 11
100.36468691425149
 21
144.93892723930011
 31
0.0
  0
POLYLINE
  5
253B5
  8
0
 66
     1
 10
0.0
 20
0.0
 30
0.0
 70
   128
  0
VERTEX
  5
25660
  8
0
 10
95.383526333082045
 20
144.93892723930011
 30
0.0
  0
VERTEX
  5
25661
  8
0
 10
95.193185032701649
 20
145.83817831124369
 30
0.0
  0
VERTEX
  5
25662
  8
0
 10
95.124106623666876
 20
146.7455524566393
 30
0.0
  0
SEQEND
  5
25663
  8
0
  0
POLYLINE
  5
253B6
  8
0
 66
     1
 10
0.0
 20
0.0
 30
0.0
 70
   128
  0
VERTEX
  5
25664
  8
0
 10
95.124106623666876
 20
146.7455524566393
 30
0.0
  0
VERTEX
  5
25665
  8
0
 10
95.251791344056983
 20
147.98969797613501
 30
0.0
  0
VERTEX
  5
25666
  8
0
 10
95.383526333082045
 20
148.55217767397841
 30
0.0
  0
SEQEND
  5
25667
  8
0
  0
LINE
  5
253B7
  8
0
 10
95.383526333082045
 20
148.55217767397841
 30
0.0
 11
100.36468691425149
 21
148.55217767397841
 31
0.0
  0
POLYLINE
  5
253B8
  8
0
 66
     1
 10
0.0
 20
0.0
 30
0.0
 70
   128
  0
VERTEX
  5
25668
  8
0
 10
95.124106623666876
 20
141.32567680462171
 30
0.0
  0
VERTEX
  5
25669
  8
0
 10
95.274760609444456
 20
144.03742865634709
 30
0.0
  0
VERTEX
  5
2566A
  8
0
 10
95.383526333082045
 20
144.93892723930011
 30
0.0
  0
SEQEND
  5
2566B
  8
0
  0
LINE
  5
253B9
  8
0
 10
95.124106623666876
 20
146.7455524566393
 30
0.0
 11
95.124106623666876
 21
141.32567680462171
 31
0.0
  0
POLYLINE
  5
253BA
  8
0
 66
     1
 10
0.0
 20
0.0
 30
0.0
 70
   128
  0
VERTEX
  5
2566C
  8
0
 10
95.383526333082045
 20
137.71242636994319
 30
0.0
  0
VERTEX
  5
2566D
  8
0
 10
95.193185032701649
 20
139.51092851383049
 30
0.0
  0
VERTEX
  5
2566E
  8
0
 10
95.124106623666876
 20
141.32567680462171
 30
0.0
  0
SEQEND
  5
2566F
  8
0
  0
POLYLINE
  5
253BB
  8
0
 66
     1
 10
0.0
 20
0.0
 30
0.0
 70
   128
  0
VERTEX
  5
25670
  8
0
 10
95.124106623666876
 20
135.90580115260411
 30
0.0
  0
VERTEX
  5
25671
  8
0
 10
95.192580108221591
 20
136.80911376127381
 30
0.0
  0
VERTEX
  5
25672
  8
0
 10
95.383526333082045
 20
137.71242636994319
 30
0.0
  0
SEQEND
  5
25673
  8
0
  0
LINE
  5
253BC
  8
0
 10
95.124106623666876
 20
141.32567680462171
 30
0.0
 11
95.124106623666876
 21
135.90580115260411
 31
0.0
  0
POLYLINE
  5
253BD
  8
0
 66
     1
 10
0.0
 20
0.0
 30
0.0
 70
   128
  0
VERTEX
  5
25674
  8
0
 10
100.36468691425149
 20
137.71242636994319
 30
0.0
  0
VERTEX
  5
25675
  8
0
 10
100.5550282146321
 20
136.81317529799969
 30
0.0
  0
VERTEX
  5
25676
  8
0
 10
100.6241066236668
 20
135.90580115260411
 30
0.0
  0
SEQEND
  5
25677
  8
0
  0
POLYLINE
  5
253BE
  8
0
 66
     1
 10
0.0
 20
0.0
 30
0.0
 70
   128
  0
VERTEX
  5
25678
  8
0
 10
100.6241066236668
 20
135.90580115260411
 30
0.0
  0
VERTEX
  5
25679
  8
0
 10
100.6229960170881
 20
135.7918968478067
 30
0.0
  0
VERTEX
  5
2567A
  8
0
 10
100.36468691425149
 20
134.0991759352649
 30
0.0
  0
SEQEND
  5
2567B
  8
0
  0
LINE
  5
253BF
  8
0
 10
95.383526333082045
 20
134.0991759352649
 30
0.0
 11
100.36468691425149
 21
134.0991759352649
 31
0.0
  0
POLYLINE
  5
253C0
  8
0
 66
     1
 10
0.0
 20
0.0
 30
0.0
 70
   128
  0
VERTEX
  5
2567C
  8
0
 10
95.383526333082045
 20
134.0991759352649
 30
0.0
  0
VERTEX
  5
2567D
  8
0
 10
95.125217230245653
 20
135.7918968478067
 30
0.0
  0
VERTEX
  5
2567E
  8
0
 10
95.124106623666876
 20
135.90580115260411
 30
0.0
  0
SEQEND
  5
2567F
  8
0
  0
LINE
  5
253C1
  8
0
 10
95.383526333082045
 20
137.71242636994319
 30
0.0
 11
100.36468691425149
 21
137.71242636994319
 31
0.0
  0
POLYLINE
  5
253C2
  8
0
 66
     1
 10
0.0
 20
0.0
 30
0.0
 70
   128
  0
VERTEX
  5
25680
  8
0
 10
100.36468691425149
 20
144.93892723930011
 30
0.0
  0
VERTEX
  5
25681
  8
0
 10
100.4734526378893
 20
144.03742865634709
 30
0.0
  0
VERTEX
  5
25682
  8
0
 10
100.6241066236668
 20
141.32567680462171
 30
0.0
  0
SEQEND
  5
25683
  8
0
  0
POLYLINE
  5
253C3
  8
0
 66
     1
 10
0.0
 20
0.0
 30
0.0
 70
   128
  0
VERTEX
  5
25684
  8
0
 10
100.6241066236668
 20
141.32567680462171
 30
0.0
  0
VERTEX
  5
25685
  8
0
 10
100.5556331391121
 20
139.51905158728241
 30
0.0
  0
VERTEX
  5
25686
  8
0
 10
100.36468691425149
 20
137.71242636994319
 30
0.0
  0
SEQEND
  5
25687
  8
0
  0
LINE
  5
253C4
  8
0
 10
149.09468691425121
 20
134.0991759352649
 30
0.0
 11
144.91352633308219
 21
134.0991759352649
 31
0.0
  0
POLYLINE
  5
253C5
  8
0
 66
     1
 10
0.0
 20
0.0
 30
0.0
 70
   128
  0
VERTEX
  5
25688
  8
0
 10
144.65410662366679
 20
135.90580115260411
 30
0.0
  0
VERTEX
  5
25689
  8
0
 10
144.6552172302454
 20
135.7918968478067
 30
0.0
  0
VERTEX
  5
2568A
  8
0
 10
144.91352633308219
 20
134.0991759352649
 30
0.0
  0
SEQEND
  5
2568B
  8
0
  0
POLYLINE
  5
253C6
  8
0
 66
     1
 10
0.0
 20
0.0
 30
0.0
 70
   128
  0
VERTEX
  5
2568C
  8
0
 10
144.91352633308219
 20
137.71242636994319
 30
0.0
  0
VERTEX
  5
2568D
  8
0
 10
144.72318503270159
 20
136.81317529799969
 30
0.0
  0
VERTEX
  5
2568E
  8
0
 10
144.65410662366679
 20
135.90580115260411
 30
0.0
  0
SEQEND
  5
2568F
  8
0
  0
LINE
  5
253C7
  8
0
 10
149.09468691425121
 20
137.71242636994319
 30
0.0
 11
144.91352633308219
 21
137.71242636994319
 31
0.0
  0
POLYLINE
  5
253C8
  8
0
 66
     1
 10
0.0
 20
0.0
 30
0.0
 70
   128
  0
VERTEX
  5
25690
  8
0
 10
149.35410662366689
 20
135.90580115260411
 30
0.0
  0
VERTEX
  5
25691
  8
0
 10
149.28563313911221
 20
136.80911376127381
 30
0.0
  0
VERTEX
  5
25692
  8
0
 10
149.09468691425121
 20
137.71242636994319
 30
0.0
  0
SEQEND
  5
25693
  8
0
  0
POLYLINE
  5
253C9
  8
0
 66
     1
 10
0.0
 20
0.0
 30
0.0
 70
   128
  0
VERTEX
  5
25694
  8
0
 10
149.09468691425121
 20
134.0991759352649
 30
0.0
  0
VERTEX
  5
25695
  8
0
 10
149.35299601708809
 20
135.7918968478067
 30
0.0
  0
VERTEX
  5
25696
  8
0
 10
149.35410662366689
 20
135.90580115260411
 30
0.0
  0
SEQEND
  5
25697
  8
0
  0
POLYLINE
  5
253CA
  8
0
 66
     1
 10
0.0
 20
0.0
 30
0.0
 70
   128
  0
VERTEX
  5
25698
  8
0
 10
144.65410662366679
 20
141.32567680462171
 30
0.0
  0
VERTEX
  5
25699
  8
0
 10
144.72258010822151
 20
139.51905158728241
 30
0.0
  0
VERTEX
  5
2569A
  8
0
 10
144.91352633308219
 20
137.71242636994319
 30
0.0
  0
SEQEND
  5
2569B
  8
0
  0
POLYLINE
  5
253CB
  8
0
 66
     1
 10
0.0
 20
0.0
 30
0.0
 70
   128
  0
VERTEX
  5
2569C
  8
0
 10
144.91352633308219
 20
144.93892723930011
 30
0.0
  0
VERTEX
  5
2569D
  8
0
 10
144.8047606094446
 20
144.03742865634709
 30
0.0
  0
VERTEX
  5
2569E
  8
0
 10
144.65410662366679
 20
141.32567680462171
 30
0.0
  0
SEQEND
  5
2569F
  8
0
  0
LINE
  5
253CC
  8
0
 10
149.09468691425121
 20
144.93892723930011
 30
0.0
 11
144.91352633308219
 21
144.93892723930011
 31
0.0
  0
POLYLINE
  5
253CD
  8
0
 66
     1
 10
0.0
 20
0.0
 30
0.0
 70
   128
  0
VERTEX
  5
256A0
  8
0
 10
149.35410662366689
 20
141.32567680462171
 30
0.0
  0
VERTEX
  5
256A1
  8
0
 10
149.20345263788909
 20
144.03742865634709
 30
0.0
  0
VERTEX
  5
256A2
  8
0
 10
149.09468691425121
 20
144.93892723930011
 30
0.0
  0
SEQEND
  5
256A3
  8
0
  0
POLYLINE
  5
253CE
  8
0
 66
     1
 10
0.0
 20
0.0
 30
0.0
 70
   128
  0
VERTEX
  5
256A4
  8
0
 10
149.09468691425121
 20
137.71242636994319
 30
0.0
  0
VERTEX
  5
256A5
  8
0
 10
149.28502821463189
 20
139.51092851383041
 30
0.0
  0
VERTEX
  5
256A6
  8
0
 10
149.35410662366689
 20
141.32567680462171
 30
0.0
  0
SEQEND
  5
256A7
  8
0
  0
POLYLINE
  5
253D0
  8
0
 66
     1
 10
0.0
 20
0.0
 30
0.0
 70
   128
  0
VERTEX
  5
256A8
  8
0
 10
144.65410662366679
 20
146.7455524566393
 30
0.0
  0
VERTEX
  5
256A9
  8
0
 10
144.72258010822151
 20
145.84223984796969
 30
0.0
  0
VERTEX
  5
256AA
  8
0
 10
144.91352633308219
 20
144.93892723930011
 30
0.0
  0
SEQEND
  5
256AB
  8
0
  0
POLYLINE
  5
253D1
  8
0
 66
     1
 10
0.0
 20
0.0
 30
0.0
 70
   128
  0
VERTEX
  5
256AC
  8
0
 10
144.91352633308219
 20
148.55217767397841
 30
0.0
  0
VERTEX
  5
256AD
  8
0
 10
144.7817913440571
 20
147.98969797613501
 30
0.0
  0
VERTEX
  5
256AE
  8
0
 10
144.65410662366679
 20
146.7455524566393
 30
0.0
  0
SEQEND
  5
256AF
  8
0
  0
LINE
  5
253D2
  8
0
 10
149.09468691425121
 20
148.55217767397841
 30
0.0
 11
144.91352633308219
 21
148.55217767397841
 31
0.0
  0
POLYLINE
  5
253D3
  8
0
 66
     1
 10
0.0
 20
0.0
 30
0.0
 70
   128
  0
VERTEX
  5
256B0
  8
0
 10
149.35410662366689
 20
146.7455524566393
 30
0.0
  0
VERTEX
  5
256B1
  8
0
 10
149.22642190327679
 20
147.98969797613501
 30
0.0
  0
VERTEX
  5
256B2
  8
0
 10
149.09468691425121
 20
148.55217767397841
 30
0.0
  0
SEQEND
  5
256B3
  8
0
  0
POLYLINE
  5
253D4
  8
0
 66
     1
 10
0.0
 20
0.0
 30
0.0
 70
   128
  0
VERTEX
  5
256B4
  8
0
 10
149.09468691425121
 20
144.93892723930011
 30
0.0
  0
VERTEX
  5
256B5
  8
0
 10
149.28502821463189
 20
145.83817831124369
 30
0.0
  0
VERTEX
  5
256B6
  8
0
 10
149.35410662366689
 20
146.7455524566393
 30
0.0
  0
SEQEND
  5
256B7
  8
0
  0
LINE
  5
253D8
  8
0
 10
92.624106623666876
 20
141.32567680462171
 30
0.0
 11
92.624106623666876
 21
135.51067680462171
 31
0.0
  0
LINE
  5
253D9
  8
0
 10
92.624106623666876
 20
147.14067680462159
 30
0.0
 11
92.624106623666876
 21
141.32567680462171
 31
0.0
  0
LINE
  5
253DA
  8
0
 10
91.204106623666803
 20
141.32567680462171
 30
0.0
 11
91.204106623666803
 21
138.09267680462159
 31
0.0
  0
LINE
  5
253DB
  8
0
 10
91.204106623666803
 20
144.5586768046218
 30
0.0
 11
91.204106623666803
 21
141.32567680462171
 31
0.0
  0
LINE
  5
253DC
  8
0
 10
91.971106623666856
 20
141.32567680462171
 30
0.0
 11
91.971106623666856
 21
137.32567680462171
 31
0.0
  0
LINE
  5
253DD
  8
0
 10
91.971106623666856
 20
145.32567680462171
 30
0.0
 11
91.971106623666856
 21
141.32567680462171
 31
0.0
  0
LINE
  5
253DE
  8
0
 10
95.124106623666876
 20
135.90580115260411
 30
0.0
 11
95.124106623666876
 21
135.06734347128841
 31
0.0
  0
LINE
  5
253DF
  8
0
 10
95.124106623666876
 20
147.584010137955
 30
0.0
 11
95.124106623666876
 21
146.7455524566393
 31
0.0
  0
LINE
  5
253E0
  8
0
 10
144.65410662366679
 20
147.584010137955
 30
0.0
 11
144.65410662366679
 21
135.06734347128841
 31
0.0
  0
LINE
  5
253E2
  8
0
 10
149.35410662366689
 20
147.584010137955
 30
0.0
 11
149.35410662366689
 21
135.06734347128841
 31
0.0
  0
LINE
  5
253E4
  8
0
 10
107.33910662366721
 20
105.6185346619079
 30
0.0
 11
107.33910662366689
 21
176.0130847600368
 31
0.0
  0
LINE
  5
253E6
  8
0
 10
137.33910662366699
 20
105.6185346619078
 30
0.0
 11
137.33910662366671
 21
176.0130847600368
 31
0.0
  0
LINE
  5
253E8
  8
0
 10
102.83910662366679
 20
141.32567680462171
 30
0.0
 11
102.83910662366679
 21
152.89931547071961
 31
0.0
  0
LINE
  5
253E9
  8
0
 10
102.83910662366679
 20
129.75203813852369
 30
0.0
 11
102.83910662366679
 21
141.32567680462171
 31
0.0
  0
LINE
  5
253EA
  8
0
 10
141.83910662366679
 20
141.32567680462171
 30
0.0
 11
141.83910662366679
 21
152.89931547072069
 31
0.0
  0
LINE
  5
253EB
  8
0
 10
141.83910662366679
 20
129.75203813852269
 30
0.0
 11
141.83910662366679
 21
141.32567680462171
 31
0.0
  0
LINE
  5
253EC
  8
0
 10
136.02331714998309
 20
103.7392113912413
 30
0.0
 11
136.02331714998269
 21
176.0130847600368
 31
0.0
  0
LINE
  5
253EE
  8
0
 10
108.6548960973509
 20
103.7392113912412
 30
0.0
 11
108.6548960973511
 21
176.0130847600368
 31
0.0
  0
LINE
  5
253F0
  8
0
 10
104.6647951381717
 20
127.75964874233971
 30
0.0
 11
104.6647951381719
 21
154.89170486690369
 31
0.0
  0
LINE
  5
253F2
  8
0
 10
140.0134181091619
 20
127.75964874233961
 30
0.0
 11
140.0134181091619
 21
154.89170486690369
 31
0.0
  0
LINE
  5
253F4
  8
0
 10
478.96552534442742
 20
205.0256768046217
 30
0.0
 11
480.32324309588267
 21
197.32567680462171
 31
0.0
  0
LINE
  5
253F5
  8
0
 10
550.60780759297234
 20
197.32567680462171
 30
0.0
 11
551.96552534442742
 21
205.0256768046217
 31
0.0
  0
LINE
  5
253F6
  8
0
 10
478.96552534442742
 20
197.32567680462171
 30
0.0
 11
478.96552534442742
 21
159.487826335948
 31
0.0
  0
LINE
  5
253F7
  8
0
 10
551.96552534442742
 20
159.4878263359478
 30
0.0
 11
551.96552534442742
 21
197.32567680462171
 31
0.0
  0
LINE
  5
253F8
  8
0
 10
482.61552534442751
 20
205.82567680462171
 30
0.0
 11
482.61552534442751
 21
205.0256768046217
 31
0.0
  0
LINE
  5
253F9
  8
0
 10
548.31552534442756
 20
205.0256768046217
 30
0.0
 11
548.31552534442756
 21
205.82567680462171
 31
0.0
  0
LINE
  5
253FA
  8
0
 10
495.57552534442749
 20
135.32567680462171
 30
0.0
 11
495.96552534442759
 21
135.32567680462171
 31
0.0
  0
LINE
  5
253FB
  8
0
 10
534.96552534442765
 20
135.32567680462171
 30
0.0
 11
535.35552534442752
 21
135.32567680462171
 31
0.0
  0
LINE
  5
253FC
  8
0
 10
535.35552534442752
 20
147.32567680462171
 30
0.0
 11
534.96552534442765
 21
147.32567680462171
 31
0.0
  0
LINE
  5
253FD
  8
0
 10
495.96552534442759
 20
147.32567680462171
 30
0.0
 11
495.57552534442749
 21
147.32567680462171
 31
0.0
  0
LINE
  5
253FE
  8
0
 10
542.68052534442756
 20
135.51067680462171
 30
0.0
 11
545.18052534442745
 21
135.51067680462171
 31
0.0
  0
LINE
  5
253FF
  8
0
 10
545.83352534442758
 20
137.32567680462171
 30
0.0
 11
546.60052534442764
 21
138.09267680462159
 31
0.0
  0
LINE
  5
25400
  8
0
 10
545.18052534442745
 20
137.32567680462171
 30
0.0
 11
545.83352534442758
 21
137.32567680462171
 31
0.0
  0
LINE
  5
25401
  8
0
 10
542.4211056350124
 20
134.0991759352649
 30
0.0
 11
542.68052534442756
 21
135.06734347128841
 31
0.0
  0
LINE
  5
25402
  8
0
 10
488.45052534442749
 20
135.06734347128841
 30
0.0
 11
488.70994505384311
 21
134.0991759352649
 31
0.0
  0
ARC
  5
25403
  8
0
 10
515.46552534442765
 20
141.32567680462171
 30
0.0
 40
39.999999999997272
 50
249.9948099118391
 51
290.00519008816087
  0
ARC
  5
25404
  8
0
 10
515.46552534442765
 20
141.32567680462171
 30
0.0
 40
39.999999999997272
 50
69.99480991183907
 51
110.0051900881609
  0
ARC
  5
25405
  8
0
 10
528.46552534442742
 20
177.03281894733539
 30
0.0
 40
2.000000000000226
 50
0.0000000000032569
 51
69.994809911832135
  0
ARC
  5
25406
  8
0
 10
528.46552534442742
 20
105.618534661908
 30
0.0
 40
2.000000000000226
 50
290.00519008816781
 51
359.99999999999682
  0
ARC
  5
25407
  8
0
 10
502.46552534442782
 20
177.03281894733539
 30
0.0
 40
2.000000000000226
 50
110.00519008816779
 51
179.9999999999967
  0
ARC
  5
25408
  8
0
 10
502.46552534442782
 20
105.618534661908
 30
0.0
 40
2.000000000000226
 50
180.00000000000321
 51
249.99480991183211
  0
LINE
  5
25409
  8
0
 10
530.46552534442731
 20
127.5256768046216
 30
0.0
 11
533.13983682992239
 21
127.75964874233961
 31
0.0
  0
LINE
  5
2540A
  8
0
 10
533.13983682992239
 20
154.89170486690369
 30
0.0
 11
530.46552534442731
 21
155.12567680462169
 31
0.0
  0
LINE
  5
2540B
  8
0
 10
500.46552534442742
 20
155.12567680462161
 30
0.0
 11
497.79121385893251
 21
154.89170486690369
 31
0.0
  0
LINE
  5
2540C
  8
0
 10
497.79121385893251
 20
127.75964874233961
 30
0.0
 11
500.46552534442742
 21
127.5256768046216
 31
0.0
  0
ARC
  5
2540D
  8
0
 10
532.96552534442742
 20
152.8993154707201
 30
0.0
 40
2.0000000000001421
 50
359.99999999999352
 51
85.00000000000675
  0
ARC
  5
2540E
  8
0
 10
532.96552534442742
 20
129.75203813852329
 30
0.0
 40
2.0000000000001421
 50
274.99999999999329
 51
0.0000000000065138
  0
ARC
  5
2540F
  8
0
 10
497.96552534442759
 20
152.8993154707201
 30
0.0
 40
2.0000000000001168
 50
94.999999999993236
 51
179.99999999999349
  0
ARC
  5
25410
  8
0
 10
497.96552534442759
 20
129.75203813852329
 30
0.0
 40
2.0000000000001168
 50
180.00000000000981
 51
265.00000000000671
  0
LINE
  5
25411
  8
0
 10
557.96552534442742
 20
205.82567680462171
 30
0.0
 11
557.96552534442742
 21
208.32567680462171
 31
0.0
  0
LINE
  5
25413
  8
0
 10
472.96552534442742
 20
208.32567680462171
 30
0.0
 11
557.96552534442742
 21
208.32567680462171
 31
0.0
  0
LINE
  5
25414
  8
0
 10
472.96552534442742
 20
205.82567680462171
 30
0.0
 11
557.96552534442742
 21
205.82567680462171
 31
0.0
  0
LINE
  5
25418
  8
0
 10
472.96552534442742
 20
205.82567680462171
 30
0.0
 11
472.96552534442742
 21
208.32567680462171
 31
0.0
  0
LINE
  5
2541B
  8
0
 10
478.96552534442742
 20
205.0256768046217
 30
0.0
 11
551.96552534442742
 21
205.0256768046217
 31
0.0
  0
POLYLINE
  5
2541C
  8
0
 10
539.46389143933288
 20
133.99223356340522
 30
0.0
 66
     1
 70
     8
  0
VERTEX
  8
0
  5
2590C
 10
539.464
 20
133.992
 30
0.000000
  70
    32
  0
VERTEX
  8
0
  5
2590D
 10
540.488
 20
134.853
 30
0.000000
  70
    32
  0
VERTEX
  8
0
  5
2590E
 10
541.476
 20
135.749
 30
0.000000
  70
    32
  0
VERTEX
  8
0
  5
2590F
 10
542.427
 20
136.679
 30
0.000000
  70
    32
  0
VERTEX
  8
0
  5
25910
 10
543.340
 20
137.642
 30
0.000000
  70
    32
  0
VERTEX
  8
0
  5
25911
 10
544.212
 20
138.636
 30
0.000000
  70
    32
  0
VERTEX
  8
0
  5
25912
 10
545.043
 20
139.660
 30
0.000000
  70
    32
  0
VERTEX
  8
0
  5
25913
 10
545.832
 20
140.713
 30
0.000000
  70
    32
  0
VERTEX
  8
0
  5
25914
 10
546.577
 20
141.793
 30
0.000000
  70
    32
  0
VERTEX
  8
0
  5
25915
 10
547.277
 20
142.897
 30
0.000000
  70
    32
  0
VERTEX
  8
0
  5
25916
 10
547.932
 20
144.026
 30
0.000000
  70
    32
  0
VERTEX
  8
0
  5
25917
 10
548.541
 20
145.177
 30
0.000000
  70
    32
  0
VERTEX
  8
0
  5
25918
 10
549.101
 20
146.348
 30
0.000000
  70
    32
  0
VERTEX
  8
0
  5
25919
 10
549.614
 20
147.539
 30
0.000000
  70
    32
  0
VERTEX
  8
0
  5
2591A
 10
550.078
 20
148.746
 30
0.000000
  70
    32
  0
VERTEX
  8
0
  5
2591B
 10
550.491
 20
149.969
 30
0.000000
  70
    32
  0
VERTEX
  8
0
  5
2591C
 10
550.855
 20
151.205
 30
0.000000
  70
    32
  0
VERTEX
  8
0
  5
2591D
 10
551.168
 20
152.454
 30
0.000000
  70
    32
  0
VERTEX
  8
0
  5
2591E
 10
551.430
 20
153.712
 30
0.000000
  70
    32
  0
VERTEX
  8
0
  5
2591F
 10
551.640
 20
154.979
 30
0.000000
  70
    32
  0
VERTEX
  8
0
  5
25920
 10
551.798
 20
156.252
 30
0.000000
  70
    32
  0
VERTEX
  8
0
  5
25921
 10
551.904
 20
157.530
 30
0.000000
  70
    32
  0
VERTEX
  8
0
  5
25922
 10
551.958
 20
158.810
 30
0.000000
  70
    32
  0
VERTEX
  8
0
  5
25923
 10
551.960
 20
160.092
 30
0.000000
  70
    32
  0
VERTEX
  8
0
  5
25924
 10
551.909
 20
161.373
 30
0.000000
  70
    32
  0
VERTEX
  8
0
  5
25925
 10
551.806
 20
162.651
 30
0.000000
  70
    32
  0
VERTEX
  8
0
  5
25926
 10
551.650
 20
163.924
 30
0.000000
  70
    32
  0
VERTEX
  8
0
  5
25927
 10
551.443
 20
165.191
 30
0.000000
  70
    32
  0
VERTEX
  8
0
  5
25928
 10
551.185
 20
166.450
 30
0.000000
  70
    32
  0
VERTEX
  8
0
  5
25929
 10
550.875
 20
167.699
 30
0.000000
  70
    32
  0
VERTEX
  8
0
  5
2592A
 10
550.514
 20
168.936
 30
0.000000
  70
    32
  0
VERTEX
  8
0
  5
2592B
 10
550.103
 20
170.160
 30
0.000000
  70
    32
  0
VERTEX
  8
0
  5
2592C
 10
549.642
 20
171.368
 30
0.000000
  70
    32
  0
VERTEX
  8
0
  5
2592D
 10
549.132
 20
172.559
 30
0.000000
  70
    32
  0
VERTEX
  8
0
  5
2592E
 10
548.574
 20
173.732
 30
0.000000
  70
    32
  0
VERTEX
  8
0
  5
2592F
 10
547.968
 20
174.884
 30
0.000000
  70
    32
  0
VERTEX
  8
0
  5
25930
 10
547.316
 20
176.014
 30
0.000000
  70
    32
  0
VERTEX
  8
0
  5
25931
 10
546.618
 20
177.120
 30
0.000000
  70
    32
  0
VERTEX
  8
0
  5
25932
 10
545.876
 20
178.201
 30
0.000000
  70
    32
  0
VERTEX
  8
0
  5
25933
 10
545.090
 20
179.255
 30
0.000000
  70
    32
  0
VERTEX
  8
0
  5
25934
 10
544.261
 20
180.281
 30
0.000000
  70
    32
  0
VERTEX
  8
0
  5
25935
 10
543.391
 20
181.277
 30
0.000000
  70
    32
  0
VERTEX
  8
0
  5
25936
 10
542.481
 20
182.242
 30
0.000000
  70
    32
  0
VERTEX
  8
0
  5
25937
 10
541.532
 20
183.174
 30
0.000000
  70
    32
  0
VERTEX
  8
0
  5
25938
 10
540.546
 20
184.072
 30
0.000000
  70
    32
  0
VERTEX
  8
0
  5
25939
 10
539.524
 20
184.935
 30
0.000000
  70
    32
  0
VERTEX
  8
0
  5
2593A
 10
538.467
 20
185.761
 30
0.000000
  70
    32
  0
VERTEX
  8
0
  5
2593B
 10
537.377
 20
186.550
 30
0.000000
  70
    32
  0
VERTEX
  8
0
  5
2593C
 10
536.256
 20
187.300
 30
0.000000
  70
    32
  0
VERTEX
  8
0
  5
2593D
 10
535.105
 20
188.010
 30
0.000000
  70
    32
  0
VERTEX
  8
0
  5
2593E
 10
533.926
 20
188.679
 30
0.000000
  70
    32
  0
VERTEX
  8
0
  5
2593F
 10
532.721
 20
189.306
 30
0.000000
  70
    32
  0
VERTEX
  8
0
  5
25940
 10
531.490
 20
189.890
 30
0.000000
  70
    32
  0
VERTEX
  8
0
  5
25941
 10
530.237
 20
190.431
 30
0.000000
  70
    32
  0
VERTEX
  8
0
  5
25942
 10
528.962
 20
190.927
 30
0.000000
  70
    32
  0
VERTEX
  8
0
  5
25943
 10
527.668
 20
191.379
 30
0.000000
  70
    32
  0
VERTEX
  8
0
  5
25944
 10
526.357
 20
191.784
 30
0.000000
  70
    32
  0
VERTEX
  8
0
  5
25945
 10
525.030
 20
192.143
 30
0.000000
  70
    32
  0
VERTEX
  8
0
  5
25946
 10
523.689
 20
192.456
 30
0.000000
  70
    32
  0
VERTEX
  8
0
  5
25947
 10
522.337
 20
192.721
 30
0.000000
  70
    32
  0
VERTEX
  8
0
  5
25948
 10
520.974
 20
192.938
 30
0.000000
  70
    32
  0
VERTEX
  8
0
  5
25949
 10
519.604
 20
193.107
 30
0.000000
  70
    32
  0
VERTEX
  8
0
  5
2594A
 10
518.228
 20
193.229
 30
0.000000
  70
    32
  0
VERTEX
  8
0
  5
2594B
 10
516.848
 20
193.301
 30
0.000000
  70
    32
  0
VERTEX
  8
0
  5
2594C
 10
515.466
 20
193.326
 30
0.000000
  70
    32
  0
VERTEX
  8
0
  5
2594D
 10
514.083
 20
193.301
 30
0.000000
  70
    32
  0
VERTEX
  8
0
  5
2594E
 10
512.703
 20
193.229
 30
0.000000
  70
    32
  0
VERTEX
  8
0
  5
2594F
 10
511.327
 20
193.107
 30
0.000000
  70
    32
  0
VERTEX
  8
0
  5
25950
 10
509.957
 20
192.938
 30
0.000000
  70
    32
  0
VERTEX
  8
0
  5
25951
 10
508.594
 20
192.721
 30
0.000000
  70
    32
  0
VERTEX
  8
0
  5
25952
 10
507.242
 20
192.456
 30
0.000000
  70
    32
  0
VERTEX
  8
0
  5
25953
 10
505.901
 20
192.143
 30
0.000000
  70
    32
  0
VERTEX
  8
0
  5
25954
 10
504.574
 20
191.784
 30
0.000000
  70
    32
  0
VERTEX
  8
0
  5
25955
 10
503.263
 20
191.379
 30
0.000000
  70
    32
  0
VERTEX
  8
0
  5
25956
 10
501.969
 20
190.927
 30
0.000000
  70
    32
  0
VERTEX
  8
0
  5
25957
 10
500.694
 20
190.431
 30
0.000000
  70
    32
  0
VERTEX
  8
0
  5
25958
 10
499.441
 20
189.890
 30
0.000000
  70
    32
  0
VERTEX
  8
0
  5
25959
 10
498.211
 20
189.306
 30
0.000000
  70
    32
  0
VERTEX
  8
0
  5
2595A
 10
497.005
 20
188.679
 30
0.000000
  70
    32
  0
VERTEX
  8
0
  5
2595B
 10
495.826
 20
188.010
 30
0.000000
  70
    32
  0
VERTEX
  8
0
  5
2595C
 10
494.675
 20
187.300
 30
0.000000
  70
    32
  0
VERTEX
  8
0
  5
2595D
 10
493.554
 20
186.550
 30
0.000000
  70
    32
  0
VERTEX
  8
0
  5
2595E
 10
492.464
 20
185.761
 30
0.000000
  70
    32
  0
VERTEX
  8
0
  5
2595F
 10
491.407
 20
184.935
 30
0.000000
  70
    32
  0
VERTEX
  8
0
  5
25960
 10
490.385
 20
184.072
 30
0.000000
  70
    32
  0
VERTEX
  8
0
  5
25961
 10
489.399
 20
183.174
 30
0.000000
  70
    32
  0
VERTEX
  8
0
  5
25962
 10
488.450
 20
182.242
 30
0.000000
  70
    32
  0
VERTEX
  8
0
  5
25963
 10
487.540
 20
181.277
 30
0.000000
  70
    32
  0
VERTEX
  8
0
  5
25964
 10
486.670
 20
180.281
 30
0.000000
  70
    32
  0
VERTEX
  8
0
  5
25965
 10
485.841
 20
179.255
 30
0.000000
  70
    32
  0
VERTEX
  8
0
  5
25966
 10
485.055
 20
178.201
 30
0.000000
  70
    32
  0
VERTEX
  8
0
  5
25967
 10
484.313
 20
177.120
 30
0.000000
  70
    32
  0
VERTEX
  8
0
  5
25968
 10
483.615
 20
176.014
 30
0.000000
  70
    32
  0
VERTEX
  8
0
  5
25969
 10
482.963
 20
174.884
 30
0.000000
  70
    32
  0
VERTEX
  8
0
  5
2596A
 10
482.357
 20
173.732
 30
0.000000
  70
    32
  0
VERTEX
  8
0
  5
2596B
 10
481.799
 20
172.559
 30
0.000000
  70
    32
  0
VERTEX
  8
0
  5
2596C
 10
481.289
 20
171.368
 30
0.000000
  70
    32
  0
VERTEX
  8
0
  5
2596D
 10
480.828
 20
170.160
 30
0.000000
  70
    32
  0
VERTEX
  8
0
  5
2596E
 10
480.417
 20
168.936
 30
0.000000
  70
    32
  0
VERTEX
  8
0
  5
2596F
 10
480.056
 20
167.699
 30
0.000000
  70
    32
  0
VERTEX
  8
0
  5
25970
 10
479.746
 20
166.450
 30
0.000000
  70
    32
  0
VERTEX
  8
0
  5
25971
 10
479.488
 20
165.191
 30
0.000000
  70
    32
  0
VERTEX
  8
0
  5
25972
 10
479.281
 20
163.924
 30
0.000000
  70
    32
  0
VERTEX
  8
0
  5
25973
 10
479.125
 20
162.651
 30
0.000000
  70
    32
  0
VERTEX
  8
0
  5
25974
 10
479.022
 20
161.373
 30
0.000000
  70
    32
  0
VERTEX
  8
0
  5
25975
 10
478.971
 20
160.092
 30
0.000000
  70
    32
  0
VERTEX
  8
0
  5
25976
 10
478.973
 20
158.810
 30
0.000000
  70
    32
  0
VERTEX
  8
0
  5
25977
 10
479.027
 20
157.530
 30
0.000000
  70
    32
  0
VERTEX
  8
0
  5
25978
 10
479.133
 20
156.252
 30
0.000000
  70
    32
  0
VERTEX
  8
0
  5
25979
 10
479.291
 20
154.979
 30
0.000000
  70
    32
  0
VERTEX
  8
0
  5
2597A
 10
479.501
 20
153.712
 30
0.000000
  70
    32
  0
VERTEX
  8
0
  5
2597B
 10
479.763
 20
152.454
 30
0.000000
  70
    32
  0
VERTEX
  8
0
  5
2597C
 10
480.076
 20
151.205
 30
0.000000
  70
    32
  0
VERTEX
  8
0
  5
2597D
 10
480.440
 20
149.969
 30
0.000000
  70
    32
  0
VERTEX
  8
0
  5
2597E
 10
480.853
 20
148.746
 30
0.000000
  70
    32
  0
VERTEX
  8
0
  5
2597F
 10
481.317
 20
147.539
 30
0.000000
  70
    32
  0
VERTEX
  8
0
  5
25980
 10
481.830
 20
146.348
 30
0.000000
  70
    32
  0
VERTEX
  8
0
  5
25981
 10
482.391
 20
145.177
 30
0.000000
  70
    32
  0
VERTEX
  8
0
  5
25982
 10
482.999
 20
144.026
 30
0.000000
  70
    32
  0
VERTEX
  8
0
  5
25983
 10
483.654
 20
142.897
 30
0.000000
  70
    32
  0
VERTEX
  8
0
  5
25984
 10
484.354
 20
141.793
 30
0.000000
  70
    32
  0
VERTEX
  8
0
  5
25985
 10
485.099
 20
140.713
 30
0.000000
  70
    32
  0
VERTEX
  8
0
  5
25986
 10
485.888
 20
139.660
 30
0.000000
  70
    32
  0
VERTEX
  8
0
  5
25987
 10
486.719
 20
138.636
 30
0.000000
  70
    32
  0
VERTEX
  8
0
  5
25988
 10
487.591
 20
137.642
 30
0.000000
  70
    32
  0
VERTEX
  8
0
  5
25989
 10
488.504
 20
136.679
 30
0.000000
  70
    32
  0
VERTEX
  8
0
  5
2598A
 10
489.455
 20
135.749
 30
0.000000
  70
    32
  0
VERTEX
  8
0
  5
2598B
 10
490.443
 20
134.853
 30
0.000000
  70
    32
  0
VERTEX
  8
0
  5
2598C
 10
491.467
 20
133.992
 30
0.000000
  70
    32
  0
SEQEND
  8
0
  5
2598D
  0
POLYLINE
  5
2541D
  8
0
 66
     1
 10
0.0
 20
0.0
 30
0.0
 70
   128
  0
VERTEX
  5
256B8
  8
0
 10
491.46715924952252
 20
133.99223356340491
 30
0.0
  0
VERTEX
  5
256B9
  8
0
 10
493.09001395871138
 20
132.94962354396341
 30
0.0
  0
VERTEX
  5
256BA
  8
0
 10
493.7505253444275
 20
132.6436865686847
 30
0.0
  0
SEQEND
  5
256BB
  8
0
  0
POLYLINE
  5
2541E
  8
0
 66
     1
 10
0.0
 20
0.0
 30
0.0
 70
   128
  0
VERTEX
  5
256BC
  8
0
 10
537.18052534442745
 20
132.6436865686847
 30
0.0
  0
VERTEX
  5
256BD
  8
0
 10
537.90721651266324
 20
132.98341952069001
 30
0.0
  0
VERTEX
  5
256BE
  8
0
 10
539.46389143933254
 20
133.99223356340491
 30
0.0
  0
SEQEND
  5
256BF
  8
0
  0
LINE
  5
2541F
  8
0
 10
478.96552534442742
 20
197.32567680462171
 30
0.0
 11
551.96552534442742
 21
197.32567680462171
 31
0.0
  0
LINE
  5
25420
  8
0
 10
536.58488140054544
 20
133.99223356340491
 30
0.0
 11
539.46389143933254
 21
133.99223356340491
 31
0.0
  0
POLYLINE
  5
25421
  8
0
 10
536.58488140054578
 20
133.99223356340511
 30
0.0
 66
     1
 70
     8
  0
VERTEX
  8
0
  5
2598E
 10
536.585
 20
133.992
 30
0.000000
  70
    32
  0
VERTEX
  8
0
  5
2598F
 10
537.637
 20
134.772
 30
0.000000
  70
    32
  0
VERTEX
  8
0
  5
25990
 10
538.656
 20
135.589
 30
0.000000
  70
    32
  0
VERTEX
  8
0
  5
25991
 10
539.640
 20
136.442
 30
0.000000
  70
    32
  0
VERTEX
  8
0
  5
25992
 10
540.587
 20
137.330
 30
0.000000
  70
    32
  0
VERTEX
  8
0
  5
25993
 10
541.497
 20
138.252
 30
0.000000
  70
    32
  0
VERTEX
  8
0
  5
25994
 10
542.367
 20
139.205
 30
0.000000
  70
    32
  0
VERTEX
  8
0
  5
25995
 10
543.197
 20
140.189
 30
0.000000
  70
    32
  0
VERTEX
  8
0
  5
25996
 10
543.984
 20
141.202
 30
0.000000
  70
    32
  0
VERTEX
  8
0
  5
25997
 10
544.729
 20
142.243
 30
0.000000
  70
    32
  0
VERTEX
  8
0
  5
25998
 10
545.429
 20
143.310
 30
0.000000
  70
    32
  0
VERTEX
  8
0
  5
25999
 10
546.085
 20
144.401
 30
0.000000
  70
    32
  0
VERTEX
  8
0
  5
2599A
 10
546.694
 20
145.515
 30
0.000000
  70
    32
  0
VERTEX
  8
0
  5
2599B
 10
547.256
 20
146.651
 30
0.000000
  70
    32
  0
VERTEX
  8
0
  5
2599C
 10
547.770
 20
147.805
 30
0.000000
  70
    32
  0
VERTEX
  8
0
  5
2599D
 10
548.235
 20
148.977
 30
0.000000
  70
    32
  0
VERTEX
  8
0
  5
2599E
 10
548.650
 20
150.165
 30
0.000000
  70
    32
  0
VERTEX
  8
0
  5
2599F
 10
549.016
 20
151.367
 30
0.000000
  70
    32
  0
VERTEX
  8
0
  5
259A0
 10
549.331
 20
152.582
 30
0.000000
  70
    32
  0
VERTEX
  8
0
  5
259A1
 10
549.595
 20
153.806
 30
0.000000
  70
    32
  0
VERTEX
  8
0
  5
259A2
 10
549.807
 20
155.040
 30
0.000000
  70
    32
  0
VERTEX
  8
0
  5
259A3
 10
549.967
 20
156.280
 30
0.000000
  70
    32
  0
VERTEX
  8
0
  5
259A4
 10
550.076
 20
157.525
 30
0.000000
  70
    32
  0
VERTEX
  8
0
  5
259A5
 10
550.132
 20
158.773
 30
0.000000
  70
    32
  0
VERTEX
  8
0
  5
259A6
 10
550.136
 20
160.021
 30
0.000000
  70
    32
  0
VERTEX
  8
0
  5
259A7
 10
550.087
 20
161.270
 30
0.000000
  70
    32
  0
VERTEX
  8
0
  5
259A8
 10
549.986
 20
162.515
 30
0.000000
  70
    32
  0
VERTEX
  8
0
  5
259A9
 10
549.834
 20
163.756
 30
0.000000
  70
    32
  0
VERTEX
  8
0
  5
259AA
 10
549.629
 20
164.990
 30
0.000000
  70
    32
  0
VERTEX
  8
0
  5
259AB
 10
549.372
 20
166.217
 30
0.000000
  70
    32
  0
VERTEX
  8
0
  5
259AC
 10
549.065
 20
167.432
 30
0.000000
  70
    32
  0
VERTEX
  8
0
  5
259AD
 10
548.707
 20
168.636
 30
0.000000
  70
    32
  0
VERTEX
  8
0
  5
259AE
 10
548.298
 20
169.827
 30
0.000000
  70
    32
  0
VERTEX
  8
0
  5
259AF
 10
547.840
 20
171.001
 30
0.000000
  70
    32
  0
VERTEX
  8
0
  5
259B0
 10
547.333
 20
172.158
 30
0.000000
  70
    32
  0
VERTEX
  8
0
  5
259B1
 10
546.778
 20
173.296
 30
0.000000
  70
    32
  0
VERTEX
  8
0
  5
259B2
 10
546.176
 20
174.414
 30
0.000000
  70
    32
  0
VERTEX
  8
0
  5
259B3
 10
545.528
 20
175.508
 30
0.000000
  70
    32
  0
VERTEX
  8
0
  5
259B4
 10
544.834
 20
176.579
 30
0.000000
  70
    32
  0
VERTEX
  8
0
  5
259B5
 10
544.095
 20
177.624
 30
0.000000
  70
    32
  0
VERTEX
  8
0
  5
259B6
 10
543.314
 20
178.641
 30
0.000000
  70
    32
  0
VERTEX
  8
0
  5
259B7
 10
542.490
 20
179.629
 30
0.000000
  70
    32
  0
VERTEX
  8
0
  5
259B8
 10
541.626
 20
180.587
 30
0.000000
  70
    32
  0
VERTEX
  8
0
  5
259B9
 10
540.722
 20
181.513
 30
0.000000
  70
    32
  0
VERTEX
  8
0
  5
259BA
 10
539.780
 20
182.406
 30
0.000000
  70
    32
  0
VERTEX
  8
0
  5
259BB
 10
538.801
 20
183.265
 30
0.000000
  70
    32
  0
VERTEX
  8
0
  5
259BC
 10
537.788
 20
184.087
 30
0.000000
  70
    32
  0
VERTEX
  8
0
  5
259BD
 10
536.740
 20
184.872
 30
0.000000
  70
    32
  0
VERTEX
  8
0
  5
259BE
 10
535.660
 20
185.619
 30
0.000000
  70
    32
  0
VERTEX
  8
0
  5
259BF
 10
534.550
 20
186.327
 30
0.000000
  70
    32
  0
VERTEX
  8
0
  5
259C0
 10
533.411
 20
186.994
 30
0.000000
  70
    32
  0
VERTEX
  8
0
  5
259C1
 10
532.245
 20
187.619
 30
0.000000
  70
    32
  0
VERTEX
  8
0
  5
259C2
 10
531.054
 20
188.202
 30
0.000000
  70
    32
  0
VERTEX
  8
0
  5
259C3
 10
529.839
 20
188.742
 30
0.000000
  70
    32
  0
VERTEX
  8
0
  5
259C4
 10
528.602
 20
189.238
 30
0.000000
  70
    32
  0
VERTEX
  8
0
  5
259C5
 10
527.346
 20
189.688
 30
0.000000
  70
    32
  0
VERTEX
  8
0
  5
259C6
 10
526.071
 20
190.093
 30
0.000000
  70
    32
  0
VERTEX
  8
0
  5
259C7
 10
524.781
 20
190.452
 30
0.000000
  70
    32
  0
VERTEX
  8
0
  5
259C8
 10
523.476
 20
190.764
 30
0.000000
  70
    32
  0
VERTEX
  8
0
  5
259C9
 10
522.160
 20
191.029
 30
0.000000
  70
    32
  0
VERTEX
  8
0
  5
259CA
 10
520.833
 20
191.246
 30
0.000000
  70
    32
  0
VERTEX
  8
0
  5
259CB
 10
519.498
 20
191.416
 30
0.000000
  70
    32
  0
VERTEX
  8
0
  5
259CC
 10
518.157
 20
191.537
 30
0.000000
  70
    32
  0
VERTEX
  8
0
  5
259CD
 10
516.812
 20
191.610
 30
0.000000
  70
    32
  0
VERTEX
  8
0
  5
259CE
 10
515.466
 20
191.634
 30
0.000000
  70
    32
  0
VERTEX
  8
0
  5
259CF
 10
514.119
 20
191.610
 30
0.000000
  70
    32
  0
VERTEX
  8
0
  5
259D0
 10
512.774
 20
191.537
 30
0.000000
  70
    32
  0
VERTEX
  8
0
  5
259D1
 10
511.433
 20
191.416
 30
0.000000
  70
    32
  0
VERTEX
  8
0
  5
259D2
 10
510.098
 20
191.246
 30
0.000000
  70
    32
  0
VERTEX
  8
0
  5
259D3
 10
508.771
 20
191.029
 30
0.000000
  70
    32
  0
VERTEX
  8
0
  5
259D4
 10
507.455
 20
190.764
 30
0.000000
  70
    32
  0
VERTEX
  8
0
  5
259D5
 10
506.150
 20
190.452
 30
0.000000
  70
    32
  0
VERTEX
  8
0
  5
259D6
 10
504.860
 20
190.093
 30
0.000000
  70
    32
  0
VERTEX
  8
0
  5
259D7
 10
503.586
 20
189.688
 30
0.000000
  70
    32
  0
VERTEX
  8
0
  5
259D8
 10
502.329
 20
189.238
 30
0.000000
  70
    32
  0
VERTEX
  8
0
  5
259D9
 10
501.092
 20
188.742
 30
0.000000
  70
    32
  0
VERTEX
  8
0
  5
259DA
 10
499.877
 20
188.202
 30
0.000000
  70
    32
  0
VERTEX
  8
0
  5
259DB
 10
498.686
 20
187.619
 30
0.000000
  70
    32
  0
VERTEX
  8
0
  5
259DC
 10
497.520
 20
186.994
 30
0.000000
  70
    32
  0
VERTEX
  8
0
  5
259DD
 10
496.381
 20
186.327
 30
0.000000
  70
    32
  0
VERTEX
  8
0
  5
259DE
 10
495.271
 20
185.619
 30
0.000000
  70
    32
  0
VERTEX
  8
0
  5
259DF
 10
494.191
 20
184.872
 30
0.000000
  70
    32
  0
VERTEX
  8
0
  5
259E0
 10
493.144
 20
184.087
 30
0.000000
  70
    32
  0
VERTEX
  8
0
  5
259E1
 10
492.130
 20
183.265
 30
0.000000
  70
    32
  0
VERTEX
  8
0
  5
259E2
 10
491.151
 20
182.406
 30
0.000000
  70
    32
  0
VERTEX
  8
0
  5
259E3
 10
490.209
 20
181.513
 30
0.000000
  70
    32
  0
VERTEX
  8
0
  5
259E4
 10
489.305
 20
180.587
 30
0.000000
  70
    32
  0
VERTEX
  8
0
  5
259E5
 10
488.441
 20
179.629
 30
0.000000
  70
    32
  0
VERTEX
  8
0
  5
259E6
 10
487.617
 20
178.641
 30
0.000000
  70
    32
  0
VERTEX
  8
0
  5
259E7
 10
486.836
 20
177.624
 30
0.000000
  70
    32
  0
VERTEX
  8
0
  5
259E8
 10
486.097
 20
176.579
 30
0.000000
  70
    32
  0
VERTEX
  8
0
  5
259E9
 10
485.403
 20
175.508
 30
0.000000
  70
    32
  0
VERTEX
  8
0
  5
259EA
 10
484.755
 20
174.414
 30
0.000000
  70
    32
  0
VERTEX
  8
0
  5
259EB
 10
484.153
 20
173.296
 30
0.000000
  70
    32
  0
VERTEX
  8
0
  5
259EC
 10
483.598
 20
172.158
 30
0.000000
  70
    32
  0
VERTEX
  8
0
  5
259ED
 10
483.091
 20
171.001
 30
0.000000
  70
    32
  0
VERTEX
  8
0
  5
259EE
 10
482.633
 20
169.827
 30
0.000000
  70
    32
  0
VERTEX
  8
0
  5
259EF
 10
482.224
 20
168.636
 30
0.000000
  70
    32
  0
VERTEX
  8
0
  5
259F0
 10
481.866
 20
167.432
 30
0.000000
  70
    32
  0
VERTEX
  8
0
  5
259F1
 10
481.559
 20
166.217
 30
0.000000
  70
    32
  0
VERTEX
  8
0
  5
259F2
 10
481.302
 20
164.990
 30
0.000000
  70
    32
  0
VERTEX
  8
0
  5
259F3
 10
481.098
 20
163.756
 30
0.000000
  70
    32
  0
VERTEX
  8
0
  5
259F4
 10
480.945
 20
162.515
 30
0.000000
  70
    32
  0
VERTEX
  8
0
  5
259F5
 10
480.844
 20
161.270
 30
0.000000
  70
    32
  0
VERTEX
  8
0
  5
259F6
 10
480.795
 20
160.021
 30
0.000000
  70
    32
  0
VERTEX
  8
0
  5
259F7
 10
480.799
 20
158.773
 30
0.000000
  70
    32
  0
VERTEX
  8
0
  5
259F8
 10
480.855
 20
157.525
 30
0.000000
  70
    32
  0
VERTEX
  8
0
  5
259F9
 10
480.964
 20
156.280
 30
0.000000
  70
    32
  0
VERTEX
  8
0
  5
259FA
 10
481.124
 20
155.040
 30
0.000000
  70
    32
  0
VERTEX
  8
0
  5
259FB
 10
481.336
 20
153.806
 30
0.000000
  70
    32
  0
VERTEX
  8
0
  5
259FC
 10
481.600
 20
152.582
 30
0.000000
  70
    32
  0
VERTEX
  8
0
  5
259FD
 10
481.915
 20
151.367
 30
0.000000
  70
    32
  0
VERTEX
  8
0
  5
259FE
 10
482.281
 20
150.165
 30
0.000000
  70
    32
  0
VERTEX
  8
0
  5
259FF
 10
482.696
 20
148.977
 30
0.000000
  70
    32
  0
VERTEX
  8
0
  5
25A00
 10
483.162
 20
147.805
 30
0.000000
  70
    32
  0
VERTEX
  8
0
  5
25A01
 10
483.675
 20
146.651
 30
0.000000
  70
    32
  0
VERTEX
  8
0
  5
25A02
 10
484.237
 20
145.515
 30
0.000000
  70
    32
  0
VERTEX
  8
0
  5
25A03
 10
484.846
 20
144.401
 30
0.000000
  70
    32
  0
VERTEX
  8
0
  5
25A04
 10
485.502
 20
143.310
 30
0.000000
  70
    32
  0
VERTEX
  8
0
  5
25A05
 10
486.202
 20
142.243
 30
0.000000
  70
    32
  0
VERTEX
  8
0
  5
25A06
 10
486.947
 20
141.202
 30
0.000000
  70
    32
  0
VERTEX
  8
0
  5
25A07
 10
487.734
 20
140.189
 30
0.000000
  70
    32
  0
VERTEX
  8
0
  5
25A08
 10
488.564
 20
139.205
 30
0.000000
  70
    32
  0
VERTEX
  8
0
  5
25A09
 10
489.434
 20
138.252
 30
0.000000
  70
    32
  0
VERTEX
  8
0
  5
25A0A
 10
490.344
 20
137.330
 30
0.000000
  70
    32
  0
VERTEX
  8
0
  5
25A0B
 10
491.291
 20
136.442
 30
0.000000
  70
    32
  0
VERTEX
  8
0
  5
25A0C
 10
492.275
 20
135.589
 30
0.000000
  70
    32
  0
VERTEX
  8
0
  5
25A0D
 10
493.294
 20
134.772
 30
0.000000
  70
    32
  0
VERTEX
  8
0
  5
25A0E
 10
494.346
 20
133.992
 30
0.000000
  70
    32
  0
SEQEND
  8
0
  5
25A0F
  0
LINE
  5
25422
  8
0
 10
491.46715924952252
 20
133.99223356340491
 30
0.0
 11
494.34616928830962
 21
133.99223356340491
 31
0.0
  0
LINE
  5
25423
  8
0
 10
495.57552534442749
 20
133.2492844128858
 30
0.0
 11
494.34616928830962
 21
133.99223356340491
 31
0.0
  0
LINE
  5
25424
  8
0
 10
536.58488140054544
 20
133.99223356340491
 30
0.0
 11
535.35552534442752
 21
133.2492844128858
 31
0.0
  0
LINE
  5
25425
  8
0
 10
535.35552534442752
 20
185.8194504370054
 30
0.0
 11
535.35552534442752
 21
131.32567680462171
 31
0.0
  0
LINE
  5
25427
  8
0
 10
495.57552534442749
 20
185.81945043700571
 30
0.0
 11
495.57552534442749
 21
131.32567680462171
 31
0.0
  0
LINE
  5
25428
  8
0
 10
537.18052534442745
 20
131.32567680462171
 30
0.0
 11
537.18052534442745
 21
132.6436865686847
 31
0.0
  0
LINE
  5
25429
  8
0
 10
535.35552534442752
 20
131.32567680462171
 30
0.0
 11
537.18052534442745
 21
131.32567680462171
 31
0.0
  0
LINE
  5
2542B
  8
0
 10
493.7505253444275
 20
131.32567680462171
 30
0.0
 11
495.57552534442749
 21
131.32567680462171
 31
0.0
  0
LINE
  5
2542C
  8
0
 10
493.7505253444275
 20
131.32567680462171
 30
0.0
 11
493.7505253444275
 21
132.6436865686847
 31
0.0
  0
LINE
  5
2542E
  8
0
 10
534.46552534442765
 20
179.56286217164379
 30
0.0
 11
535.35552534442775
 21
179.56286217164379
 31
0.0
  0
LINE
  5
2542F
  8
0
 10
495.57552534442772
 20
179.56286217164379
 30
0.0
 11
496.46552534442759
 21
179.56286217164379
 31
0.0
  0
LINE
  5
25431
  8
0
 10
496.46552534442759
 20
185.36826952176071
 30
0.0
 11
534.46552534442765
 21
185.36826952176071
 31
0.0
  0
LINE
  5
25432
  8
0
 10
496.46552534442759
 20
182.47049204289269
 30
0.0
 11
534.46552534442765
 21
182.47049204289269
 31
0.0
  0
LINE
  5
25436
  8
0
 10
542.58194502686229
 20
136.8665099861542
 30
0.0
 11
542.68052534442756
 21
135.90580115260411
 31
0.0
  0
POLYLINE
  5
25437
  8
0
 66
     1
 10
0.0
 20
0.0
 30
0.0
 70
   128
  0
VERTEX
  5
256C0
  8
0
 10
542.68052534442756
 20
135.90580115260411
 30
0.0
  0
VERTEX
  5
256C1
  8
0
 10
542.61205185987285
 20
135.0024885439345
 30
0.0
  0
VERTEX
  5
256C2
  8
0
 10
542.4211056350124
 20
134.0991759352649
 30
0.0
  0
SEQEND
  5
256C3
  8
0
  0
LINE
  5
25438
  8
0
 10
542.4211056350124
 20
134.0991759352649
 30
0.0
 11
539.59544811942214
 21
134.0991759352649
 31
0.0
  0
LINE
  5
25439
  8
0
 10
542.68052534442756
 20
135.90580115260411
 30
0.0
 11
542.68052534442756
 21
136.93911638480321
 31
0.0
  0
LINE
  5
2543A
  8
0
 10
488.70994505384311
 20
134.0991759352649
 30
0.0
 11
491.33560256943298
 21
134.0991759352649
 31
0.0
  0
POLYLINE
  5
2543B
  8
0
 66
     1
 10
0.0
 20
0.0
 30
0.0
 70
   128
  0
VERTEX
  5
256C4
  8
0
 10
488.45052534442749
 20
135.90580115260411
 30
0.0
  0
VERTEX
  5
256C5
  8
0
 10
488.51899882898221
 20
135.0024885439345
 30
0.0
  0
VERTEX
  5
256C6
  8
0
 10
488.70994505384311
 20
134.0991759352649
 30
0.0
  0
SEQEND
  5
256C7
  8
0
  0
LINE
  5
2543C
  8
0
 10
488.53409170385169
 20
136.7201923177891
 30
0.0
 11
488.45052534442749
 21
135.90580115260411
 31
0.0
  0
LINE
  5
2543D
  8
0
 10
488.45052534442749
 20
135.90580115260411
 30
0.0
 11
488.45052534442749
 21
136.73335649475311
 31
0.0
  0
LINE
  5
2543E
  8
0
 10
545.18052534442745
 20
135.51067680462171
 30
0.0
 11
545.18052534442745
 21
139.83780527663041
 31
0.0
  0
LINE
  5
2543F
  8
0
 10
546.60052534442764
 20
138.09267680462159
 30
0.0
 11
546.60052534442764
 21
141.82824054923509
 31
0.0
  0
LINE
  5
25440
  8
0
 10
545.83352534442758
 20
137.32567680462171
 30
0.0
 11
545.83352534442758
 21
140.71541151342251
 31
0.0
  0
LINE
  5
25441
  8
0
 10
542.68052534442756
 20
135.06734347128841
 30
0.0
 11
542.68052534442756
 21
135.90580115260411
 31
0.0
  0
LINE
  5
25442
  8
0
 10
488.45052534442749
 20
135.06734347128841
 30
0.0
 11
488.45052534442749
 21
135.90580115260411
 31
0.0
  0
LINE
  5
25443
  8
0
 10
530.46552534442765
 20
177.0328189473357
 30
0.0
 11
530.46552534442765
 21
105.6185346619077
 31
0.0
  0
LINE
  5
25444
  8
0
 10
500.46552534442759
 20
177.0328189473357
 30
0.0
 11
500.46552534442759
 21
105.6185346619077
 31
0.0
  0
LINE
  5
25445
  8
0
 10
534.96552534442765
 20
152.89931547071961
 30
0.0
 11
534.96552534442765
 21
129.75203813852369
 31
0.0
  0
LINE
  5
25446
  8
0
 10
495.96552534442759
 20
152.89931547072069
 30
0.0
 11
495.96552534442759
 21
129.75203813852269
 31
0.0
  0
LINE
  5
25447
  8
0
 10
501.78131481811153
 20
178.9121422180047
 30
0.0
 11
501.78131481811153
 21
103.7392113912387
 31
0.0
  0
LINE
  5
25448
  8
0
 10
529.14973587074337
 20
178.9121422180047
 30
0.0
 11
529.14973587074337
 21
103.7392113912387
 31
0.0
  0
LINE
  5
25449
  8
0
 10
533.13983682992239
 20
154.89170486690369
 30
0.0
 11
533.13983682992239
 21
127.75964874233961
 31
0.0
  0
LINE
  5
2544A
  8
0
 10
497.79121385893251
 20
154.89170486690369
 30
0.0
 11
497.79121385893251
 21
127.75964874233961
 31
0.0
  0
LINE
  5
2544E
  8
0
 10
324.71731598398571
 20
323.34266106013399
 30
0.0
 11
324.71731598398571
 21
323.94266106013401
 31
0.0
  0
LINE
  5
2544F
  8
0
 10
322.33344071936438
 20
376.5945363247551
 30
0.0
 11
322.13531598398561
 21
376.79266106013398
 31
0.0
  0
LINE
  5
25450
  8
0
 10
315.66931598398548
 20
376.79266106013398
 30
0.0
 11
314.90231598398572
 21
376.02566106013398
 31
0.0
  0
LINE
  5
25451
  8
0
 10
314.90231598398572
 20
376.02566106013398
 30
0.0
 11
314.90231598398572
 21
375.37266106013402
 31
0.0
  0
LINE
  5
25453
  8
0
 10
398.90231598398572
 20
388.15766106013382
 30
0.0
 11
316.90231598398572
 21
388.15766106013382
 31
0.0
  0
ARC
  5
25454
  8
0
 10
398.90231598398589
 20
379.1576610601341
 30
0.0
 40
8.9999999999997726
 50
359.99999999999682
 51
90.0
  0
LINE
  5
25455
  8
0
 10
407.9023159839856
 20
312.15766106013382
 30
0.0
 11
407.9023159839856
 21
379.15766106013382
 31
0.0
  0
ARC
  5
25456
  8
0
 10
398.90231598398589
 20
312.15766106013348
 30
0.0
 40
8.9999999999997726
 50
270.0
 51
0.0
  0
LINE
  5
25457
  8
0
 10
316.90231598398572
 20
303.15766106013371
 30
0.0
 11
398.90231598398572
 21
303.15766106013371
 31
0.0
  0
ARC
  5
25458
  8
0
 10
316.90231598398572
 20
312.15766106013371
 30
0.0
 40
9.0
 50
180.0
 51
270.0
  0
LINE
  5
25459
  8
0
 10
307.90231598398572
 20
379.15766106013382
 30
0.0
 11
307.90231598398572
 21
312.15766106013382
 31
0.0
  0
LINE
  5
2545A
  8
0
 10
391.13324114275872
 20
321.73463611305777
 30
0.0
 11
393.63324114275872
 21
314.23463611305777
 31
0.0
  0
ARC
  5
2545B
  8
0
 10
397.90231598398572
 20
315.65766106013382
 30
0.0
 40
4.4999999999997682
 50
198.43494882292811
 51
18.434948822925101
  0
LINE
  5
2545C
  8
0
 10
402.1713908252126
 20
317.08068600720981
 30
0.0
 11
399.6713908252126
 21
324.58068600720981
 31
0.0
  0
ARC
  5
2545D
  8
0
 10
395.40231598398572
 20
323.15766106013382
 30
0.0
 40
4.4999999999997682
 50
18.434948822925101
 51
198.43494882292509
  0
LINE
  5
2545E
  8
0
 10
399.6713908252126
 20
366.73463611305777
 30
0.0
 11
402.1713908252126
 21
374.23463611305772
 31
0.0
  0
ARC
  5
2545F
  8
0
 10
397.90231598398572
 20
375.65766106013382
 30
0.0
 40
4.4999999999997771
 50
341.56505117707491
 51
161.56505117707491
  0
LINE
  5
25460
  8
0
 10
393.63324114275872
 20
377.08068600720981
 30
0.0
 11
391.13324114275872
 21
369.58068600720981
 31
0.0
  0
ARC
  5
25461
  8
0
 10
395.40231598398572
 20
368.15766106013382
 30
0.0
 40
4.4999999999997771
 50
161.56505117707491
 51
341.56505117707491
  0
LINE
  5
25462
  8
0
 10
322.17139082521311
 20
314.23463611305777
 30
0.0
 11
324.67139082521311
 21
321.73463611305777
 31
0.0
  0
ARC
  5
25463
  8
0
 10
320.40231598398537
 20
323.15766106013348
 30
0.0
 40
4.5000000000000906
 50
341.56505117707798
 51
161.56505117706871
  0
LINE
  5
25464
  8
0
 10
316.13324114275832
 20
324.58068600720981
 30
0.0
 11
313.63324114275832
 21
317.08068600720981
 31
0.0
  0
ARC
  5
25465
  8
0
 10
317.90231598398572
 20
315.65766106013422
 30
0.0
 40
4.5000000000001004
 50
161.565051177078
 51
341.56505117707178
  0
LINE
  5
25466
  8
0
 10
313.63324114275832
 20
374.23463611305772
 30
0.0
 11
316.13324114275832
 21
366.73463611305777
 31
0.0
  0
ARC
  5
25467
  8
0
 10
320.40231598398537
 20
368.15766106013399
 30
0.0
 40
4.5000000000001092
 50
198.4349488229312
 51
18.43494882292201
  0
LINE
  5
25468
  8
0
 10
324.67139082521311
 20
369.58068600720981
 30
0.0
 11
322.17139082521311
 21
377.08068600720981
 31
0.0
  0
ARC
  5
25469
  8
0
 10
317.90231598398572
 20
375.65766106013348
 30
0.0
 40
4.5000000000001092
 50
18.434948822931279
 51
198.43494882292191
  0
ARC
  5
2546A
  8
0
 10
316.90231598398572
 20
379.15766106013382
 30
0.0
 40
9.0
 50
90.0
 51
180.0
  0
LINE
  5
25479
  8
0
 10
324.83331756376413
 20
323.94266106013379
 30
0.0
 11
315.92056616039969
 21
323.94266106013379
 31
0.0
  0
LINE
  5
2547A
  8
0
 10
324.83331756376413
 20
367.37266106013391
 30
0.0
 11
315.92056616039952
 21
367.37266106013391
 31
0.0
  0
LINE
  5
2547B
  8
0
 10
307.90231598398572
 20
324.04266106013392
 30
0.0
 11
258.41897648238057
 21
324.04266106013392
 31
0.0
  0
LINE
  5
2547C
  8
0
 10
258.41897648238057
 20
324.04266106013392
 30
0.0
 11
258.41897648238057
 21
367.27266106013383
 31
0.0
  0
LINE
  5
2547F
  8
0
 10
307.90231598398572
 20
367.27266106013383
 30
0.0
 11
258.41897648238057
 21
367.27266106013383
 31
0.0
  0
LINE
  5
25480
  8
0
 10
302.83038109245069
 20
324.04266106013381
 30
0.0
 11
302.83038109245069
 21
367.27266106013383
 31
0.0
  0
POLYLINE
  5
25496
  8
0
 66
     1
 10
0.0
 20
0.0
 30
0.0
 70
   128
  0
VERTEX
  5
256C8
  8
0
 10
318.90231598398572
 20
367.6320807695493
 30
0.0
  0
VERTEX
  5
256C9
  8
0
 10
317.92807256909481
 20
367.50034578052413
 30
0.0
  0
VERTEX
  5
256CA
  8
0
 10
315.91771094487109
 20
367.3812267067193
 30
0.0
  0
SEQEND
  5
256CB
  8
0
  0
POLYLINE
  5
25497
  8
0
 66
     1
 10
0.0
 20
0.0
 30
0.0
 70
   128
  0
VERTEX
  5
256CC
  8
0
 10
314.11383143351429
 20
372.7928652407893
 30
0.0
  0
VERTEX
  5
256CD
  8
0
 10
314.20153119601929
 20
372.80358265109919
 30
0.0
  0
VERTEX
  5
256CE
  8
0
 10
315.77314931731911
 20
372.87266106013402
 30
0.0
  0
SEQEND
  5
256CF
  8
0
  0
POLYLINE
  5
25498
  8
0
 66
     1
 10
0.0
 20
0.0
 30
0.0
 70
   128
  0
VERTEX
  5
256D0
  8
0
 10
315.77314931731911
 20
372.87266106013402
 30
0.0
  0
VERTEX
  5
256D1
  8
0
 10
317.92807256909481
 20
372.74497633974391
 30
0.0
  0
VERTEX
  5
256D2
  8
0
 10
318.90231598398572
 20
372.61324135071868
 30
0.0
  0
SEQEND
  5
256D3
  8
0
  0
LINE
  5
25499
  8
0
 10
318.90231598398572
 20
372.61324135071868
 30
0.0
 11
318.90231598398572
 21
367.6320807695493
 31
0.0
  0
POLYLINE
  5
2549A
  8
0
 66
     1
 10
0.0
 20
0.0
 30
0.0
 70
   128
  0
VERTEX
  5
256D4
  8
0
 10
318.90231598398572
 20
372.61324135071868
 30
0.0
  0
VERTEX
  5
256D5
  8
0
 10
320.45986452935279
 20
372.80358265109919
 30
0.0
  0
VERTEX
  5
256D6
  8
0
 10
322.03148265065232
 20
372.87266106013402
 30
0.0
  0
SEQEND
  5
256D7
  8
0
  0
POLYLINE
  5
2549C
  8
0
 66
     1
 10
0.0
 20
0.0
 30
0.0
 70
   128
  0
VERTEX
  5
256D8
  8
0
 10
324.79445953811899
 20
367.59982331975863
 30
0.0
  0
VERTEX
  5
256D9
  8
0
 10
322.22822965035232
 20
367.3737655856047
 30
0.0
  0
VERTEX
  5
256DA
  8
0
 10
322.03148265065232
 20
367.37266106013391
 30
0.0
  0
SEQEND
  5
256DB
  8
0
  0
POLYLINE
  5
2549D
  8
0
 66
     1
 10
0.0
 20
0.0
 30
0.0
 70
   128
  0
VERTEX
  5
256DC
  8
0
 10
322.03148265065232
 20
367.37266106013391
 30
0.0
  0
VERTEX
  5
256DD
  8
0
 10
320.46689931731902
 20
367.44113454468868
 30
0.0
  0
VERTEX
  5
256DE
  8
0
 10
318.90231598398572
 20
367.6320807695493
 30
0.0
  0
SEQEND
  5
256DF
  8
0
  0
POLYLINE
  5
2549E
  8
0
 66
     1
 10
0.0
 20
0.0
 30
0.0
 70
   128
  0
VERTEX
  5
256E0
  8
0
 10
322.03148265065232
 20
372.87266106013402
 30
0.0
  0
VERTEX
  5
256E1
  8
0
 10
322.22822965035232
 20
372.87155653466323
 30
0.0
  0
VERTEX
  5
256E2
  8
0
 10
323.6151585766828
 20
372.7493827528001
 30
0.0
  0
SEQEND
  5
256E3
  8
0
  0
POLYLINE
  5
2549F
  8
0
 66
     1
 10
0.0
 20
0.0
 30
0.0
 70
   128
  0
VERTEX
  5
256E4
  8
0
 10
318.90231598398572
 20
323.08324135071848
 30
0.0
  0
VERTEX
  5
256E5
  8
0
 10
317.92807256909481
 20
323.21497633974383
 30
0.0
  0
VERTEX
  5
256E6
  8
0
 10
315.77314931731911
 20
323.34266106013399
 30
0.0
  0
SEQEND
  5
256E7
  8
0
  0
LINE
  5
254A0
  8
0
 10
318.90231598398572
 20
318.90208076954963
 30
0.0
 11
318.90231598398572
 21
323.08324135071848
 31
0.0
  0
POLYLINE
  5
254A1
  8
0
 66
     1
 10
0.0
 20
0.0
 30
0.0
 70
   128
  0
VERTEX
  5
256E8
  8
0
 10
315.77314931731911
 20
318.64266106013412
 30
0.0
  0
VERTEX
  5
256E9
  8
0
 10
317.92807256909481
 20
318.77034578052422
 30
0.0
  0
VERTEX
  5
256EA
  8
0
 10
318.90231598398572
 20
318.90208076954963
 30
0.0
  0
SEQEND
  5
256EB
  8
0
  0
POLYLINE
  5
254A2
  8
0
 66
     1
 10
0.0
 20
0.0
 30
0.0
 70
   128
  0
VERTEX
  5
256EC
  8
0
 10
314.17788871212599
 20
318.71462871531259
 30
0.0
  0
VERTEX
  5
256ED
  8
0
 10
314.20153119601929
 20
318.71173946916878
 30
0.0
  0
VERTEX
  5
256EE
  8
0
 10
315.77314931731911
 20
318.64266106013412
 30
0.0
  0
SEQEND
  5
256EF
  8
0
  0
POLYLINE
  5
254A4
  8
0
 66
     1
 10
0.0
 20
0.0
 30
0.0
 70
   128
  0
VERTEX
  5
256F0
  8
0
 10
322.03148265065232
 20
323.34266106013399
 30
0.0
  0
VERTEX
  5
256F1
  8
0
 10
320.46689931731902
 20
323.27418757557928
 30
0.0
  0
VERTEX
  5
256F2
  8
0
 10
318.90231598398572
 20
323.08324135071848
 30
0.0
  0
SEQEND
  5
256F3
  8
0
  0
POLYLINE
  5
254A5
  8
0
 66
     1
 10
0.0
 20
0.0
 30
0.0
 70
   128
  0
VERTEX
  5
256F4
  8
0
 10
324.8663631948142
 20
323.10916484820541
 30
0.0
  0
VERTEX
  5
256F5
  8
0
 10
322.22822965035232
 20
323.3415565346632
 30
0.0
  0
VERTEX
  5
256F6
  8
0
 10
322.03148265065232
 20
323.34266106013399
 30
0.0
  0
SEQEND
  5
256F7
  8
0
  0
POLYLINE
  5
254A6
  8
0
 66
     1
 10
0.0
 20
0.0
 30
0.0
 70
   128
  0
VERTEX
  5
256F8
  8
0
 10
322.03148265065232
 20
318.64266106013412
 30
0.0
  0
VERTEX
  5
256F9
  8
0
 10
322.2282296503526
 20
318.64376558560468
 30
0.0
  0
VERTEX
  5
256FA
  8
0
 10
323.68384200474691
 20
318.77198965165962
 30
0.0
  0
SEQEND
  5
256FB
  8
0
  0
POLYLINE
  5
254A7
  8
0
 66
     1
 10
0.0
 20
0.0
 30
0.0
 70
   128
  0
VERTEX
  5
256FC
  8
0
 10
318.90231598398572
 20
318.90208076954963
 30
0.0
  0
VERTEX
  5
256FD
  8
0
 10
320.45986452935261
 20
318.71173946916878
 30
0.0
  0
VERTEX
  5
256FE
  8
0
 10
322.03148265065232
 20
318.64266106013412
 30
0.0
  0
SEQEND
  5
256FF
  8
0
  0
LINE
  5
254A9
  8
0
 10
322.74073247423809
 20
375.37266106013402
 30
0.0
 11
313.41135005225112
 21
375.37266106013402
 31
0.0
  0
LINE
  5
254AA
  8
0
 10
323.57406580757151
 20
372.87266106013402
 30
0.0
 11
314.0872328270662
 21
372.87266106013402
 31
0.0
  0
LINE
  5
254AC
  8
0
 10
324.89851159805761
 20
323.34266106013399
 30
0.0
 11
315.77314931731911
 21
323.34266106013399
 31
0.0
  0
LINE
  5
254AD
  8
0
 10
323.64073247423829
 20
318.64266106013412
 30
0.0
 11
314.15389949373309
 21
318.64266106013412
 31
0.0
  0
LINE
  5
254AF
  8
0
 10
322.13531598398561
 20
376.79266106013398
 30
0.0
 11
315.66931598398548
 21
376.79266106013398
 31
0.0
  0
LINE
  5
254B0
  8
0
 10
322.52306580757153
 20
376.02566106013398
 30
0.0
 11
314.90231598398572
 21
376.02566106013398
 31
0.0
  0
CIRCLE
  5
254F6
  8
0
 10
357.90231598398589
 20
345.65766106013291
 30
0.0
 40
8.9249999999999972
  0
CIRCLE
  5
254F7
  8
0
 10
357.90231598398589
 20
345.65766106013291
 30
0.0
 40
13.579006893609151
  0
CIRCLE
  5
254F8
  8
0
 10
357.90231598398589
 20
345.65766106013291
 30
0.0
 40
20.175000000000001
  0
CIRCLE
  5
254F9
  8
0
 10
357.90231598398589
 20
345.65766106013291
 30
0.0
 40
25.668546822706869
  0
CIRCLE
  5
254FA
  8
0
 10
357.90231598398589
 20
345.65766106013291
 30
0.0
 40
27.174999999999962
  0
CIRCLE
  5
254FB
  8
0
 10
357.90231598398589
 20
345.65766106013291
 30
0.0
 40
31.175000000000001
  0
LINE
  5
254FC
  8
3
 10
315.66931598398548
 20
376.79266106013398
 30
0.0
 11
315.66931598398548
 21
375.37266106013402
 31
0.0
  0
ARC
  5
25503
  8
0
 10
318.90231598398532
 20
141.32567680462171
 30
0.0
 40
39.999999999999979
 50
137.5458497955905
 51
23.570812654862959
  0
ARC
  5
25504
  8
0
 10
318.90231598398532
 20
141.32567680462171
 30
0.0
 40
28.900670063920611
 50
110.8951939725338
 51
15.66616916071629
  0
ARC
  5
25505
  8
0
 10
318.90231598398532
 20
141.32567680462171
 30
0.0
 40
37.586465413383401
 50
134.0820993793285
 51
22.279971879575388
  0
ARC
  5
25506
  8
0
 10
318.90231598398509
 20
141.3256768046212
 30
0.0
 40
14.96883590123252
 50
156.0045228566222
 51
341.00622148379381
  0
LINE
  5
25507
  8
0
 10
238.4189764823808
 20
329.63614037681839
 30
0.0
 11
238.4189764823808
 21
361.67918174345198
 31
0.0
  0
LINE
  5
25508
  8
0
 10
242.96313674640859
 20
326.65766106013382
 30
0.0
 11
242.96313674640859
 21
364.65766106013382
 31
0.0
  0
LINE
  5
25509
  8
0
 10
255.418976482381
 20
329.65766106013382
 30
0.0
 11
255.41897648238131
 21
361.65766106013473
 31
0.0
  0
LINE
  5
2550A
  8
0
 10
258.41897648238103
 20
326.65766106013382
 30
0.0
 11
240.01308618099679
 21
326.65766106013382
 31
0.0
  0
LINE
  5
2550B
  8
0
 10
255.418976482381
 20
329.65766106013382
 30
0.0
 11
258.41897648238103
 21
329.65766106013382
 31
0.0
  0
LINE
  5
2550C
  8
0
 10
258.41897648238103
 20
364.65766106013382
 30
0.0
 11
240.01308618099651
 21
364.65766106013382
 31
0.0
  0
LINE
  5
2550D
  8
0
 10
255.41897648238219
 20
361.65766106013473
 30
0.0
 11
258.41897648238188
 21
361.65766106013382
 31
0.0
  0
ARC
  5
2550E
  8
0
 10
242.7554158760226
 20
330.04121208657909
 30
0.0
 40
4.3553174057440378
 50
185.33657785306951
 51
230.97562584382479
  0
ARC
  5
2550F
  8
0
 10
242.75541587602231
 20
361.2741100336894
 30
0.0
 40
4.3553174057440378
 50
129.02437415617521
 51
174.6634221469304
  0
LINE
  5
25510
  8
0
 10
238.41897648238151
 20
182.4480296406355
 30
0.0
 11
241.63291453081419
 21
178.6178074250407
 31
0.0
  0
LINE
  5
25511
  8
0
 10
240.33408759017891
 20
184.05499866485209
 30
0.0
 11
238.41897648238151
 21
182.4480296406355
 31
0.0
  0
LINE
  5
25512
  8
0
 10
242.96313674640911
 20
180.921819887808
 30
0.0
 11
240.33408759017891
 21
184.05499866485209
 31
0.0
  0
LINE
  5
25513
  8
0
 10
259.12854318201278
 20
178.67753783024369
 30
0.0
 11
242.96313674640911
 21
180.921819887808
 31
0.0
  0
LINE
  5
25514
  8
0
 10
258.4451107954373
 20
181.22814222048149
 30
0.0
 11
258.1395691528113
 21
181.407510972616
 31
0.0
  0
LINE
  5
25515
  8
0
 10
241.63291453081419
 20
178.6178074250407
 30
0.0
 11
259.84248123044529
 21
176.0130847600368
 31
0.0
  0
LINE
  5
25516
  8
0
 10
255.87335676283249
 20
185.18413774586821
 30
0.0
 11
258.4173904563483
 21
184.833814400427
 31
0.0
  0
LINE
  5
25517
  8
0
 10
255.4224384707328
 20
182.07369705175651
 30
0.0
 11
255.87335676283249
 21
185.18413774586821
 31
0.0
  0
LINE
  5
25518
  8
0
 10
258.07381807051217
 20
181.78656624238249
 30
0.0
 11
258.4173904563483
 21
184.83381440042751
 31
0.0
  0
LINE
  5
25519
  8
0
 10
255.4224384707328
 20
182.07369705175651
 30
0.0
 11
256.16038546328588
 21
179.0896142688226
 31
0.0
  0
LINE
  5
2551A
  8
0
 10
258.07381807051217
 20
181.78656624238249
 30
0.0
 11
258.1395691528113
 21
181.407510972616
 31
0.0
  0
CIRCLE
  5
2551C
  8
0
 10
318.9023159839852
 20
141.32567680462171
 30
0.0
 40
6.2583333333333391
  0
LINE
  5
2551D
  8
0
 10
312.64398265065182
 20
144.93892723930051
 30
0.0
 11
318.9023159839852
 21
148.55217767397829
 31
0.0
  0
LINE
  5
2551E
  8
0
 10
318.9023159839852
 20
148.55217767397829
 30
0.0
 11
325.16064931731842
 21
144.93892723930051
 31
0.0
  0
LINE
  5
2551F
  8
0
 10
312.64398265065182
 20
137.7124263699429
 30
0.0
 11
318.9023159839852
 21
134.09917593526501
 31
0.0
  0
LINE
  5
25520
  8
0
 10
318.9023159839852
 20
134.09917593526501
 30
0.0
 11
325.16064931731842
 21
137.7124263699429
 31
0.0
  0
LINE
  5
25521
  8
0
 10
325.16064931731842
 20
144.93892723930051
 30
0.0
 11
325.16064931731842
 21
137.7124263699429
 31
0.0
  0
LINE
  5
25522
  8
0
 10
312.64398265065182
 20
144.93892723930051
 30
0.0
 11
312.64398265065182
 21
137.7124263699429
 31
0.0
  0
LINE
  5
25523
  8
0
 10
141.33910662366679
 20
176.0130847600368
 30
0.0
 11
103.33910662366679
 21
176.0130847600368
 31
0.0
  0
LINE
  5
25524
  8
0
 10
141.33910662366679
 20
176.0130847600368
 30
0.0
 11
141.33910662366679
 21
184.05499866485169
 31
0.0
  0
LINE
  5
25525
  8
0
 10
138.33910662366699
 20
184.05499866485169
 30
0.0
 11
138.33910662366699
 21
185.18413774586821
 31
0.0
  0
LINE
  5
25526
  8
0
 10
141.33910662366679
 20
184.05499866485169
 30
0.0
 11
103.33910662366679
 21
184.05499866485169
 31
0.0
  0
LINE
  5
25527
  8
0
 10
103.33910662366679
 20
176.0130847600368
 30
0.0
 11
103.33910662366679
 21
184.05499866485169
 31
0.0
  0
LINE
  5
25528
  8
0
 10
138.33910662366699
 20
185.18413774586821
 30
0.0
 11
106.3391066236665
 21
185.18413774586821
 31
0.0
  0
LINE
  5
25529
  8
0
 10
106.3391066236665
 20
184.05499866485169
 30
0.0
 11
106.3391066236665
 21
185.18413774586821
 31
0.0
  0
LINE
  5
2552A
  8
0
 10
103.33910662366679
 20
178.6178074250407
 30
0.0
 11
141.33910662366679
 21
178.6178074250407
 31
0.0
  0
LINE
  5
2552B
  8
1
 10
357.90231598398532
 20
218.501656134862
 30
0.0
 11
357.90231598398532
 21
169.82567680462171
 31
0.0
  0
LINE
  5
2552C
  8
1
 10
318.90231598398191
 20
296.82207288885371
 30
0.0
 11
318.90231598398191
 21
394.49324923140381
 31
0.0
  0
LINE
  5
2552D
  8
1
 10
227.80547835883229
 20
345.6576610601287
 30
0.0
 11
416.07829531422169
 21
345.6576610601287
 31
0.0
  0
LINE
  5
2552E
  8
1
 10
357.90231598398549
 20
398.33364039036769
 30
0.0
 11
357.90231598398549
 21
292.9816817298879
 31
0.0
  0
LINE
  5
2552F
  8
1
 10
311.1662480064856
 20
375.65766106012688
 30
0.0
 11
324.6383839614852
 21
375.65766106012688
 31
0.0
  0
LINE
  5
25530
  8
1
 10
317.90231598398549
 20
368.92159308262762
 30
0.0
 11
317.90231598398549
 21
382.39372903762711
 31
0.0
  0
LINE
  5
25531
  8
1
 10
313.6662480064856
 20
368.15766106012688
 30
0.0
 11
327.1383839614852
 21
368.15766106012688
 31
0.0
  0
LINE
  5
25532
  8
1
 10
320.40231598398549
 20
361.42159308262762
 30
0.0
 11
320.40231598398549
 21
374.89372903762711
 31
0.0
  0
LINE
  5
25533
  8
1
 10
311.1662480064856
 20
315.65766106012688
 30
0.0
 11
324.6383839614852
 21
315.65766106012688
 31
0.0
  0
LINE
  5
25534
  8
1
 10
317.90231598398549
 20
308.92159308262762
 30
0.0
 11
317.90231598398549
 21
322.393729037627
 31
0.0
  0
LINE
  5
25535
  8
1
 10
313.6662480064856
 20
323.15766106012688
 30
0.0
 11
327.1383839614852
 21
323.15766106012688
 31
0.0
  0
LINE
  5
25536
  8
1
 10
320.40231598398549
 20
316.42159308262762
 30
0.0
 11
320.40231598398549
 21
329.89372903762711
 31
0.0
  0
LINE
  5
25537
  8
1
 10
388.66624800648577
 20
368.15766106012688
 30
0.0
 11
402.1383839614852
 21
368.15766106012688
 31
0.0
  0
LINE
  5
25538
  8
1
 10
395.40231598398549
 20
361.42159308262762
 30
0.0
 11
395.40231598398549
 21
374.89372903762711
 31
0.0
  0
LINE
  5
25539
  8
1
 10
391.16624800648577
 20
375.65766106012688
 30
0.0
 11
404.6383839614852
 21
375.65766106012688
 31
0.0
  0
LINE
  5
2553A
  8
1
 10
397.90231598398549
 20
368.92159308262762
 30
0.0
 11
397.90231598398549
 21
382.39372903762711
 31
0.0
  0
LINE
  5
2553B
  8
1
 10
388.66624800648577
 20
323.15766106012688
 30
0.0
 11
402.1383839614852
 21
323.15766106012688
 31
0.0
  0
LINE
  5
2553C
  8
1
 10
395.40231598398549
 20
316.42159308262762
 30
0.0
 11
395.40231598398549
 21
329.89372903762711
 31
0.0
  0
LINE
  5
2553D
  8
1
 10
391.16624800648577
 20
315.65766106012688
 30
0.0
 11
404.6383839614852
 21
315.65766106012688
 31
0.0
  0
LINE
  5
2553E
  8
1
 10
397.90231598398549
 20
308.92159308262762
 30
0.0
 11
397.90231598398549
 21
322.393729037627
 31
0.0
  0
LINE
  5
2553F
  8
1
 10
268.72633665374542
 20
141.32567680462171
 30
0.0
 11
369.07829531422539
 21
141.32567680462171
 31
0.0
  0
LINE
  5
25540
  8
1
 10
318.90231598398532
 20
91.14969747438181
 30
0.0
 11
318.90231598398532
 21
181.74417741355771
 31
0.0
  0
LINE
  5
25541
  8
1
 10
82.240394846748131
 20
141.32567680462211
 30
0.0
 11
162.4378184005854
 21
141.32567680462211
 31
0.0
  0
LINE
  5
25542
  8
1
 10
122.33910662366679
 20
91.149697474382265
 30
0.0
 11
122.33910662366679
 21
218.501656134862
 31
0.0
  0
LINE
  5
25543
  8
1
 10
475.36681356750898
 20
141.32567680462211
 30
0.0
 11
555.56423712134631
 21
141.32567680462211
 31
0.0
  0
LINE
  5
25544
  8
1
 10
515.46552534442765
 20
91.149697474382265
 30
0.0
 11
515.46552534442765
 21
218.501656134862
 31
0.0
  0
LINE
  5
25545
  8
0
 10
534.46552534442765
 20
176.0130847600368
 30
0.0
 11
534.46552534442765
 21
185.36826952176071
 31
0.0
  0
LINE
  5
25546
  8
0
 10
496.46552534442759
 20
176.0130847600368
 30
0.0
 11
496.46552534442759
 21
185.36826952176071
 31
0.0
  0
LINE
  5
2554B
  8
0
 10
534.46552534442765
 20
176.0130847600368
 30
0.0
 11
530.46552534442765
 21
176.0130847600368
 31
0.0
  0
LINE
  5
2554C
  8
0
 10
496.46552534442759
 20
176.0130847600368
 30
0.0
 11
500.46552534442759
 21
176.0130847600368
 31
0.0
  0
LINE
  5
2554F
  8
3
 10
546.60052534442764
 20
138.09267680462159
 30
0.0
 11
545.18052534442745
 21
138.09267680462159
 31
0.0
  0
TEXT
  5
255EB
  8
0
 62
     3
 10
0.0
 20
0.0
 30
0.0
 40
10.0
  1
CAF8-080SBF
  7
STANDARD1
  0
ENDSEC
  0
EOF
