  0
SECTION
  2
HEADER
  9
$ACADVER
  1
AC1009
  9
$INSBASE
 10
0.0
 20
0.0
 30
0.0
  9
$EXTMIN
 10
0.0
 20
-2.960436562073669
 30
0.0
  9
$EXTMAX
 10
556.90280345491101
 20
391.23147089944177
 30
0.0
  9
$LIMMIN
 10
0.0
 20
0.0
  9
$LIMMAX
 10
375.0
 20
270.0
  9
$ORTHOMODE
 70
     1
  9
$REGENMODE
 70
     1
  9
$FILLMODE
 70
     1
  9
$QTEXTMODE
 70
     0
  9
$MIRRTEXT
 70
     1
  9
$DRAGMODE
 70
     2
  9
$LTSCALE
 40
10.0
  9
$OSMODE
 70
    37
  9
$ATTMODE
 70
     1
  9
$TEXTSIZE
 40
5.0
  9
$TRACEWID
 40
0.05
  9
$TEXTSTYLE
  7
STANDARD
  9
$CLAYER
  8
0
  9
$CELTYPE
  6
BYLAYER
  9
$CECOLOR
 62
     6
  9
$DIMSCALE
 40
2.0
  9
$DIMASZ
 40
3.0
  9
$DIMEXO
 40
2.0
  9
$DIMDLI
 40
0.38
  9
$DIMRND
 40
0.0
  9
$DIMDLE
 40
0.0
  9
$DIMEXE
 40
2.0
  9
$DIMTP
 40
0.0
  9
$DIMTM
 40
0.0
  9
$DIMTXT
 40
3.2000000000000002
  9
$DIMCEN
 40
0.0
  9
$DIMTSZ
 40
0.0
  9
$DIMTOL
 70
     0
  9
$DIMLIM
 70
     0
  9
$DIMTIH
 70
     0
  9
$DIMTOH
 70
     0
  9
$DIMSE1
 70
     0
  9
$DIMSE2
 70
     0
  9
$DIMTAD
 70
     1
  9
$DIMZIN
 70
     8
  9
$DIMBLK
  1

  9
$DIMASO
 70
     0
  9
$DIMSHO
 70
     0
  9
$DIMPOST
  1

  9
$DIMAPOST
  1

  9
$DIMALT
 70
     0
  9
$DIMALTD
 70
     2
  9
$DIMALTF
 40
25.399999999999999
  9
$DIMLFAC
 40
1.0
  9
$DIMTOFL
 70
     0
  9
$DIMTVP
 40
1.6000000000000001
  9
$DIMTIX
 70
     1
  9
$DIMSOXD
 70
     0
  9
$DIMSAH
 70
     0
  9
$DIMBLK1
  1

  9
$DIMBLK2
  1

  9
$DIMSTYLE
  2
STANDARD
  9
$DIMCLRD
 70
     0
  9
$DIMCLRE
 70
     0
  9
$DIMCLRT
 70
     0
  9
$DIMTFAC
 40
1.0
  9
$DIMGAP
 40
1.1999999999999991
  9
$LUNITS
 70
     2
  9
$LUPREC
 70
     4
  9
$SKETCHINC
 40
0.1
  9
$FILLETRAD
 40
0.0
  9
$AUNITS
 70
     0
  9
$AUPREC
 70
     4
  9
$MENU
  1
ACAD
  9
$ELEVATION
 40
0.0
  9
$PELEVATION
 40
0.0
  9
$THICKNESS
 40
0.0
  9
$LIMCHECK
 70
     0
  9
$BLIPMODE
 70
     0
  9
$CHAMFERA
 40
0.0
  9
$CHAMFERB
 40
0.0
  9
$SKPOLY
 70
     0
  9
$TDCREATE
 40
2448055.7149187499
  9
$TDUPDATE
 40
2459565.4849391789
  9
$TDINDWG
 40
2.4849627315
  9
$TDUSRTIMER
 40
2.4849627315
  9
$USRTIMER
 70
     1
  9
$ANGBASE
 50
0.0
  9
$ANGDIR
 70
     0
  9
$PDMODE
 70
     0
  9
$PDSIZE
 40
0.0
  9
$PLINEWID
 40
0.0
  9
$COORDS
 70
     1
  9
$SPLFRAME
 70
     0
  9
$SPLINETYPE
 70
     6
  9
$SPLINESEGS
 70
     8
  9
$ATTDIA
 70
     0
  9
$ATTREQ
 70
     1
  9
$HANDLING
 70
     1
  9
$HANDSEED
  5
248F8
  9
$SURFTAB1
 70
     6
  9
$SURFTAB2
 70
     6
  9
$SURFTYPE
 70
     6
  9
$SURFU
 70
     6
  9
$SURFV
 70
     6
  9
$UCSNAME
  2

  9
$UCSORG
 10
0.0
 20
0.0
 30
0.0
  9
$UCSXDIR
 10
1.0
 20
0.0
 30
0.0
  9
$UCSYDIR
 10
0.0
 20
1.0
 30
0.0
  9
$PUCSNAME
  2

  9
$PUCSORG
 10
0.0
 20
0.0
 30
0.0
  9
$PUCSXDIR
 10
1.0
 20
0.0
 30
0.0
  9
$PUCSYDIR
 10
0.0
 20
1.0
 30
0.0
  9
$USERI1
 70
     0
  9
$USERI2
 70
     0
  9
$USERI3
 70
     0
  9
$USERI4
 70
     0
  9
$USERI5
 70
     0
  9
$USERR1
 40
0.0
  9
$USERR2
 40
0.0
  9
$USERR3
 40
0.0
  9
$USERR4
 40
0.0
  9
$USERR5
 40
0.0
  9
$WORLDVIEW
 70
     1
  9
$SHADEDGE
 70
     3
  9
$SHADEDIF
 70
    70
  9
$TILEMODE
 70
     1
  9
$MAXACTVP
 70
    16
  9
$PLIMCHECK
 70
     0
  9
$PEXTMIN
 10
1.0000000000000000E+020
 20
1.0000000000000000E+020
 30
1.0000000000000000E+020
  9
$PEXTMAX
 10
-1.0000000000000000E+020
 20
-1.0000000000000000E+020
 30
-1.0000000000000000E+020
  9
$PLIMMIN
 10
0.0
 20
0.0
  9
$PLIMMAX
 10
12.0
 20
9.0
  9
$UNITMODE
 70
     0
  9
$VISRETAIN
 70
     0
  9
$PLINEGEN
 70
     1
  9
$PSLTSCALE
 70
     0
  0
ENDSEC
  0
SECTION
  2
TABLES
  0
TABLE
  2
VPORT
 70
     1
  0
VPORT
  2
*ACTIVE
 70
     0
 10
0.0
 20
0.0
 11
1.0
 21
1.0
 12
462.04361667223742
 22
194.1382347042898
 13
0.0
 23
0.0
 14
5.0
 24
5.0
 15
10.0
 25
10.0
 16
0.0
 26
0.0
 36
1.0
 17
0.0
 27
0.0
 37
0.0
 40
397.77701447955019
 41
2.3805970149253728
 42
50.0
 43
0.0
 44
0.0
 50
0.0
 51
0.0
 71
     0
 72
   500
 73
     1
 74
     1
 75
     0
 76
     0
 77
     0
 78
     2
  0
ENDTAB
  0
TABLE
  2
LTYPE
 70
     4
  0
LTYPE
  2
CONTINUOUS
 70
     0
  3
実線
 72
    65
 73
     0
 40
0.0
  0
LTYPE
  2
CENTER
 70
     0
  3
____ _ ____ _ ____ _ ____ _ ____ _ ____ _ ____
 72
    65
 73
     4
 40
2.0
 49
1.25
 49
-0.25
 49
0.25
 49
-0.25
  0
LTYPE
  2
HIDDEN
 70
     0
  3
_ _ _ _ _ _ _ _ _ _ _ _ _ _ _ _ _ _ _ _ _ _ _
 72
    65
 73
     2
 40
0.375
 49
0.25
 49
-0.125
  0
LTYPE
  2
PHANTOM2
 70
     0
  3
___ _ _ ___ _ _ ___ _ _ ___ _ _
 72
    65
 73
     6
 40
1.25
 49
0.625
 49
-0.125
 49
0.125
 49
-0.125
 49
0.125
 49
-0.125
  0
ENDTAB
  0
TABLE
  2
LAYER
 70
     5
  0
LAYER
  2
0
 70
     0
 62
     7
  6
CONTINUOUS
  0
LAYER
  2
1
 70
     0
 62
     1
  6
CENTER
  0
LAYER
  2
2
 70
     0
 62
     2
  6
HIDDEN
  0
LAYER
  2
DEFPOINTS
 70
     0
 62
     7
  6
CONTINUOUS
  0
LAYER
  2
3
 70
     0
 62
     3
  6
CONTINUOUS
  0
ENDTAB
  0
TABLE
  2
STYLE
 70
     3
  0
STYLE
  2
STANDARD
 70
     0
 40
0.0
 41
1.0
 50
0.0
 71
     0
 42
5.0
  3
simplex.shx
  4
bigfont.shx
  0
STYLE
  2
07500
 70
     0
 40
0.0
 41
0.75
 50
0.0
 71
     0
 42
0.2
  3
simplex.shx
  4
bigfont.shx
  0
STYLE
  2
STANDARD1
 70
     0
 40
0.0
 41
1.0
 50
0.0
 71
     0
 42
3.0
  3
txt
  4

  0
ENDTAB
  0
TABLE
  2
VIEW
 70
     2
  0
VIEW
  2
ALL
 70
     0
 40
270.0
 10
220.99159663865549
 20
135.0
 41
0.0
 11
0.0
 21
0.0
 31
1.0
 12
0.0
 22
0.0
 32
0.0
 42
0.0
 43
0.0
 44
0.0
 50
0.0
 71
     0
  0
VIEW
  2
OLE1
 70
     0
 40
168.2487151179721
 10
2892.3009567448912
 20
702.51600084347126
 41
162.5749581879237
 11
0.0
 21
0.0
 31
1.0
 12
0.0
 22
0.0
 32
0.0
 42
50.0
 43
0.0
 44
0.0
 50
0.0
 71
     0
  0
ENDTAB
  0
TABLE
  2
UCS
 70
     0
  0
ENDTAB
  0
TABLE
  2
APPID
 70
    48
  0
APPID
  2
ACAD
 70
     0
  0
APPID
  2
DCO15
 70
     0
  0
APPID
  2
GENIUS_GENOREF_13
 70
     0
  0
APPID
  2
GENIUS_GENOENT_13
 70
     0
  0
APPID
  2
GENIUS_GENBH_13
 70
     0
  0
APPID
  2
GENIUS_GENOBJ_13
 70
     0
  0
APPID
  2
GENIUS_GENODEF_13
 70
     0
  0
APPID
  2
GENIUS_GENOLIS_13
 70
     0
  0
APPID
  2
GENIUS_GENOBJ-NBEHI-BHF_13
 70
     0
  0
APPID
  2
GENIUS_GENOBJ-NBEHI-BHB_13
 70
     0
  0
APPID
  2
GENIUS_GENOBJ-F-PART_13
 70
     0
  0
APPID
  2
GENIUS_GEFSTDP_13
 70
     0
  0
APPID
  2
GENIUS_GENOBJ-N-RSSYM_13
 70
     0
  0
APPID
  2
GENIUS_GENSYMENT_13
 70
     0
  0
APPID
  2
GENIUS_GENOBJ-N-TIT_13
 70
     0
  0
APPID
  2
GENIUS_GENTITLE_13
 70
     0
  0
APPID
  2
GENIUS_GENZVEED_13
 70
     0
  0
APPID
  2
GENIUS_GENOBJ-N-LEADER_13
 70
     0
  0
APPID
  2
GENIUS_GENOBJ-N-FIL_13
 70
     0
  0
APPID
  2
GENIUS_GENOBJ-N-SEC_13
 70
     0
  0
APPID
  2
GENIUS_GENOBJ-N-CRS_13
 70
     0
  0
APPID
  2
GENIUS_GENOBJ-N-ZOO_13
 70
     0
  0
APPID
  2
GENIUS_GENZOO_13
 70
     0
  0
APPID
  2
GENIUS_GENOBJ-F-TOL_13
 70
     0
  0
APPID
  2
GENIUS_GENFIL_13
 70
     0
  0
APPID
  2
GENIUS_GENOBJ-N-CHA_13
 70
     0
  0
APPID
  2
_CALL_MAC$
 70
     0
  0
APPID
  2
ASM_BASE
 70
     0
  0
APPID
  2
ASM_EXPLO_VER_2_00
 70
     0
  0
APPID
  2
ASM_CADM_VER_12_00
 70
     0
  0
APPID
  2
ASM_BASEFORO
 70
     0
  0
APPID
  2
ASM_BASETRAVI
 70
     0
  0
APPID
  2
ASM_BASETRAVI1
 70
     0
  0
APPID
  2
ASM_GRUPPI
 70
     0
  0
APPID
  2
ASM_CADM_ALBERO
 70
     0
  0
APPID
  2
ASM_GOLE
 70
     0
  0
APPID
  2
ACAD_MLEADERVER
 70
     0
  0
APPID
  2
ACAD_DSTYLE_DIMJAG
 70
     0
  0
APPID
  2
ACAD_DSTYLE_DIMTALN
 70
     0
  0
APPID
  2
ACAD_EXEMPT_FROM_CAD_STANDARDS
 70
     0
  0
APPID
  2
ACAD_DSTYLE_DIMRADIAL_EXTENSION
 70
     0
  0
APPID
  2
ACAD_PSEXT
 70
     0
  0
APPID
  2
ACAD_DSTYLE_DIMBREAK
 70
     0
  0
APPID
  2
ACAECLAYERSTANDARD
 70
     0
  0
APPID
  2
ACCMTRANSPARENCY
 70
     0
  0
APPID
  2
GRADIENTCOLOR1ACI
 70
     0
  0
APPID
  2
GRADIENTCOLOR2ACI
 70
     0
  0
APPID
  2
ACAD_NAV_VCDISPLAY
 70
     0
  0
ENDTAB
  0
TABLE
  2
DIMSTYLE
 70
     1
  0
DIMSTYLE
  2
STANDARD
 70
     0
  3

  4

  5

  6

  7

 40
1.0
 41
0.18
 42
0.0625
 43
0.38
 44
0.18
 45
0.0
 46
0.0
 47
0.0
 48
0.0
140
0.18
141
0.09
142
0.0
143
25.399999999999999
144
1.0
145
0.0
146
1.0
147
0.09
 71
     0
 72
     0
 73
     1
 74
     1
 75
     0
 76
     0
 77
     0
 78
     0
170
     0
171
     2
172
     0
173
     0
174
     0
175
     0
176
     0
177
     0
178
     0
  0
ENDTAB
  0
ENDSEC
  0
SECTION
  2
BLOCKS
  0
BLOCK
  8
0
  2
$MODEL_SPACE
 70
     0
 10
0.0
 20
0.0
 30
0.0
  3
$MODEL_SPACE
  1

  0
ENDBLK
  5
36
  8
0
  0
BLOCK
 67
     1
  8
0
  2
$PAPER_SPACE
 70
     0
 10
0.0
 20
0.0
 30
0.0
  3
$PAPER_SPACE
  1

  0
ENDBLK
  5
34
 67
     1
  8
0
  0
ENDSEC
  0
SECTION
  2
ENTITIES
  0
LINE
  5
1C68B
  8
0
 10
155.33910662366719
 20
162.40567443857711
 30
0.0
 11
155.33910662366719
 21
196.5256768046215
 31
0.0
  0
LINE
  5
1C68C
  8
0
 10
89.339106623667249
 20
196.5256768046215
 30
0.0
 11
89.339106623667249
 21
162.40567443857711
 31
0.0
  0
ARC
  5
1C68F
  8
0
 10
94.314106623667143
 20
202.0256768046215
 30
0.0
 40
2.9999999999999778
 50
90.0
 51
180.0
  0
ARC
  5
1C690
  8
0
 10
150.36410662366731
 20
202.0256768046215
 30
0.0
 40
2.999999999999992
 50
0.0
 51
90.0
  0
LINE
  5
1C691
  8
0
 10
153.36410662366731
 20
201.5256768046215
 30
0.0
 11
153.36410662366731
 21
202.0256768046215
 31
0.0
  0
LINE
  5
1C692
  8
0
 10
91.314106623667158
 20
202.0256768046215
 30
0.0
 11
91.314106623667158
 21
201.5256768046215
 31
0.0
  0
ARC
  5
1C693
  8
0
 10
89.839106623667234
 20
197.5256768046215
 30
0.0
 40
4.0000000000000142
 50
90.0
 51
180.0
  0
ARC
  5
1C694
  8
0
 10
154.83910662366719
 20
197.5256768046215
 30
0.0
 40
4.0000000000000142
 50
0.0
 51
90.0
  0
LINE
  5
1C695
  8
0
 10
158.83910662366719
 20
196.5256768046215
 30
0.0
 11
158.83910662366719
 21
197.5256768046215
 31
0.0
  0
LINE
  5
1C696
  8
0
 10
85.839106623667234
 20
197.5256768046215
 30
0.0
 11
85.839106623667234
 21
196.5256768046215
 31
0.0
  0
LINE
  5
1C699
  8
0
 10
96.839106623667249
 20
194.5256768046215
 30
0.0
 11
147.83910662366719
 21
194.5256768046215
 31
0.0
  0
LINE
  5
1C69B
  8
0
 10
147.83910662366719
 20
190.82567680462171
 30
0.0
 11
96.839106623667249
 21
190.82567680462171
 31
0.0
  0
LINE
  5
1C69D
  8
0
 10
147.83910662366719
 20
194.5256768046215
 30
0.0
 11
147.83910662366719
 21
131.32567680462171
 31
0.0
  0
LINE
  5
1C69E
  8
0
 10
147.83910662366719
 20
131.32567680462171
 30
0.0
 11
144.83910662366719
 21
131.32567680462171
 31
0.0
  0
LINE
  5
1C69F
  8
0
 10
96.839106623667249
 20
131.32567680462171
 30
0.0
 11
96.839106623667249
 21
194.5256768046215
 31
0.0
  0
LINE
  5
1C6A1
  8
0
 10
99.839106623667234
 20
131.32567680462171
 30
0.0
 11
96.839106623667249
 21
131.32567680462171
 31
0.0
  0
POLYLINE
  5
1C6A6
  8
0
 66
     1
 10
0.0
 20
0.0
 30
0.0
  0
VERTEX
  5
2450A
  8
0
 10
144.83829778715059
 20
183.69670486433961
 30
0.0
  0
VERTEX
  5
2450B
  8
0
 10
144.61886046999501
 20
183.94197999025249
 30
0.0
  0
VERTEX
  5
2450C
  8
0
 10
144.17250751551001
 20
184.4252501187097
 30
0.0
  0
VERTEX
  5
2450D
  8
0
 10
143.7163509500501
 20
184.89863304018209
 30
0.0
  0
VERTEX
  5
2450E
  8
0
 10
143.4846601509239
 20
185.13155019790969
 30
0.0
  0
VERTEX
  5
2450F
  8
0
 10
143.25059559656299
 20
185.36191619676259
 30
0.0
  0
VERTEX
  5
24510
  8
0
 10
142.7754505880325
 20
185.8148915655301
 30
0.0
  0
VERTEX
  5
24511
  8
0
 10
142.2911292735771
 20
186.25735575195489
 30
0.0
  0
VERTEX
  5
24512
  8
0
 10
141.7978491226495
 20
186.6891100812276
 30
0.0
  0
VERTEX
  5
24513
  8
0
 10
141.2958316273907
 20
187.10996068746911
 30
0.0
  0
VERTEX
  5
24514
  8
0
 10
140.7853022031745
 20
187.51971860077671
 30
0.0
  0
VERTEX
  5
24515
  8
0
 10
140.52691700789771
 20
187.7203801041569
 30
0.0
  0
VERTEX
  5
24516
  8
0
 10
140.26649008739241
 20
187.91819983207819
 30
0.0
  0
VERTEX
  5
24517
  8
0
 10
139.73962823652161
 20
188.30522545574561
 30
0.0
  0
VERTEX
  5
24518
  8
0
 10
139.20495322152189
 20
188.6806216899358
 30
0.0
  0
VERTEX
  5
24519
  8
0
 10
138.6627051216137
 20
189.0442199746212
 30
0.0
  0
VERTEX
  5
2451A
  8
0
 10
138.11312741647501
 20
189.39585704727821
 30
0.0
  0
VERTEX
  5
2451B
  8
0
 10
137.55646687691521
 20
189.73537501619461
 30
0.0
  0
VERTEX
  5
2451C
  8
0
 10
137.2755585327854
 20
189.90054148166789
 30
0.0
  0
VERTEX
  5
2451D
  8
0
 10
136.99297345407149
 20
190.06262143136431
 30
0.0
  0
VERTEX
  5
2451E
  8
0
 10
136.4229001671751
 20
190.37744935294171
 30
0.0
  0
VERTEX
  5
2451F
  8
0
 10
135.84650298994069
 20
190.67971741722161
 30
0.0
  0
VERTEX
  5
24520
  8
0
 10
135.5560137138404
 20
190.82609886711501
 30
0.0
  0
SEQEND
  5
24521
  8
0
  0
POLYLINE
  5
1C6A8
  8
0
 66
     1
 10
0.0
 20
0.0
 30
0.0
  0
VERTEX
  5
24522
  8
0
 10
109.1221995334936
 20
190.82609886711501
 30
0.0
  0
VERTEX
  5
24523
  8
0
 10
108.8317102573933
 20
190.67971741722161
 30
0.0
  0
VERTEX
  5
24524
  8
0
 10
108.2553130801588
 20
190.37744935294171
 30
0.0
  0
VERTEX
  5
24525
  8
0
 10
107.6852397932625
 20
190.06262143136431
 30
0.0
  0
VERTEX
  5
24526
  8
0
 10
107.4026547145486
 20
189.90054148166789
 30
0.0
  0
VERTEX
  5
24527
  8
0
 10
107.1217463704192
 20
189.73537501619461
 30
0.0
  0
VERTEX
  5
24528
  8
0
 10
106.5650858308595
 20
189.39585704727821
 30
0.0
  0
VERTEX
  5
24529
  8
0
 10
106.0155081257203
 20
189.0442199746212
 30
0.0
  0
VERTEX
  5
2452A
  8
0
 10
105.4732600258121
 20
188.68062168993529
 30
0.0
  0
VERTEX
  5
2452B
  8
0
 10
104.9385850108128
 20
188.30522545574561
 30
0.0
  0
VERTEX
  5
2452C
  8
0
 10
104.4117231599416
 20
187.91819983207819
 30
0.0
  0
VERTEX
  5
2452D
  8
0
 10
104.15129623943631
 20
187.7203801041569
 30
0.0
  0
VERTEX
  5
2452E
  8
0
 10
103.8929110441595
 20
187.51971860077671
 30
0.0
  0
VERTEX
  5
2452F
  8
0
 10
103.3823816199433
 20
187.10996068746911
 30
0.0
  0
VERTEX
  5
24530
  8
0
 10
102.8803641246845
 20
186.6891100812276
 30
0.0
  0
VERTEX
  5
24531
  8
0
 10
102.3870839737574
 20
186.25735575195489
 30
0.0
  0
VERTEX
  5
24532
  8
0
 10
101.902762659302
 20
185.8148915655301
 30
0.0
  0
VERTEX
  5
24533
  8
0
 10
101.4276176507715
 20
185.36191619676259
 30
0.0
  0
VERTEX
  5
24534
  8
0
 10
101.1935530964101
 20
185.13155019790969
 30
0.0
  0
VERTEX
  5
24535
  8
0
 10
100.9618622972839
 20
184.89863304018209
 30
0.0
  0
VERTEX
  5
24536
  8
0
 10
100.50570573182451
 20
184.4252501187097
 30
0.0
  0
VERTEX
  5
24537
  8
0
 10
100.0593527773394
 20
183.94197999025249
 30
0.0
  0
VERTEX
  5
24538
  8
0
 10
99.839915460183875
 20
183.6967048643391
 30
0.0
  0
SEQEND
  5
24539
  8
0
  0
LINE
  5
1C6AD
  8
0
 10
144.83910662366719
 20
190.82567680462171
 30
0.0
 11
144.83910662366719
 21
131.32567680462171
 31
0.0
  0
LINE
  5
1C6AE
  8
0
 10
99.839106623667234
 20
131.32567680462171
 30
0.0
 11
99.839106623667234
 21
190.82567680462171
 31
0.0
  0
POLYLINE
  5
1C6B0
  8
0
 66
     1
 10
0.0
 20
0.0
 30
0.0
  0
VERTEX
  5
2453A
  8
0
 10
89.339106623667249
 20
162.40567443857711
 30
0.0
  0
VERTEX
  5
2453B
  8
0
 10
89.341332375222919
 20
162.0093981378059
 30
0.0
  0
VERTEX
  5
2453C
  8
0
 10
89.359136586265322
 20
161.21705935028689
 30
0.0
  0
VERTEX
  5
2453D
  8
0
 10
89.394735401946036
 20
160.425361889474
 30
0.0
  0
VERTEX
  5
2453E
  8
0
 10
89.41920215894379
 20
160.02988716598199
 30
0.0
  0
VERTEX
  5
2453F
  8
0
 10
89.448109614642817
 20
159.63473292201789
 30
0.0
  0
VERTEX
  5
24540
  8
0
 10
89.519230425873957
 20
158.84559903805351
 30
0.0
  0
VERTEX
  5
24541
  8
0
 10
89.608059461842458
 20
158.05838602103219
 30
0.0
  0
VERTEX
  5
24542
  8
0
 10
89.714548794136135
 20
157.27351861798701
 30
0.0
  0
VERTEX
  5
24543
  8
0
 10
89.838640965590443
 20
156.49142031035529
 30
0.0
  0
VERTEX
  5
24544
  8
0
 10
89.980269021289587
 20
155.7125130854879
 30
0.0
  0
VERTEX
  5
24545
  8
0
 10
90.057635494063561
 20
155.3243875355474
 30
0.0
  0
VERTEX
  5
24546
  8
0
 10
90.139356544691495
 20
154.93721720896059
 30
0.0
  0
VERTEX
  5
24547
  8
0
 10
90.315817698859973
 20
154.1659509978185
 30
0.0
  0
VERTEX
  5
24548
  8
0
 10
90.509557272778224
 20
153.39913059486841
 30
0.0
  0
VERTEX
  5
24549
  8
0
 10
90.720470732721864
 20
152.63716974414589
 30
0.0
  0
VERTEX
  5
2454A
  8
0
 10
90.948444278659267
 20
151.8804795676769
 30
0.0
  0
VERTEX
  5
2454B
  8
0
 10
91.193354905652996
 20
151.12946834365221
 30
0.0
  0
VERTEX
  5
2454C
  8
0
 10
91.322120684769288
 20
150.75621909388559
 30
0.0
  0
VERTEX
  5
2454D
  8
0
 10
91.455070470231476
 20
150.3845412861406
 30
0.0
  0
VERTEX
  5
2454E
  8
0
 10
91.733449761683005
 20
149.6461003264485
 30
0.0
  0
VERTEX
  5
2454F
  8
0
 10
92.028342578251795
 20
148.91454389625821
 30
0.0
  0
VERTEX
  5
24550
  8
0
 10
92.181932181762477
 20
148.55147087975271
 30
0.0
  0
SEQEND
  5
24551
  8
0
  0
POLYLINE
  5
1C6B3
  8
0
 66
     1
 10
0.0
 20
0.0
 30
0.0
  0
VERTEX
  5
24552
  8
0
 10
152.49628106557199
 20
148.55147087975271
 30
0.0
  0
VERTEX
  5
24553
  8
0
 10
152.64987066908219
 20
148.91454389625821
 30
0.0
  0
VERTEX
  5
24554
  8
0
 10
152.94476348565101
 20
149.6461003264485
 30
0.0
  0
VERTEX
  5
24555
  8
0
 10
153.22314277710299
 20
150.3845412861406
 30
0.0
  0
VERTEX
  5
24556
  8
0
 10
153.3560925625647
 20
150.75621909388559
 30
0.0
  0
VERTEX
  5
24557
  8
0
 10
153.48485834168099
 20
151.1294683436526
 30
0.0
  0
VERTEX
  5
24558
  8
0
 10
153.72976896867519
 20
151.8804795676769
 30
0.0
  0
VERTEX
  5
24559
  8
0
 10
153.95774251461211
 20
152.63716974414589
 30
0.0
  0
VERTEX
  5
2455A
  8
0
 10
154.1686559745558
 20
153.39913059486841
 30
0.0
  0
VERTEX
  5
2455B
  8
0
 10
154.3623955484745
 20
154.1659509978185
 30
0.0
  0
VERTEX
  5
2455C
  8
0
 10
154.53885670264299
 20
154.93721720896059
 30
0.0
  0
VERTEX
  5
2455D
  8
0
 10
154.62057775327091
 20
155.3243875355474
 30
0.0
  0
VERTEX
  5
2455E
  8
0
 10
154.69794422604491
 20
155.7125130854879
 30
0.0
  0
VERTEX
  5
2455F
  8
0
 10
154.83957228174361
 20
156.49142031035529
 30
0.0
  0
VERTEX
  5
24560
  8
0
 10
154.96366445319791
 20
157.27351861798701
 30
0.0
  0
VERTEX
  5
24561
  8
0
 10
155.07015378549161
 20
158.05838602103219
 30
0.0
  0
VERTEX
  5
24562
  8
0
 10
155.15898282146
 20
158.84559903805351
 30
0.0
  0
VERTEX
  5
24563
  8
0
 10
155.23010363269159
 20
159.63473292201789
 30
0.0
  0
VERTEX
  5
24564
  8
0
 10
155.25901108839071
 20
160.02988716598199
 30
0.0
  0
VERTEX
  5
24565
  8
0
 10
155.28347784538801
 20
160.425361889474
 30
0.0
  0
VERTEX
  5
24566
  8
0
 10
155.3190766610692
 20
161.21705935028689
 30
0.0
  0
VERTEX
  5
24567
  8
0
 10
155.33688087211149
 20
162.0093981378059
 30
0.0
  0
VERTEX
  5
24568
  8
0
 10
155.33910662366719
 20
162.40567443857711
 30
0.0
  0
SEQEND
  5
24569
  8
0
  0
LINE
  5
1C6B6
  8
0
 10
94.314106623667143
 20
205.0256768046215
 30
0.0
 11
150.36410662366731
 21
205.0256768046215
 31
0.0
  0
LINE
  5
1C6B8
  8
0
 10
89.839106623667234
 20
201.5256768046215
 30
0.0
 11
154.83910662366719
 21
201.5256768046215
 31
0.0
  0
LINE
  5
1C6BA
  8
0
 10
85.839106623667234
 20
196.5256768046215
 30
0.0
 11
158.83910662366719
 21
196.5256768046215
 31
0.0
  0
LINE
  5
1C6BC
  8
0
 10
147.83910662366719
 20
135.5106768046216
 30
0.0
 11
148.4391066236671
 21
135.5106768046216
 31
0.0
  0
LINE
  5
1C6BD
  8
0
 10
148.4391066236671
 20
147.14067680462131
 30
0.0
 11
147.83910662366719
 21
147.14067680462131
 31
0.0
  0
LINE
  5
1C6BE
  8
0
 10
86.606106623667074
 20
137.32567680462171
 30
0.0
 11
88.839106623667249
 21
137.32567680462171
 31
0.0
  0
LINE
  5
1C6BF
  8
0
 10
88.839106623667249
 20
145.32567680462171
 30
0.0
 11
86.606106623667074
 21
145.32567680462171
 31
0.0
  0
LINE
  5
1C6C0
  8
0
 10
85.839106623667234
 20
138.0926768046215
 30
0.0
 11
86.606106623667074
 21
137.32567680462171
 31
0.0
  0
LINE
  5
1C6C1
  8
0
 10
86.606106623667074
 20
145.32567680462171
 30
0.0
 11
85.839106623667234
 21
144.5586768046214
 31
0.0
  0
LINE
  5
1C6C2
  8
0
 10
152.87968691425161
 20
134.09917593526461
 30
0.0
 11
153.139106623667
 21
135.06734347128801
 31
0.0
  0
LINE
  5
1C6C3
  8
0
 10
153.139106623667
 20
147.58401013795489
 30
0.0
 11
152.87968691425161
 21
148.55217767397829
 31
0.0
  0
LINE
  5
1C6C4
  8
0
 10
148.4391066236671
 20
135.06734347128801
 30
0.0
 11
148.6985263330825
 21
134.09917593526461
 31
0.0
  0
LINE
  5
1C6C5
  8
0
 10
148.6985263330825
 20
148.55217767397829
 30
0.0
 11
148.4391066236671
 21
147.58401013795489
 31
0.0
  0
LINE
  5
1C6C8
  8
0
 10
88.839106623667249
 20
135.5106768046216
 30
0.0
 11
91.339106623667249
 21
135.5106768046216
 31
0.0
  0
LINE
  5
1C6C9
  8
0
 10
91.339106623667249
 20
147.14067680462131
 30
0.0
 11
88.839106623667249
 21
147.14067680462131
 31
0.0
  0
LINE
  5
1C6CA
  8
0
 10
96.579686914251852
 20
134.09917593526461
 30
0.0
 11
96.839106623667249
 21
135.06734347128801
 31
0.0
  0
LINE
  5
1C6CB
  8
0
 10
96.839106623667249
 20
147.58401013795489
 30
0.0
 11
96.579686914251852
 21
148.55217767397829
 31
0.0
  0
LINE
  5
1C6CC
  8
0
 10
91.339106623667249
 20
135.06734347128801
 30
0.0
 11
91.598526333082646
 21
134.09917593526461
 31
0.0
  0
LINE
  5
1C6CD
  8
0
 10
91.598526333082646
 20
148.55217767397829
 30
0.0
 11
91.339106623667249
 21
147.58401013795489
 31
0.0
  0
LINE
  5
1C6D0
  8
0
 10
99.839106623667234
 20
135.32567680462171
 30
0.0
 11
107.33910662366721
 21
135.32567680462171
 31
0.0
  0
LINE
  5
1C6D2
  8
0
 10
137.33910662366719
 20
135.32567680462171
 30
0.0
 11
144.83910662366719
 21
135.32567680462171
 31
0.0
  0
LINE
  5
1C6D3
  8
0
 10
144.83910662366719
 20
147.32567680462171
 30
0.0
 11
137.33910662366719
 21
147.32567680462171
 31
0.0
  0
LINE
  5
1C6D5
  8
0
 10
107.33910662366721
 20
147.32567680462171
 30
0.0
 11
99.839106623667234
 21
147.32567680462171
 31
0.0
  0
LINE
  5
1C6D6
  8
0
 10
86.606106623667074
 20
145.32567680462171
 30
0.0
 11
86.606106623667074
 21
137.32567680462171
 31
0.0
  0
LINE
  5
1C6D7
  8
0
 10
85.839106623667234
 20
144.5586768046214
 30
0.0
 11
85.839106623667234
 21
138.0926768046215
 31
0.0
  0
LINE
  5
1C6D8
  8
0
 10
153.139106623667
 20
147.58401013795489
 30
0.0
 11
153.139106623667
 21
135.06734347128801
 31
0.0
  0
LINE
  5
1C6D9
  8
0
 10
148.4391066236671
 20
147.58401013795489
 30
0.0
 11
148.4391066236671
 21
135.06734347128801
 31
0.0
  0
LINE
  5
1C6DE
  8
0
 10
152.87968691425161
 20
148.55217767397829
 30
0.0
 11
148.6985263330825
 21
148.55217767397829
 31
0.0
  0
POLYLINE
  5
1C6DF
  8
0
 66
     1
 10
0.0
 20
0.0
 30
0.0
  0
VERTEX
  5
2456A
  8
0
 10
152.87968691425161
 20
148.55217767397829
 30
0.0
  0
VERTEX
  5
2456B
  8
0
 10
152.9605315675098
 20
148.2276037783063
 30
0.0
  0
VERTEX
  5
2456C
  8
0
 10
153.0751419062631
 20
147.61804319953441
 30
0.0
  0
VERTEX
  5
2456D
  8
0
 10
153.13191649004739
 20
147.03563502795851
 30
0.0
  0
VERTEX
  5
2456E
  8
0
 10
153.139106623667
 20
146.7455524566389
 30
0.0
  0
SEQEND
  5
2456F
  8
0
  0
POLYLINE
  5
1C6E0
  8
0
 66
     1
 10
0.0
 20
0.0
 30
0.0
  0
VERTEX
  5
24570
  8
0
 10
153.139106623667
 20
146.7455524566389
 30
0.0
  0
VERTEX
  5
24571
  8
0
 10
153.13191649004739
 20
146.45546988531979
 30
0.0
  0
VERTEX
  5
24572
  8
0
 10
153.0751419062631
 20
145.87306171374391
 30
0.0
  0
VERTEX
  5
24573
  8
0
 10
152.9605315675098
 20
145.2635011349721
 30
0.0
  0
VERTEX
  5
24574
  8
0
 10
152.87968691425161
 20
144.9389272393
 30
0.0
  0
SEQEND
  5
24575
  8
0
  0
POLYLINE
  5
1C6E1
  8
0
 66
     1
 10
0.0
 20
0.0
 30
0.0
  0
VERTEX
  5
24576
  8
0
 10
148.6985263330825
 20
144.9389272393
 30
0.0
  0
VERTEX
  5
24577
  8
0
 10
148.6176816798247
 20
145.2635011349721
 30
0.0
  0
VERTEX
  5
24578
  8
0
 10
148.50307134107149
 20
145.87306171374391
 30
0.0
  0
VERTEX
  5
24579
  8
0
 10
148.4462967572872
 20
146.45546988531979
 30
0.0
  0
VERTEX
  5
2457A
  8
0
 10
148.4391066236671
 20
146.7455524566389
 30
0.0
  0
SEQEND
  5
2457B
  8
0
  0
POLYLINE
  5
1C6E2
  8
0
 66
     1
 10
0.0
 20
0.0
 30
0.0
  0
VERTEX
  5
2457C
  8
0
 10
148.4391066236671
 20
146.7455524566389
 30
0.0
  0
VERTEX
  5
2457D
  8
0
 10
148.4462967572872
 20
147.03563502795851
 30
0.0
  0
VERTEX
  5
2457E
  8
0
 10
148.50307134107149
 20
147.61804319953441
 30
0.0
  0
VERTEX
  5
2457F
  8
0
 10
148.6176816798247
 20
148.2276037783063
 30
0.0
  0
VERTEX
  5
24580
  8
0
 10
148.6985263330825
 20
148.55217767397829
 30
0.0
  0
SEQEND
  5
24581
  8
0
  0
LINE
  5
1C6E3
  8
0
 10
152.87968691425161
 20
144.9389272393
 30
0.0
 11
148.6985263330825
 21
144.9389272393
 31
0.0
  0
POLYLINE
  5
1C6E4
  8
0
 66
     1
 10
0.0
 20
0.0
 30
0.0
  0
VERTEX
  5
24582
  8
0
 10
152.87968691425161
 20
144.9389272393
 30
0.0
  0
VERTEX
  5
24583
  8
0
 10
152.9605315675098
 20
144.2897794479554
 30
0.0
  0
VERTEX
  5
24584
  8
0
 10
153.0751419062631
 20
143.0706582904117
 30
0.0
  0
VERTEX
  5
24585
  8
0
 10
153.13191649004739
 20
141.90584194726031
 30
0.0
  0
VERTEX
  5
24586
  8
0
 10
153.139106623667
 20
141.32567680462171
 30
0.0
  0
SEQEND
  5
24587
  8
0
  0
POLYLINE
  5
1C6E5
  8
0
 66
     1
 10
0.0
 20
0.0
 30
0.0
  0
VERTEX
  5
24588
  8
0
 10
153.139106623667
 20
141.32567680462171
 30
0.0
  0
VERTEX
  5
24589
  8
0
 10
153.13191649004739
 20
140.74551166198259
 30
0.0
  0
VERTEX
  5
2458A
  8
0
 10
153.0751419062631
 20
139.5806953188312
 30
0.0
  0
VERTEX
  5
2458B
  8
0
 10
152.9605315675098
 20
138.36157416128751
 30
0.0
  0
VERTEX
  5
2458C
  8
0
 10
152.87968691425161
 20
137.7124263699429
 30
0.0
  0
SEQEND
  5
2458D
  8
0
  0
POLYLINE
  5
1C6E6
  8
0
 66
     1
 10
0.0
 20
0.0
 30
0.0
  0
VERTEX
  5
2458E
  8
0
 10
148.6985263330825
 20
137.7124263699429
 30
0.0
  0
VERTEX
  5
2458F
  8
0
 10
148.6176816798247
 20
138.36157416128751
 30
0.0
  0
VERTEX
  5
24590
  8
0
 10
148.50307134107149
 20
139.5806953188312
 30
0.0
  0
VERTEX
  5
24591
  8
0
 10
148.4462967572872
 20
140.74551166198259
 30
0.0
  0
VERTEX
  5
24592
  8
0
 10
148.4391066236671
 20
141.32567680462171
 30
0.0
  0
SEQEND
  5
24593
  8
0
  0
POLYLINE
  5
1C6E7
  8
0
 66
     1
 10
0.0
 20
0.0
 30
0.0
  0
VERTEX
  5
24594
  8
0
 10
148.4391066236671
 20
141.32567680462171
 30
0.0
  0
VERTEX
  5
24595
  8
0
 10
148.4462967572872
 20
141.90584194726031
 30
0.0
  0
VERTEX
  5
24596
  8
0
 10
148.50307134107149
 20
143.0706582904117
 30
0.0
  0
VERTEX
  5
24597
  8
0
 10
148.6176816798247
 20
144.2897794479554
 30
0.0
  0
VERTEX
  5
24598
  8
0
 10
148.6985263330825
 20
144.9389272393
 30
0.0
  0
SEQEND
  5
24599
  8
0
  0
POLYLINE
  5
1C6EC
  8
0
 66
     1
 10
0.0
 20
0.0
 30
0.0
  0
VERTEX
  5
2459A
  8
0
 10
148.4391066236671
 20
135.905801152604
 30
0.0
  0
VERTEX
  5
2459B
  8
0
 10
148.4462967572872
 20
136.19588372392349
 30
0.0
  0
VERTEX
  5
2459C
  8
0
 10
148.50307134107149
 20
136.778291895499
 30
0.0
  0
VERTEX
  5
2459D
  8
0
 10
148.6176816798247
 20
137.3878524742708
 30
0.0
  0
VERTEX
  5
2459E
  8
0
 10
148.6985263330825
 20
137.7124263699429
 30
0.0
  0
SEQEND
  5
2459F
  8
0
  0
LINE
  5
1C6ED
  8
0
 10
152.87968691425161
 20
137.7124263699429
 30
0.0
 11
148.6985263330825
 21
137.7124263699429
 31
0.0
  0
POLYLINE
  5
1C6EE
  8
0
 66
     1
 10
0.0
 20
0.0
 30
0.0
  0
VERTEX
  5
245A0
  8
0
 10
152.87968691425161
 20
137.7124263699429
 30
0.0
  0
VERTEX
  5
245A1
  8
0
 10
152.9605315675098
 20
137.3878524742708
 30
0.0
  0
VERTEX
  5
245A2
  8
0
 10
153.0751419062631
 20
136.778291895499
 30
0.0
  0
VERTEX
  5
245A3
  8
0
 10
153.13191649004739
 20
136.19588372392349
 30
0.0
  0
VERTEX
  5
245A4
  8
0
 10
153.139106623667
 20
135.905801152604
 30
0.0
  0
SEQEND
  5
245A5
  8
0
  0
POLYLINE
  5
1C6EF
  8
0
 66
     1
 10
0.0
 20
0.0
 30
0.0
  0
VERTEX
  5
245A6
  8
0
 10
153.139106623667
 20
135.905801152604
 30
0.0
  0
VERTEX
  5
245A7
  8
0
 10
153.13191649004739
 20
135.6157185812844
 30
0.0
  0
VERTEX
  5
245A8
  8
0
 10
153.0751419062631
 20
135.033310409709
 30
0.0
  0
VERTEX
  5
245A9
  8
0
 10
152.9605315675098
 20
134.42374983093671
 30
0.0
  0
VERTEX
  5
245AA
  8
0
 10
152.87968691425161
 20
134.09917593526461
 30
0.0
  0
SEQEND
  5
245AB
  8
0
  0
LINE
  5
1C6F0
  8
0
 10
152.87968691425161
 20
134.09917593526461
 30
0.0
 11
148.6985263330825
 21
134.09917593526461
 31
0.0
  0
POLYLINE
  5
1C6F1
  8
0
 66
     1
 10
0.0
 20
0.0
 30
0.0
  0
VERTEX
  5
245AC
  8
0
 10
148.6985263330825
 20
134.09917593526461
 30
0.0
  0
VERTEX
  5
245AD
  8
0
 10
148.6176816798247
 20
134.42374983093671
 30
0.0
  0
VERTEX
  5
245AE
  8
0
 10
148.50307134107149
 20
135.033310409709
 30
0.0
  0
VERTEX
  5
245AF
  8
0
 10
148.4462967572872
 20
135.6157185812844
 30
0.0
  0
VERTEX
  5
245B0
  8
0
 10
148.4391066236671
 20
135.905801152604
 30
0.0
  0
SEQEND
  5
245B1
  8
0
  0
LINE
  5
1C6F6
  8
0
 10
88.839106623667249
 20
147.14067680462131
 30
0.0
 11
88.839106623667249
 21
135.5106768046216
 31
0.0
  0
LINE
  5
1C6F7
  8
0
 10
91.339106623667249
 20
147.58401013795489
 30
0.0
 11
91.339106623667249
 21
135.06734347128801
 31
0.0
  0
LINE
  5
1C6FC
  8
0
 10
96.579686914251852
 20
148.55217767397829
 30
0.0
 11
91.598526333082646
 21
148.55217767397829
 31
0.0
  0
POLYLINE
  5
1C6FD
  8
0
 66
     1
 10
0.0
 20
0.0
 30
0.0
  0
VERTEX
  5
245B2
  8
0
 10
96.579686914251852
 20
148.55217767397829
 30
0.0
  0
VERTEX
  5
245B3
  8
0
 10
96.660531567509693
 20
148.2276037783063
 30
0.0
  0
VERTEX
  5
245B4
  8
0
 10
96.775141906262903
 20
147.61804319953441
 30
0.0
  0
VERTEX
  5
245B5
  8
0
 10
96.831916490047206
 20
147.03563502795851
 30
0.0
  0
VERTEX
  5
245B6
  8
0
 10
96.839106623667249
 20
146.7455524566389
 30
0.0
  0
SEQEND
  5
245B7
  8
0
  0
POLYLINE
  5
1C6FE
  8
0
 66
     1
 10
0.0
 20
0.0
 30
0.0
  0
VERTEX
  5
245B8
  8
0
 10
96.839106623667249
 20
146.7455524566389
 30
0.0
  0
VERTEX
  5
245B9
  8
0
 10
96.831916490047206
 20
146.45546988531979
 30
0.0
  0
VERTEX
  5
245BA
  8
0
 10
96.775141906262903
 20
145.87306171374391
 30
0.0
  0
VERTEX
  5
245BB
  8
0
 10
96.660531567509693
 20
145.2635011349721
 30
0.0
  0
VERTEX
  5
245BC
  8
0
 10
96.579686914251852
 20
144.9389272393
 30
0.0
  0
SEQEND
  5
245BD
  8
0
  0
POLYLINE
  5
1C6FF
  8
0
 66
     1
 10
0.0
 20
0.0
 30
0.0
  0
VERTEX
  5
245BE
  8
0
 10
91.598526333082646
 20
144.9389272393
 30
0.0
  0
VERTEX
  5
245BF
  8
0
 10
91.517681679824364
 20
145.2635011349721
 30
0.0
  0
VERTEX
  5
245C0
  8
0
 10
91.403071341071595
 20
145.87306171374391
 30
0.0
  0
VERTEX
  5
245C1
  8
0
 10
91.346296757287305
 20
146.45546988531979
 30
0.0
  0
VERTEX
  5
245C2
  8
0
 10
91.339106623667249
 20
146.7455524566389
 30
0.0
  0
SEQEND
  5
245C3
  8
0
  0
POLYLINE
  5
1C700
  8
0
 66
     1
 10
0.0
 20
0.0
 30
0.0
  0
VERTEX
  5
245C4
  8
0
 10
91.339106623667249
 20
146.7455524566389
 30
0.0
  0
VERTEX
  5
245C5
  8
0
 10
91.346296757287305
 20
147.03563502795851
 30
0.0
  0
VERTEX
  5
245C6
  8
0
 10
91.403071341071595
 20
147.61804319953441
 30
0.0
  0
VERTEX
  5
245C7
  8
0
 10
91.517681679824364
 20
148.2276037783063
 30
0.0
  0
VERTEX
  5
245C8
  8
0
 10
91.598526333082646
 20
148.55217767397829
 30
0.0
  0
SEQEND
  5
245C9
  8
0
  0
LINE
  5
1C701
  8
0
 10
96.579686914251852
 20
144.9389272393
 30
0.0
 11
91.598526333082646
 21
144.9389272393
 31
0.0
  0
POLYLINE
  5
1C702
  8
0
 66
     1
 10
0.0
 20
0.0
 30
0.0
  0
VERTEX
  5
245CA
  8
0
 10
96.579686914251852
 20
144.9389272393
 30
0.0
  0
VERTEX
  5
245CB
  8
0
 10
96.660531567509693
 20
144.2897794479554
 30
0.0
  0
VERTEX
  5
245CC
  8
0
 10
96.775141906262903
 20
143.0706582904117
 30
0.0
  0
VERTEX
  5
245CD
  8
0
 10
96.831916490047206
 20
141.90584194726031
 30
0.0
  0
VERTEX
  5
245CE
  8
0
 10
96.839106623667249
 20
141.32567680462171
 30
0.0
  0
SEQEND
  5
245CF
  8
0
  0
POLYLINE
  5
1C703
  8
0
 66
     1
 10
0.0
 20
0.0
 30
0.0
  0
VERTEX
  5
245D0
  8
0
 10
96.839106623667249
 20
141.32567680462171
 30
0.0
  0
VERTEX
  5
245D1
  8
0
 10
96.831916490047206
 20
140.74551166198259
 30
0.0
  0
VERTEX
  5
245D2
  8
0
 10
96.775141906262903
 20
139.5806953188312
 30
0.0
  0
VERTEX
  5
245D3
  8
0
 10
96.660531567509693
 20
138.36157416128751
 30
0.0
  0
VERTEX
  5
245D4
  8
0
 10
96.579686914251852
 20
137.7124263699429
 30
0.0
  0
SEQEND
  5
245D5
  8
0
  0
POLYLINE
  5
1C704
  8
0
 66
     1
 10
0.0
 20
0.0
 30
0.0
  0
VERTEX
  5
245D6
  8
0
 10
91.598526333082646
 20
137.7124263699429
 30
0.0
  0
VERTEX
  5
245D7
  8
0
 10
91.517681679824364
 20
138.36157416128751
 30
0.0
  0
VERTEX
  5
245D8
  8
0
 10
91.403071341071595
 20
139.5806953188312
 30
0.0
  0
VERTEX
  5
245D9
  8
0
 10
91.346296757287305
 20
140.74551166198259
 30
0.0
  0
VERTEX
  5
245DA
  8
0
 10
91.339106623667249
 20
141.32567680462171
 30
0.0
  0
SEQEND
  5
245DB
  8
0
  0
POLYLINE
  5
1C705
  8
0
 66
     1
 10
0.0
 20
0.0
 30
0.0
  0
VERTEX
  5
245DC
  8
0
 10
91.339106623667249
 20
141.32567680462171
 30
0.0
  0
VERTEX
  5
245DD
  8
0
 10
91.346296757287305
 20
141.90584194726031
 30
0.0
  0
VERTEX
  5
245DE
  8
0
 10
91.403071341071595
 20
143.0706582904117
 30
0.0
  0
VERTEX
  5
245DF
  8
0
 10
91.517681679824364
 20
144.2897794479554
 30
0.0
  0
VERTEX
  5
245E0
  8
0
 10
91.598526333082646
 20
144.9389272393
 30
0.0
  0
SEQEND
  5
245E1
  8
0
  0
POLYLINE
  5
1C70A
  8
0
 66
     1
 10
0.0
 20
0.0
 30
0.0
  0
VERTEX
  5
245E2
  8
0
 10
91.339106623667249
 20
135.905801152604
 30
0.0
  0
VERTEX
  5
245E3
  8
0
 10
91.346296757287305
 20
136.19588372392349
 30
0.0
  0
VERTEX
  5
245E4
  8
0
 10
91.403071341071595
 20
136.778291895499
 30
0.0
  0
VERTEX
  5
245E5
  8
0
 10
91.517681679824364
 20
137.3878524742708
 30
0.0
  0
VERTEX
  5
245E6
  8
0
 10
91.598526333082646
 20
137.7124263699429
 30
0.0
  0
SEQEND
  5
245E7
  8
0
  0
LINE
  5
1C70B
  8
0
 10
96.579686914251852
 20
137.7124263699429
 30
0.0
 11
91.598526333082646
 21
137.7124263699429
 31
0.0
  0
POLYLINE
  5
1C70C
  8
0
 66
     1
 10
0.0
 20
0.0
 30
0.0
  0
VERTEX
  5
245E8
  8
0
 10
96.579686914251852
 20
137.7124263699429
 30
0.0
  0
VERTEX
  5
245E9
  8
0
 10
96.660531567509693
 20
137.3878524742708
 30
0.0
  0
VERTEX
  5
245EA
  8
0
 10
96.775141906262903
 20
136.778291895499
 30
0.0
  0
VERTEX
  5
245EB
  8
0
 10
96.831916490047206
 20
136.19588372392349
 30
0.0
  0
VERTEX
  5
245EC
  8
0
 10
96.839106623667249
 20
135.905801152604
 30
0.0
  0
SEQEND
  5
245ED
  8
0
  0
POLYLINE
  5
1C70D
  8
0
 66
     1
 10
0.0
 20
0.0
 30
0.0
  0
VERTEX
  5
245EE
  8
0
 10
96.839106623667249
 20
135.905801152604
 30
0.0
  0
VERTEX
  5
245EF
  8
0
 10
96.831916490047206
 20
135.6157185812844
 30
0.0
  0
VERTEX
  5
245F0
  8
0
 10
96.775141906262903
 20
135.033310409709
 30
0.0
  0
VERTEX
  5
245F1
  8
0
 10
96.660531567509693
 20
134.42374983093671
 30
0.0
  0
VERTEX
  5
245F2
  8
0
 10
96.579686914251852
 20
134.09917593526461
 30
0.0
  0
SEQEND
  5
245F3
  8
0
  0
LINE
  5
1C70E
  8
0
 10
96.579686914251852
 20
134.09917593526461
 30
0.0
 11
91.598526333082646
 21
134.09917593526461
 31
0.0
  0
POLYLINE
  5
1C70F
  8
0
 66
     1
 10
0.0
 20
0.0
 30
0.0
  0
VERTEX
  5
245F4
  8
0
 10
91.598526333082646
 20
134.09917593526461
 30
0.0
  0
VERTEX
  5
245F5
  8
0
 10
91.517681679824364
 20
134.42374983093671
 30
0.0
  0
VERTEX
  5
245F6
  8
0
 10
91.403071341071595
 20
135.033310409709
 30
0.0
  0
VERTEX
  5
245F7
  8
0
 10
91.346296757287305
 20
135.6157185812844
 30
0.0
  0
VERTEX
  5
245F8
  8
0
 10
91.339106623667249
 20
135.905801152604
 30
0.0
  0
SEQEND
  5
245F9
  8
0
  0
ARC
  5
1C738
  8
0
 10
109.33910662366721
 20
105.6185346619072
 30
0.0
 40
1.9999999999999869
 50
180.0
 51
249.9948099118412
  0
ARC
  5
1C739
  8
0
 10
109.33910662366721
 20
177.0328189473357
 30
0.0
 40
1.999999999999992
 50
110.0051900881587
 51
180.0
  0
ARC
  5
1C73A
  8
0
 10
122.33910662366721
 20
141.32567680462171
 30
0.0
 40
39.999999999999972
 50
249.9948099118412
 51
290.00519008815883
  0
ARC
  5
1C73B
  8
0
 10
122.33910662366721
 20
141.32567680462171
 30
0.0
 40
39.99999999999995
 50
69.99480991184123
 51
110.0051900881587
  0
ARC
  5
1C73C
  8
0
 10
135.33910662366719
 20
105.6185346619072
 30
0.0
 40
1.999999999999958
 50
290.00519008815883
 51
0.0
  0
ARC
  5
1C73D
  8
0
 10
135.33910662366719
 20
177.0328189473357
 30
0.0
 40
1.999999999999966
 50
0.0
 51
69.99480991184123
  0
LINE
  5
1C748
  8
0
 10
107.33910662366721
 20
105.6185346619072
 30
0.0
 11
107.33910662366721
 21
177.0328189473357
 31
0.0
  0
LINE
  5
1C74A
  8
0
 10
137.33910662366719
 20
105.6185346619072
 30
0.0
 11
137.33910662366719
 21
177.0328189473357
 31
0.0
  0
LINE
  5
1C750
  8
0
 10
304.20231598398101
 20
323.15766106012961
 30
0.0
 11
304.20231598398101
 21
320.15766106012961
 31
0.0
  0
LINE
  5
1C751
  8
0
 10
304.20231598398101
 20
371.15766106012961
 30
0.0
 11
304.20231598398101
 21
368.15766106012961
 31
0.0
  0
LINE
  5
1C758
  8
0
 10
318.40231598398123
 20
371.15766106012961
 30
0.0
 11
318.40231598398123
 21
320.15766106012961
 31
0.0
  0
LINE
  5
1C75C
  8
0
 10
331.78718626958022
 20
320.15766106012961
 30
0.0
 11
304.20231598398101
 21
320.15766106012961
 31
0.0
  0
LINE
  5
1C75E
  8
0
 10
304.20231598398101
 20
371.15766106012961
 30
0.0
 11
331.78718626958022
 21
371.15766106012961
 31
0.0
  0
LINE
  5
1C764
  8
0
 10
318.40231598398123
 20
323.15766106012961
 30
0.0
 11
304.20231598398101
 21
323.15766106012961
 31
0.0
  0
LINE
  5
1C765
  8
0
 10
304.20231598398101
 20
368.15766106012961
 30
0.0
 11
318.40231598398123
 21
368.15766106012961
 31
0.0
  0
CIRCLE
  5
1C768
  8
0
 10
357.90231598398123
 20
345.65766106012961
 30
0.0
 40
11.0
  0
CIRCLE
  5
1C769
  8
0
 10
357.90231598398123
 20
345.65766106012961
 30
0.0
 40
28.025000000000009
  0
CIRCLE
  5
1C76A
  8
0
 10
357.90231598398123
 20
345.65766106012961
 30
0.0
 40
31.025000000000009
  0
CIRCLE
  5
1C76B
  8
0
 10
357.90231598398123
 20
345.65766106012961
 30
0.0
 40
32.5
  0
CIRCLE
  5
1C76C
  8
0
 10
357.90231598398123
 20
345.65766106012961
 30
0.0
 40
36.5
  0
CIRCLE
  5
1C76E
  8
0
 10
357.90231598398123
 20
345.65766106012961
 30
0.0
 40
6.0
  0
LINE
  5
1C76F
  8
1
 10
266.5274067536584
 20
345.65766106012961
 30
0.0
 11
403.47612582329339
 21
345.65766106012961
 31
0.0
  0
LINE
  5
1C770
  8
1
 10
357.90231598398123
 20
300.08385122081739
 30
0.0
 11
357.90231598398123
 21
391.23147089944177
 31
0.0
  0
LINE
  5
1C771
  8
0
 10
313.08731598398123
 20
320.15766106012961
 30
0.0
 11
313.08731598398123
 21
319.55766106012931
 31
0.0
  0
LINE
  5
1C772
  8
0
 10
324.71731598398128
 20
319.55766106012931
 30
0.0
 11
324.71731598398128
 21
320.15766106012961
 31
0.0
  0
LINE
  5
1C773
  8
0
 10
314.90231598398123
 20
381.39066106012979
 30
0.0
 11
314.90231598398123
 21
379.15766106012961
 31
0.0
  0
LINE
  5
1C774
  8
0
 10
322.90231598398123
 20
379.15766106012961
 30
0.0
 11
322.90231598398123
 21
381.39066106012979
 31
0.0
  0
LINE
  5
1C775
  8
0
 10
315.66931598398099
 20
382.15766106012961
 30
0.0
 11
314.90231598398123
 21
381.39066106012979
 31
0.0
  0
LINE
  5
1C776
  8
0
 10
322.90231598398123
 20
381.39066106012979
 30
0.0
 11
322.13531598398089
 21
382.15766106012961
 31
0.0
  0
LINE
  5
1C779
  8
0
 10
313.08731598398123
 20
379.15766106012961
 30
0.0
 11
313.08731598398123
 21
376.65766106012961
 31
0.0
  0
LINE
  5
1C77A
  8
0
 10
324.71731598398128
 20
376.65766106012961
 30
0.0
 11
324.71731598398128
 21
379.15766106012961
 31
0.0
  0
LINE
  5
1C77D
  8
0
 10
312.90231598398123
 20
368.15766106012961
 30
0.0
 11
312.90231598398123
 21
360.65766106012961
 31
0.0
  0
LINE
  5
1C77F
  8
0
 10
312.90231598398123
 20
330.65766106012961
 30
0.0
 11
312.90231598398123
 21
323.15766106012961
 31
0.0
  0
LINE
  5
1C781
  8
0
 10
322.90231598398123
 20
381.39066106012979
 30
0.0
 11
314.90231598398123
 21
381.39066106012979
 31
0.0
  0
LINE
  5
1C782
  8
0
 10
322.13531598398089
 20
382.15766106012961
 30
0.0
 11
315.66931598398099
 21
382.15766106012961
 31
0.0
  0
LINE
  5
1C783
  8
0
 10
325.16064931731438
 20
314.85766106012937
 30
0.0
 11
312.64398265064801
 21
314.85766106012937
 31
0.0
  0
LINE
  5
1C784
  8
0
 10
325.16064931731438
 20
319.55766106012931
 30
0.0
 11
312.64398265064801
 21
319.55766106012931
 31
0.0
  0
POLYLINE
  5
1C785
  8
0
 66
     1
 10
0.0
 20
0.0
 30
0.0
  0
VERTEX
  5
245FA
  8
0
 10
325.16064931731438
 20
315.11708076954528
 30
0.0
  0
VERTEX
  5
245FB
  8
0
 10
324.59847083919971
 20
315.036236116287
 30
0.0
  0
VERTEX
  5
245FC
  8
0
 10
323.54268094647568
 20
314.92162577753328
 30
0.0
  0
VERTEX
  5
245FD
  8
0
 10
322.53392040256313
 20
314.86485119374902
 30
0.0
  0
VERTEX
  5
245FE
  8
0
 10
322.03148265064777
 20
314.85766106012937
 30
0.0
  0
SEQEND
  5
245FF
  8
0
  0
POLYLINE
  5
1C786
  8
0
 66
     1
 10
0.0
 20
0.0
 30
0.0
  0
VERTEX
  5
24600
  8
0
 10
322.03148265064777
 20
314.85766106012937
 30
0.0
  0
VERTEX
  5
24601
  8
0
 10
321.52904489873208
 20
314.86485119374902
 30
0.0
  0
VERTEX
  5
24602
  8
0
 10
320.52028435481998
 20
314.92162577753328
 30
0.0
  0
VERTEX
  5
24603
  8
0
 10
319.4644944620959
 20
315.036236116287
 30
0.0
  0
VERTEX
  5
24604
  8
0
 10
318.90231598398123
 20
315.11708076954528
 30
0.0
  0
SEQEND
  5
24605
  8
0
  0
POLYLINE
  5
1C787
  8
0
 66
     1
 10
0.0
 20
0.0
 30
0.0
  0
VERTEX
  5
24606
  8
0
 10
318.90231598398123
 20
319.29824135071431
 30
0.0
  0
VERTEX
  5
24607
  8
0
 10
319.4644944620959
 20
319.37908600397168
 30
0.0
  0
VERTEX
  5
24608
  8
0
 10
320.52028435481998
 20
319.49369634272529
 30
0.0
  0
VERTEX
  5
24609
  8
0
 10
321.52904489873208
 20
319.5504709265096
 30
0.0
  0
VERTEX
  5
2460A
  8
0
 10
322.03148265064777
 20
319.55766106012931
 30
0.0
  0
SEQEND
  5
2460B
  8
0
  0
POLYLINE
  5
1C788
  8
0
 66
     1
 10
0.0
 20
0.0
 30
0.0
  0
VERTEX
  5
2460C
  8
0
 10
322.03148265064777
 20
319.55766106012931
 30
0.0
  0
VERTEX
  5
2460D
  8
0
 10
322.53392040256313
 20
319.5504709265096
 30
0.0
  0
VERTEX
  5
2460E
  8
0
 10
323.54268094647568
 20
319.49369634272529
 30
0.0
  0
VERTEX
  5
2460F
  8
0
 10
324.59847083919971
 20
319.37908600397168
 30
0.0
  0
VERTEX
  5
24610
  8
0
 10
325.16064931731438
 20
319.29824135071431
 30
0.0
  0
SEQEND
  5
24611
  8
0
  0
LINE
  5
1C789
  8
0
 10
318.90231598398123
 20
315.11708076954528
 30
0.0
 11
318.90231598398123
 21
319.29824135071431
 31
0.0
  0
POLYLINE
  5
1C78A
  8
0
 66
     1
 10
0.0
 20
0.0
 30
0.0
  0
VERTEX
  5
24612
  8
0
 10
318.90231598398123
 20
315.11708076954528
 30
0.0
  0
VERTEX
  5
24613
  8
0
 10
318.34013750586649
 20
315.036236116287
 30
0.0
  0
VERTEX
  5
24614
  8
0
 10
317.28434761314247
 20
314.92162577753328
 30
0.0
  0
VERTEX
  5
24615
  8
0
 10
316.27558706922991
 20
314.86485119374902
 30
0.0
  0
VERTEX
  5
24616
  8
0
 10
315.77314931731462
 20
314.85766106012937
 30
0.0
  0
SEQEND
  5
24617
  8
0
  0
POLYLINE
  5
1C78B
  8
0
 66
     1
 10
0.0
 20
0.0
 30
0.0
  0
VERTEX
  5
24618
  8
0
 10
315.77314931731462
 20
314.85766106012937
 30
0.0
  0
VERTEX
  5
24619
  8
0
 10
315.27071156539893
 20
314.86485119374902
 30
0.0
  0
VERTEX
  5
2461A
  8
0
 10
314.26195102148671
 20
314.92162577753328
 30
0.0
  0
VERTEX
  5
2461B
  8
0
 10
313.20616112876269
 20
315.036236116287
 30
0.0
  0
VERTEX
  5
2461C
  8
0
 10
312.64398265064801
 20
315.11708076954528
 30
0.0
  0
SEQEND
  5
2461D
  8
0
  0
POLYLINE
  5
1C78C
  8
0
 66
     1
 10
0.0
 20
0.0
 30
0.0
  0
VERTEX
  5
2461E
  8
0
 10
312.64398265064801
 20
319.29824135071431
 30
0.0
  0
VERTEX
  5
2461F
  8
0
 10
313.20616112876269
 20
319.37908600397168
 30
0.0
  0
VERTEX
  5
24620
  8
0
 10
314.26195102148671
 20
319.49369634272529
 30
0.0
  0
VERTEX
  5
24621
  8
0
 10
315.27071156539893
 20
319.5504709265096
 30
0.0
  0
VERTEX
  5
24622
  8
0
 10
315.77314931731462
 20
319.55766106012931
 30
0.0
  0
SEQEND
  5
24623
  8
0
  0
POLYLINE
  5
1C78D
  8
0
 66
     1
 10
0.0
 20
0.0
 30
0.0
  0
VERTEX
  5
24624
  8
0
 10
315.77314931731462
 20
319.55766106012931
 30
0.0
  0
VERTEX
  5
24625
  8
0
 10
316.27558706922991
 20
319.5504709265096
 30
0.0
  0
VERTEX
  5
24626
  8
0
 10
317.28434761314247
 20
319.49369634272529
 30
0.0
  0
VERTEX
  5
24627
  8
0
 10
318.34013750586649
 20
319.37908600397168
 30
0.0
  0
VERTEX
  5
24628
  8
0
 10
318.90231598398123
 20
319.29824135071431
 30
0.0
  0
SEQEND
  5
24629
  8
0
  0
LINE
  5
1C79C
  8
0
 10
324.71731598398128
 20
379.15766106012961
 30
0.0
 11
313.08731598398123
 21
379.15766106012961
 31
0.0
  0
LINE
  5
1C79D
  8
0
 10
325.16064931731438
 20
376.65766106012961
 30
0.0
 11
312.64398265064801
 21
376.65766106012961
 31
0.0
  0
POLYLINE
  5
1C79E
  8
0
 66
     1
 10
0.0
 20
0.0
 30
0.0
  0
VERTEX
  5
2462A
  8
0
 10
325.16064931731438
 20
371.41708076954461
 30
0.0
  0
VERTEX
  5
2462B
  8
0
 10
324.59847083920482
 20
371.33623611628718
 30
0.0
  0
VERTEX
  5
2462C
  8
0
 10
323.54268094649029
 20
371.22162577753528
 30
0.0
  0
VERTEX
  5
2462D
  8
0
 10
322.53392040258677
 20
371.16485119375011
 30
0.0
  0
VERTEX
  5
2462E
  8
0
 10
322.03148265067648
 20
371.15766106012961
 30
0.0
  0
SEQEND
  5
2462F
  8
0
  0
POLYLINE
  5
1C79F
  8
0
 66
     1
 10
0.0
 20
0.0
 30
0.0
  0
VERTEX
  5
24630
  8
0
 10
322.03148265064777
 20
371.15766106012961
 30
0.0
  0
VERTEX
  5
24631
  8
0
 10
321.52904489873208
 20
371.1648511937492
 30
0.0
  0
VERTEX
  5
24632
  8
0
 10
320.52028435481998
 20
371.22162577753352
 30
0.0
  0
VERTEX
  5
24633
  8
0
 10
319.4644944620959
 20
371.33623611628718
 30
0.0
  0
VERTEX
  5
24634
  8
0
 10
318.90231598398123
 20
371.41708076954461
 30
0.0
  0
SEQEND
  5
24635
  8
0
  0
POLYLINE
  5
1C7A0
  8
0
 66
     1
 10
0.0
 20
0.0
 30
0.0
  0
VERTEX
  5
24636
  8
0
 10
318.90231598398123
 20
376.39824135071382
 30
0.0
  0
VERTEX
  5
24637
  8
0
 10
319.4644944620959
 20
376.47908600397199
 30
0.0
  0
VERTEX
  5
24638
  8
0
 10
320.52028435481998
 20
376.5936963427248
 30
0.0
  0
VERTEX
  5
24639
  8
0
 10
321.52904489873208
 20
376.65047092650912
 30
0.0
  0
VERTEX
  5
2463A
  8
0
 10
322.03148265064777
 20
376.65766106012961
 30
0.0
  0
SEQEND
  5
2463B
  8
0
  0
POLYLINE
  5
1C7A1
  8
0
 66
     1
 10
0.0
 20
0.0
 30
0.0
  0
VERTEX
  5
2463C
  8
0
 10
322.03148265064777
 20
376.65766106012961
 30
0.0
  0
VERTEX
  5
2463D
  8
0
 10
322.53392040256313
 20
376.65047092650912
 30
0.0
  0
VERTEX
  5
2463E
  8
0
 10
323.54268094647568
 20
376.5936963427248
 30
0.0
  0
VERTEX
  5
2463F
  8
0
 10
324.59847083919971
 20
376.47908600397199
 30
0.0
  0
VERTEX
  5
24640
  8
0
 10
325.16064931731438
 20
376.39824135071382
 30
0.0
  0
SEQEND
  5
24641
  8
0
  0
LINE
  5
1C7A2
  8
0
 10
318.90231598398123
 20
371.41708076954461
 30
0.0
 11
318.90231598398123
 21
376.39824135071382
 31
0.0
  0
POLYLINE
  5
1C7A3
  8
0
 66
     1
 10
0.0
 20
0.0
 30
0.0
  0
VERTEX
  5
24642
  8
0
 10
318.90231598398123
 20
371.41708076954461
 30
0.0
  0
VERTEX
  5
24643
  8
0
 10
318.3401375058707
 20
371.33623611628718
 30
0.0
  0
VERTEX
  5
24644
  8
0
 10
317.28434761315469
 20
371.22162577753443
 30
0.0
  0
VERTEX
  5
24645
  8
0
 10
316.27558706924992
 20
371.16485119375011
 30
0.0
  0
VERTEX
  5
24646
  8
0
 10
315.77314931733872
 20
371.15766106012961
 30
0.0
  0
SEQEND
  5
24647
  8
0
  0
POLYLINE
  5
1C7A4
  8
0
 66
     1
 10
0.0
 20
0.0
 30
0.0
  0
VERTEX
  5
24648
  8
0
 10
315.77314931731462
 20
371.15766106012961
 30
0.0
  0
VERTEX
  5
24649
  8
0
 10
315.27071156539893
 20
371.1648511937492
 30
0.0
  0
VERTEX
  5
2464A
  8
0
 10
314.26195102148671
 20
371.22162577753352
 30
0.0
  0
VERTEX
  5
2464B
  8
0
 10
313.20616112876269
 20
371.33623611628718
 30
0.0
  0
VERTEX
  5
2464C
  8
0
 10
312.64398265064801
 20
371.41708076954461
 30
0.0
  0
SEQEND
  5
2464D
  8
0
  0
POLYLINE
  5
1C7A5
  8
0
 66
     1
 10
0.0
 20
0.0
 30
0.0
  0
VERTEX
  5
2464E
  8
0
 10
312.64398265064801
 20
376.39824135071382
 30
0.0
  0
VERTEX
  5
2464F
  8
0
 10
313.20616112876269
 20
376.47908600397199
 30
0.0
  0
VERTEX
  5
24650
  8
0
 10
314.26195102148671
 20
376.5936963427248
 30
0.0
  0
VERTEX
  5
24651
  8
0
 10
315.27071156539893
 20
376.65047092650912
 30
0.0
  0
VERTEX
  5
24652
  8
0
 10
315.77314931731462
 20
376.65766106012961
 30
0.0
  0
SEQEND
  5
24653
  8
0
  0
POLYLINE
  5
1C7A6
  8
0
 66
     1
 10
0.0
 20
0.0
 30
0.0
  0
VERTEX
  5
24654
  8
0
 10
315.77314931731462
 20
376.65766106012961
 30
0.0
  0
VERTEX
  5
24655
  8
0
 10
316.27558706922991
 20
376.65047092650912
 30
0.0
  0
VERTEX
  5
24656
  8
0
 10
317.28434761314247
 20
376.5936963427248
 30
0.0
  0
VERTEX
  5
24657
  8
0
 10
318.34013750586649
 20
376.47908600397199
 30
0.0
  0
VERTEX
  5
24658
  8
0
 10
318.90231598398123
 20
376.39824135071382
 30
0.0
  0
SEQEND
  5
24659
  8
0
  0
LINE
  5
1C7BA
  8
1
 10
318.90231598398123
 20
303.77764672507328
 30
0.0
 11
318.90231598398123
 21
387.53767539518589
 31
0.0
  0
ARC
  5
1C7D9
  8
0
 10
283.19517384126681
 20
358.65766106012961
 30
0.0
 40
1.9999999999999869
 50
90.0
 51
159.9948099118412
  0
ARC
  5
1C7DB
  8
0
 10
318.90231598398123
 20
345.65766106012961
 30
0.0
 40
39.999999999999979
 50
159.9948099118412
 51
200.0051900881588
  0
ARC
  5
1C7DD
  8
0
 10
318.90231598398123
 20
345.65766106012961
 30
0.0
 40
39.999999999999751
 50
351.40984136454318
 51
8.5901586354567563
  0
ARC
  5
1C7DF
  8
0
 10
283.19517384126681
 20
332.65766106012961
 30
0.0
 40
1.999999999999958
 50
200.0051900881588
 51
270.0
  0
LINE
  5
1C7EB
  8
0
 10
283.19517384126681
 20
360.65766106012961
 30
0.0
 11
318.40152830810672
 21
360.65766106012961
 31
0.0
  0
LINE
  5
1C7EF
  8
0
 10
283.19517384126681
 20
330.65766106012961
 30
0.0
 11
318.40152830810672
 21
330.65766106012961
 31
0.0
  0
LINE
  5
1C7F9
  8
0
 10
324.90231598398532
 20
196.52567680462289
 30
0.0
 11
324.90231598398532
 21
194.52567680462289
 31
0.0
  0
LINE
  5
1C7FA
  8
0
 10
368.90231598398532
 20
205.02567680462289
 30
0.0
 11
368.90231598398532
 21
208.3256768046231
 31
0.0
  0
LINE
  5
1C7FB
  8
0
 10
346.90231598398532
 20
208.3256768046231
 30
0.0
 11
346.90231598398532
 21
205.02567680462289
 31
0.0
  0
ARC
  5
1C7FC
  8
0
 10
329.87731598398523
 20
202.02567680462289
 30
0.0
 40
2.9999999999999778
 50
90.0
 51
179.99999914622629
  0
ARC
  5
1C7FD
  8
0
 10
385.92731598398541
 20
202.02567680462289
 30
0.0
 40
2.9999999999999711
 50
0.0
 51
90.0
  0
LINE
  5
1C7FE
  8
0
 10
388.92731598398541
 20
201.52567680462289
 30
0.0
 11
388.92731598398541
 21
202.02567680462289
 31
0.0
  0
LINE
  5
1C7FF
  8
0
 10
326.87731598398523
 20
202.02567680462289
 30
0.0
 11
326.87731598398523
 21
201.52567680462289
 31
0.0
  0
ARC
  5
1C800
  8
0
 10
325.40231598398532
 20
197.52567680462289
 30
0.0
 40
4.0000000000000071
 50
90.0
 51
180.0
  0
ARC
  5
1C801
  8
0
 10
390.40231598398532
 20
197.52567680462289
 30
0.0
 40
4.0
 50
0.0
 51
90.0
  0
LINE
  5
1C802
  8
0
 10
394.40231598398532
 20
196.52567680462289
 30
0.0
 11
394.40231598398532
 21
197.52567680462289
 31
0.0
  0
LINE
  5
1C803
  8
0
 10
321.40231598398532
 20
197.52567680462289
 30
0.0
 11
321.40231598398532
 21
196.52567680462289
 31
0.0
  0
LINE
  5
1C804
  8
2
 10
363.90231598398532
 20
194.32567680462299
 30
0.0
 11
363.90231598398532
 21
208.3256768046231
 31
0.0
  0
LINE
  5
1C805
  8
2
 10
351.90231598398532
 20
208.3256768046231
 30
0.0
 11
351.90231598398532
 21
194.32567680462299
 31
0.0
  0
LINE
  5
1C806
  8
0
 10
336.95595591833171
 20
194.52567680462289
 30
0.0
 11
318.40231598398532
 21
194.52567680462289
 31
0.0
  0
LINE
  5
1C807
  8
0
 10
318.40231598398532
 20
194.52567680462289
 30
0.0
 11
318.40231598398532
 21
190.82567680462299
 31
0.0
  0
ARC
  5
1C808
  8
0
 10
323.60231598398508
 20
141.32567680462259
 30
0.0
 40
9.9999999999999432
 50
270.0
 51
315.9559810988776
  0
LINE
  5
1C809
  8
0
 10
314.2023159839851
 20
131.3256768046231
 30
0.0
 11
323.60231598398508
 21
131.3256768046231
 31
0.0
  0
LINE
  5
1C80A
  8
0
 10
318.40231598398532
 20
190.82567680462299
 30
0.0
 11
304.61226936797721
 21
144.15957974981939
 31
0.0
  0
LINE
  5
1C80B
  8
0
 10
330.7903749800484
 20
134.37356864456751
 30
0.0
 11
336.95595591833171
 21
140.74840610524191
 31
0.0
  0
ARC
  5
1C80C
  8
0
 10
314.2023159839851
 20
141.32567680462299
 30
0.0
 40
10.0
 50
163.5373472528054
 51
270.0
  0
LINE
  5
1C80D
  8
2
 10
327.40231598398532
 20
194.32567680462299
 30
0.0
 11
388.40231598398532
 21
194.32567680462299
 31
0.0
  0
LINE
  5
1C811
  8
0
 10
336.95595591833171
 20
194.52567680462289
 30
0.0
 11
336.95595591833171
 21
140.74840610524191
 31
0.0
  0
POLYLINE
  5
1C812
  8
0
 66
     1
 10
0.0
 20
0.0
 30
0.0
  0
VERTEX
  5
2465A
  8
0
 10
336.95595591833171
 20
140.74840610524191
 30
0.0
  0
VERTEX
  5
2465B
  8
0
 10
337.22372048634179
 20
141.0252584596069
 30
0.0
  0
VERTEX
  5
2465C
  8
0
 10
337.76600210451579
 20
141.58594482612671
 30
0.0
  0
VERTEX
  5
2465D
  8
0
 10
338.31708901423963
 20
142.1557353310863
 30
0.0
  0
VERTEX
  5
2465E
  8
0
 10
338.59585929422292
 20
142.4439669254084
 30
0.0
  0
VERTEX
  5
2465F
  8
0
 10
338.87674023392492
 20
142.73438081411129
 30
0.0
  0
VERTEX
  5
24660
  8
0
 10
339.44471103694559
 20
143.3216282426842
 30
0.0
  0
VERTEX
  5
24661
  8
0
 10
340.0207530586531
 20
143.91722082279369
 30
0.0
  0
VERTEX
  5
24662
  8
0
 10
340.60461440498381
 20
144.52089811122499
 30
0.0
  0
VERTEX
  5
24663
  8
0
 10
341.19603976260532
 20
145.13239612944921
 30
0.0
  0
VERTEX
  5
24664
  8
0
 10
341.79477051056438
 20
145.751447479055
 30
0.0
  0
VERTEX
  5
24665
  8
0
 10
342.0967937102464
 20
146.06372118474431
 30
0.0
  0
VERTEX
  5
24666
  8
0
 10
342.40054483337548
 20
146.37778145867881
 30
0.0
  0
VERTEX
  5
24667
  8
0
 10
343.01309783550869
 20
147.01112418237921
 30
0.0
  0
VERTEX
  5
24668
  8
0
 10
343.63216165722542
 20
147.65119869940099
 30
0.0
  0
VERTEX
  5
24669
  8
0
 10
344.25746559170921
 20
148.29772511528199
 30
0.0
  0
VERTEX
  5
2466A
  8
0
 10
344.88873620343929
 20
148.9504207142472
 30
0.0
  0
VERTEX
  5
2466B
  8
0
 10
345.52569744776338
 20
149.60900008283579
 30
0.0
  0
VERTEX
  5
2466C
  8
0
 10
345.84622510944251
 20
149.94040628207401
 30
0.0
  0
VERTEX
  5
2466D
  8
0
 10
346.1680707916039
 20
150.27317523470629
 30
0.0
  0
VERTEX
  5
2466E
  8
0
 10
346.81557533525893
 20
150.94265573657049
 30
0.0
  0
VERTEX
  5
2466F
  8
0
 10
347.46792793523309
 20
151.61714883519559
 30
0.0
  0
VERTEX
  5
24670
  8
0
 10
347.79583319091171
 20
151.9561830200314
 30
0.0
  0
VERTEX
  5
24671
  8
0
 10
348.12484332805388
 20
152.2963595854176
 30
0.0
  0
VERTEX
  5
24672
  8
0
 10
348.78603425500978
 20
152.97999097911861
 30
0.0
  0
VERTEX
  5
24673
  8
0
 10
349.45121158776738
 20
153.66774407510451
 30
0.0
  0
VERTEX
  5
24674
  8
0
 10
349.78520432359068
 20
154.01307234590871
 30
0.0
  0
VERTEX
  5
24675
  8
0
 10
350.12008445480109
 20
154.35931812982511
 30
0.0
  0
VERTEX
  5
24676
  8
0
 10
350.79236036858578
 20
155.0544107288847
 30
0.0
  0
VERTEX
  5
24677
  8
0
 10
351.46774535349817
 20
155.75271791928429
 30
0.0
  0
VERTEX
  5
24678
  8
0
 10
352.14594407436698
 20
156.4539343423362
 30
0.0
  0
VERTEX
  5
24679
  8
0
 10
352.82665996561991
 20
157.15775336718929
 30
0.0
  0
VERTEX
  5
2467A
  8
0
 10
353.50959536096479
 20
157.8638672249167
 30
0.0
  0
VERTEX
  5
2467B
  8
0
 10
353.85180208300108
 20
158.21768826023711
 30
0.0
  0
VERTEX
  5
2467C
  8
0
 10
354.19445162355532
 20
158.57196714309839
 30
0.0
  0
VERTEX
  5
2467D
  8
0
 10
354.8809292765809
 20
159.28174348083979
 30
0.0
  0
VERTEX
  5
2467E
  8
0
 10
355.568728134222
 20
159.992885864176
 30
0.0
  0
VERTEX
  5
2467F
  8
0
 10
356.25754743291827
 20
160.7050833217908
 30
0.0
  0
VERTEX
  5
24680
  8
0
 10
356.94708596288592
 20
161.41802442100189
 30
0.0
  0
VERTEX
  5
24681
  8
0
 10
357.63704219983168
 20
162.13139740394311
 30
0.0
  0
VERTEX
  5
24682
  8
0
 10
357.982082678528
 20
162.48814837210969
 30
0.0
  0
VERTEX
  5
24683
  8
0
 10
358.32711443680728
 20
162.8448903238932
 30
0.0
  0
VERTEX
  5
24684
  8
0
 10
359.0170009161389
 20
163.5581911816839
 30
0.0
  0
VERTEX
  5
24685
  8
0
 10
359.70639996138152
 20
164.2709880621332
 30
0.0
  0
VERTEX
  5
24686
  8
0
 10
360.39501010923732
 20
164.9829692704397
 30
0.0
  0
VERTEX
  5
24687
  8
0
 10
361.08253024138048
 20
165.693823468483
 30
0.0
  0
VERTEX
  5
24688
  8
0
 10
361.76865971613228
 20
166.4032398109666
 30
0.0
  0
VERTEX
  5
24689
  8
0
 10
362.11110916915322
 20
166.75731181543091
 30
0.0
  0
VERTEX
  5
2468A
  8
0
 10
362.45309849992691
 20
167.1109080813448
 30
0.0
  0
VERTEX
  5
2468B
  8
0
 10
363.13554729851012
 20
167.81651882747701
 30
0.0
  0
VERTEX
  5
2468C
  8
0
 10
363.81570768781648
 20
168.51976349694451
 30
0.0
  0
VERTEX
  5
2468D
  8
0
 10
364.49328224446748
 20
169.22033457197759
 30
0.0
  0
VERTEX
  5
2468E
  8
0
 10
365.16797467582592
 20
169.9179257039263
 30
0.0
  0
VERTEX
  5
2468F
  8
0
 10
365.83948994956432
 20
170.612231847223
 30
0.0
  0
VERTEX
  5
24690
  8
0
 10
366.17396433110019
 20
170.95805811053779
 30
0.0
  0
VERTEX
  5
24691
  8
0
 10
366.50753442267518
 20
171.30294939277329
 30
0.0
  0
VERTEX
  5
24692
  8
0
 10
367.17181596987712
 20
171.98977630072019
 30
0.0
  0
VERTEX
  5
24693
  8
0
 10
367.83204411135739
 20
172.67241223252131
 30
0.0
  0
VERTEX
  5
24694
  8
0
 10
368.4879301397923
 20
173.35055868228071
 30
0.0
  0
VERTEX
  5
24695
  8
0
 10
369.13918724659652
 20
174.02391910728281
 30
0.0
  0
VERTEX
  5
24696
  8
0
 10
369.78553064733887
 20
174.69219905766471
 30
0.0
  0
VERTEX
  5
24697
  8
0
 10
370.1067712969471
 20
175.0243424432619
 30
0.0
  0
VERTEX
  5
24698
  8
0
 10
370.42667770627349
 20
175.35510630517501
 30
0.0
  0
VERTEX
  5
24699
  8
0
 10
371.06234805993341
 20
176.01235097095969
 30
0.0
  0
VERTEX
  5
2469A
  8
0
 10
371.69226373972742
 20
176.6636456523224
 30
0.0
  0
VERTEX
  5
2469B
  8
0
 10
372.00497739652428
 20
176.98697264352859
 30
0.0
  0
VERTEX
  5
2469C
  8
0
 10
372.3161492934924
 20
177.30870554840109
 30
0.0
  0
VERTEX
  5
2469D
  8
0
 10
372.93373190594411
 20
177.94724858470721
 30
0.0
  0
VERTEX
  5
2469E
  8
0
 10
373.54474151797558
 20
178.57899553646979
 30
0.0
  0
VERTEX
  5
2469F
  8
0
 10
373.84769783809128
 20
178.8922340322024
 30
0.0
  0
VERTEX
  5
246A0
  8
0
 10
374.14891094474712
 20
179.20367015074089
 30
0.0
  0
VERTEX
  5
246A1
  8
0
 10
374.74597599252593
 20
179.82099926719229
 30
0.0
  0
VERTEX
  5
246A2
  8
0
 10
375.3356755742102
 20
180.4307129375656
 30
0.0
  0
VERTEX
  5
246A3
  8
0
 10
375.91775182350062
 20
181.03254454371739
 30
0.0
  0
VERTEX
  5
246A4
  8
0
 10
376.49195020766052
 20
181.62623091420571
 30
0.0
  0
VERTEX
  5
246A5
  8
0
 10
377.05801963881908
 20
182.21151243937169
 30
0.0
  0
VERTEX
  5
246A6
  8
0
 10
377.33792850107051
 20
182.50092125883521
 30
0.0
  0
VERTEX
  5
246A7
  8
0
 10
377.61571258376762
 20
182.78813318486209
 30
0.0
  0
VERTEX
  5
246A8
  8
0
 10
378.16478517220321
 20
183.35584100354521
 30
0.0
  0
VERTEX
  5
246A9
  8
0
 10
378.70499730336769
 20
183.91438764577239
 30
0.0
  0
VERTEX
  5
246AA
  8
0
 10
379.23611275104122
 20
184.4635288679319
 30
0.0
  0
VERTEX
  5
246AB
  8
0
 10
379.7578992668391
 20
185.00302453925269
 30
0.0
  0
VERTEX
  5
246AC
  8
0
 10
380.27012868177189
 20
185.5326387468121
 30
0.0
  0
VERTEX
  5
246AD
  8
0
 10
380.52258931365492
 20
185.7936677576358
 30
0.0
  0
VERTEX
  5
246AE
  8
0
 10
380.77257700601831
 20
186.05213989869429
 30
0.0
  0
VERTEX
  5
246AF
  8
0
 10
381.26502452687367
 20
186.56130082526209
 30
0.0
  0
VERTEX
  5
246B0
  8
0
 10
381.74725590482689
 20
187.0598988784968
 30
0.0
  0
VERTEX
  5
246B1
  8
0
 10
382.21906026772422
 20
187.5477160293562
 30
0.0
  0
VERTEX
  5
246B2
  8
0
 10
382.68023130297979
 20
188.0245389631163
 30
0.0
  0
VERTEX
  5
246B3
  8
0
 10
383.13056734779548
 20
188.49015917265021
 30
0.0
  0
VERTEX
  5
246B4
  8
0
 10
383.35161052233337
 20
188.718704434415
 30
0.0
  0
VERTEX
  5
246B5
  8
0
 10
383.56987147734208
 20
188.9443730496059
 30
0.0
  0
VERTEX
  5
246B6
  8
0
 10
383.99795159087171
 20
189.38698197343911
 30
0.0
  0
VERTEX
  5
246B7
  8
0
 10
384.41462049572237
 20
189.81779239826841
 30
0.0
  0
VERTEX
  5
246B8
  8
0
 10
384.8196959891734
 20
190.23661593750961
 30
0.0
  0
VERTEX
  5
246B9
  8
0
 10
385.2130009381176
 20
190.64326944625421
 30
0.0
  0
VERTEX
  5
246BA
  8
0
 10
385.59436335652299
 20
191.03757510135429
 30
0.0
  0
VERTEX
  5
246BB
  8
0
 10
385.78051379709541
 20
191.23004338840789
 30
0.0
  0
VERTEX
  5
246BC
  8
0
 10
385.96361648063572
 20
191.41936047918441
 30
0.0
  0
VERTEX
  5
246BD
  8
0
 10
386.32059884190539
 20
191.7884586310374
 30
0.0
  0
VERTEX
  5
246BE
  8
0
 10
386.66515433759201
 20
192.14470815613049
 30
0.0
  0
VERTEX
  5
246BF
  8
0
 10
386.99713229902773
 20
192.4879532721811
 30
0.0
  0
VERTEX
  5
246C0
  8
0
 10
387.316387557501
 20
192.81804388352879
 30
0.0
  0
VERTEX
  5
246C1
  8
0
 10
387.62278050773688
 20
193.13483564677111
 30
0.0
  0
VERTEX
  5
246C2
  8
0
 10
387.77111152694351
 20
193.288200941507
 30
0.0
  0
VERTEX
  5
246C3
  8
0
 10
387.91617716894513
 20
193.43819003388029
 30
0.0
  0
VERTEX
  5
246C4
  8
0
 10
388.19644924340628
 20
193.7279743927815
 30
0.0
  0
VERTEX
  5
246C5
  8
0
 10
388.46347417257539
 20
194.00406200535869
 30
0.0
  0
VERTEX
  5
246C6
  8
0
 10
388.59198224067632
 20
194.13693156862109
 30
0.0
  0
VERTEX
  5
246C7
  8
0
 10
388.71713519067453
 20
194.26633214286539
 30
0.0
  0
VERTEX
  5
246C8
  8
0
 10
388.95732137575351
 20
194.51467011871949
 30
0.0
  0
VERTEX
  5
246C9
  8
0
 10
389.18392769819178
 20
194.74896733865171
 30
0.0
  0
VERTEX
  5
246CA
  8
0
 10
389.29210721170512
 20
194.8608184070462
 30
0.0
  0
VERTEX
  5
246CB
  8
0
 10
389.39685506663
 20
194.96912134819419
 30
0.0
  0
VERTEX
  5
246CC
  8
0
 10
389.59601037129693
 20
195.1750358774807
 30
0.0
  0
VERTEX
  5
246CD
  8
0
 10
389.78130652472868
 20
195.36662088334421
 30
0.0
  0
VERTEX
  5
246CE
  8
0
 10
389.95266249984837
 20
195.54379258869309
 30
0.0
  0
VERTEX
  5
246CF
  8
0
 10
390.11000336539792
 20
195.70647351914289
 30
0.0
  0
VERTEX
  5
246D0
  8
0
 10
390.253260318706
 20
195.8545925368953
 30
0.0
  0
VERTEX
  5
246D1
  8
0
 10
390.3195875106789
 20
195.9231708383208
 30
0.0
  0
VERTEX
  5
246D2
  8
0
 10
390.38237071577299
 20
195.9880848718467
 30
0.0
  0
VERTEX
  5
246D3
  8
0
 10
390.49727809866448
 20
196.10689214991129
 30
0.0
  0
VERTEX
  5
246D4
  8
0
 10
390.59793222019931
 20
196.21096241854499
 30
0.0
  0
VERTEX
  5
246D5
  8
0
 10
390.6842890659222
 20
196.30025016946641
 30
0.0
  0
VERTEX
  5
246D6
  8
0
 10
390.75631087335069
 20
196.374716358553
 30
0.0
  0
VERTEX
  5
246D7
  8
0
 10
390.81396614848751
 20
196.4343284229189
 30
0.0
  0
VERTEX
  5
246D8
  8
0
 10
390.837398212057
 20
196.45855575820491
 30
0.0
  0
VERTEX
  5
246D9
  8
0
 10
390.85722967959282
 20
196.47906029515161
 30
0.0
  0
VERTEX
  5
246DA
  8
0
 10
390.88608254820878
 20
196.50889241471069
 30
0.0
  0
VERTEX
  5
246DB
  8
0
 10
390.90051213743209
 20
196.52381173648149
 30
0.0
  0
VERTEX
  5
246DC
  8
0
 10
390.90231598398532
 20
196.52567680462289
 30
0.0
  0
SEQEND
  5
246DD
  8
0
  0
LINE
  5
1C813
  8
0
 10
346.90231598398532
 20
208.3256768046231
 30
0.0
 11
368.90231598398532
 21
208.3256768046231
 31
0.0
  0
LINE
  5
1C814
  8
0
 10
329.87731598398523
 20
205.02567680462289
 30
0.0
 11
385.92731598398541
 21
205.02567680462289
 31
0.0
  0
LINE
  5
1C816
  8
0
 10
325.40231598398532
 20
201.52567680462289
 30
0.0
 11
390.40231598398532
 21
201.52567680462289
 31
0.0
  0
LINE
  5
1C818
  8
0
 10
321.40231598398532
 20
196.52567680462289
 30
0.0
 11
394.40231598398532
 21
196.52567680462289
 31
0.0
  0
LINE
  5
1C81B
  8
1
 10
357.90231598398532
 20
218.501656134863
 30
0.0
 11
357.90231598398532
 21
169.8256768046231
 31
0.0
  0
LINE
  5
1C84D
  8
2
 10
545.96552534442799
 20
162.40567443857751
 30
0.0
 11
545.96552534442799
 21
194.32567680462171
 31
0.0
  0
LINE
  5
1C84E
  8
2
 10
484.96552534442799
 20
194.32567680462171
 30
0.0
 11
484.96552534442799
 21
162.40567443857751
 31
0.0
  0
LINE
  5
1C853
  8
0
 10
548.46552534442787
 20
162.40567443857751
 30
0.0
 11
548.46552534442787
 21
196.5256768046215
 31
0.0
  0
LINE
  5
1C854
  8
0
 10
482.46552534442787
 20
196.5256768046215
 30
0.0
 11
482.46552534442787
 21
162.40567443857751
 31
0.0
  0
ARC
  5
1C858
  8
0
 10
487.4405253444279
 20
202.0256768046215
 30
0.0
 40
2.9999999999999778
 50
90.0
 51
180.0
  0
ARC
  5
1C859
  8
0
 10
543.49052534442808
 20
202.0256768046215
 30
0.0
 40
2.999999999999992
 50
0.0
 51
90.0
  0
LINE
  5
1C85A
  8
0
 10
546.49052534442797
 20
201.5256768046215
 30
0.0
 11
546.49052534442797
 21
202.0256768046215
 31
0.0
  0
LINE
  5
1C85B
  8
0
 10
484.44052534442778
 20
202.0256768046215
 30
0.0
 11
484.44052534442778
 21
201.5256768046215
 31
0.0
  0
ARC
  5
1C85C
  8
0
 10
482.96552534442787
 20
197.5256768046215
 30
0.0
 40
4.0000000000000142
 50
90.0
 51
180.0
  0
ARC
  5
1C85D
  8
0
 10
547.96552534442787
 20
197.5256768046215
 30
0.0
 40
4.0000000000000142
 50
0.0
 51
90.0
  0
LINE
  5
1C85E
  8
0
 10
551.96552534442787
 20
196.5256768046215
 30
0.0
 11
551.96552534442787
 21
197.5256768046215
 31
0.0
  0
LINE
  5
1C85F
  8
0
 10
478.96552534442787
 20
197.5256768046215
 30
0.0
 11
478.96552534442787
 21
196.5256768046215
 31
0.0
  0
LINE
  5
1C860
  8
2
 10
521.46552534442799
 20
194.32567680462171
 30
0.0
 11
521.46552534442799
 21
208.32567680462171
 31
0.0
  0
LINE
  5
1C861
  8
2
 10
509.46552534442799
 20
208.32567680462171
 30
0.0
 11
509.46552534442799
 21
194.32567680462171
 31
0.0
  0
LINE
  5
1C862
  8
0
 10
489.96552534442787
 20
131.32567680462171
 30
0.0
 11
489.96552534442787
 21
140.74840610524049
 31
0.0
  0
LINE
  5
1C863
  8
0
 10
489.96552534442787
 20
131.32567680462171
 30
0.0
 11
492.96552534442799
 21
131.32567680462171
 31
0.0
  0
LINE
  5
1C866
  8
0
 10
540.96552534442787
 20
140.74840610524049
 30
0.0
 11
540.96552534442787
 21
131.32567680462171
 31
0.0
  0
LINE
  5
1C86B
  8
0
 10
537.96552534442799
 20
131.32567680462171
 30
0.0
 11
540.96552534442787
 21
131.32567680462171
 31
0.0
  0
POLYLINE
  5
1C86C
  8
0
 66
     1
 10
0.0
 20
0.0
 30
0.0
  0
VERTEX
  5
246DE
  8
0
 10
492.96552534442799
 20
141.11555778582621
 30
0.0
  0
VERTEX
  5
246DF
  8
0
 10
492.5464109749372
 20
141.5989638261608
 30
0.0
  0
VERTEX
  5
246E0
  8
0
 10
491.73749575135707
 20
142.59202153540579
 30
0.0
  0
VERTEX
  5
246E1
  8
0
 10
490.96880091253882
 20
143.6186645341576
 30
0.0
  0
VERTEX
  5
246E2
  8
0
 10
490.59994604369871
 20
144.1440388423193
 30
0.0
  0
VERTEX
  5
246E3
  8
0
 10
490.24162944076659
 20
144.6771526030588
 30
0.0
  0
VERTEX
  5
246E4
  8
0
 10
489.55721393381049
 20
145.76569154351179
 30
0.0
  0
VERTEX
  5
246E5
  8
0
 10
488.91671451560433
 20
146.88243621895251
 30
0.0
  0
VERTEX
  5
246E6
  8
0
 10
488.32121686976728
 20
148.02549368246079
 30
0.0
  0
VERTEX
  5
246E7
  8
0
 10
487.77173039930722
 20
149.19292638541671
 30
0.0
  0
VERTEX
  5
246E8
  8
0
 10
487.26918651562391
 20
150.38275546175831
 30
0.0
  0
VERTEX
  5
246E9
  8
0
 10
487.03578739276861
 20
150.9854397706913
 30
0.0
  0
VERTEX
  5
246EA
  8
0
 10
486.81443705971333
 20
151.59296408227189
 30
0.0
  0
VERTEX
  5
246EB
  8
0
 10
486.40825285824758
 20
152.8215008732372
 30
0.0
  0
VERTEX
  5
246EC
  8
0
 10
486.05132241697942
 20
154.06628339362121
 30
0.0
  0
VERTEX
  5
246ED
  8
0
 10
485.7442507536843
 20
155.32520166494069
 30
0.0
  0
VERTEX
  5
246EE
  8
0
 10
485.48755837262019
 20
156.5961217477948
 30
0.0
  0
VERTEX
  5
246EF
  8
0
 10
485.28168038224379
 20
157.87688935901539
 30
0.0
  0
VERTEX
  5
246F0
  8
0
 10
485.1979092200495
 20
158.52028810956239
 30
0.0
  0
VERTEX
  5
246F1
  8
0
 10
485.12696575767541
 20
159.16533352330589
 30
0.0
  0
VERTEX
  5
246F2
  8
0
 10
485.02367674916741
 20
160.45927025316581
 30
0.0
  0
VERTEX
  5
246F3
  8
0
 10
484.97198843757172
 20
161.7565062508784
 30
0.0
  0
VERTEX
  5
246F4
  8
0
 10
484.96552534442799
 20
162.40567443857751
 30
0.0
  0
SEQEND
  5
246F5
  8
0
  0
POLYLINE
  5
1C86D
  8
0
 66
     1
 10
0.0
 20
0.0
 30
0.0
  0
VERTEX
  5
246F6
  8
0
 10
484.96552534442799
 20
162.40567443857751
 30
0.0
  0
VERTEX
  5
246F7
  8
0
 10
484.9687512706509
 20
162.8643184864454
 30
0.0
  0
VERTEX
  5
246F8
  8
0
 10
484.99455458618098
 20
163.781218523528
 30
0.0
  0
VERTEX
  5
246F9
  8
0
 10
485.04613938506048
 20
164.6969547129865
 30
0.0
  0
VERTEX
  5
246FA
  8
0
 10
485.0815870526298
 20
165.15414418213231
 30
0.0
  0
VERTEX
  5
246FB
  8
0
 10
485.12346202139912
 20
165.6107522505817
 30
0.0
  0
VERTEX
  5
246FC
  8
0
 10
485.2264570725265
 20
166.52183797236691
 30
0.0
  0
VERTEX
  5
246FD
  8
0
 10
485.35503739434802
 20
167.4294410088628
 30
0.0
  0
VERTEX
  5
246FE
  8
0
 10
485.50909419507389
 20
168.33279343728961
 30
0.0
  0
VERTEX
  5
246FF
  8
0
 10
485.68849712726973
 20
169.2311309313063
 30
0.0
  0
VERTEX
  5
24700
  8
0
 10
485.89309439814542
 20
170.12369340770601
 30
0.0
  0
VERTEX
  5
24701
  8
0
 10
486.00478764261152
 20
170.56757280687719
 30
0.0
  0
VERTEX
  5
24702
  8
0
 10
486.12271289798258
 20
171.0097256695253
 30
0.0
  0
VERTEX
  5
24703
  8
0
 10
486.37715834660679
 20
171.8884780450125
 30
0.0
  0
VERTEX
  5
24704
  8
0
 10
486.65621545776588
 20
172.75920702192701
 30
0.0
  0
VERTEX
  5
24705
  8
0
 10
486.95964812128381
 20
173.6211758766253
 30
0.0
  0
VERTEX
  5
24706
  8
0
 10
487.28719960283382
 20
174.4736552974004
 30
0.0
  0
VERTEX
  5
24707
  8
0
 10
487.63859276116079
 20
175.31592400155481
 30
0.0
  0
VERTEX
  5
24708
  8
0
 10
487.82313783980987
 20
175.73300627982141
 30
0.0
  0
VERTEX
  5
24709
  8
0
 10
488.01353028257199
 20
176.1472693456767
 30
0.0
  0
VERTEX
  5
2470A
  8
0
 10
488.41169493249203
 20
176.96698792860661
 30
0.0
  0
VERTEX
  5
2470B
  8
0
 10
488.83274982387587
 20
177.7743861865865
 30
0.0
  0
VERTEX
  5
2470C
  8
0
 10
489.05175052900262
 20
178.1732512895523
 30
0.0
  0
VERTEX
  5
2470D
  8
0
 10
489.27633870224912
 20
178.56878098008289
 30
0.0
  0
VERTEX
  5
2470E
  8
0
 10
489.74208624713481
 20
179.34950017179199
 30
0.0
  0
VERTEX
  5
2470F
  8
0
 10
490.22959838961191
 20
180.11588319533391
 30
0.0
  0
VERTEX
  5
24710
  8
0
 10
490.48138799361368
 20
180.4934955187245
 30
0.0
  0
VERTEX
  5
24711
  8
0
 10
490.73846264573638
 20
180.86728161415789
 30
0.0
  0
VERTEX
  5
24712
  8
0
 10
491.26824846554513
 20
181.60305967018621
 30
0.0
  0
VERTEX
  5
24713
  8
0
 10
491.81850759734328
 20
182.32259482172589
 30
0.0
  0
VERTEX
  5
24714
  8
0
 10
492.3887744669691
 20
183.02527827020359
 30
0.0
  0
VERTEX
  5
24715
  8
0
 10
492.978566571719
 20
183.7105154752694
 30
0.0
  0
VERTEX
  5
24716
  8
0
 10
493.58738488858938
 20
184.37772665783669
 30
0.0
  0
VERTEX
  5
24717
  8
0
 10
493.89876851823823
 20
184.7043954669862
 30
0.0
  0
VERTEX
  5
24718
  8
0
 10
494.21471429650268
 20
185.02634729063351
 30
0.0
  0
VERTEX
  5
24719
  8
0
 10
494.8600240121504
 20
185.6558285758492
 30
0.0
  0
VERTEX
  5
2471A
  8
0
 10
495.52276803908711
 20
186.26563790947151
 30
0.0
  0
VERTEX
  5
2471B
  8
0
 10
496.20238562970189
 20
186.85525933192361
 30
0.0
  0
VERTEX
  5
2471C
  8
0
 10
496.89830175966188
 20
187.42419396461719
 30
0.0
  0
VERTEX
  5
2471D
  8
0
 10
497.60992761444447
 20
187.9719604320525
 30
0.0
  0
VERTEX
  5
2471E
  8
0
 10
497.97144403572111
 20
188.23776006049729
 30
0.0
  0
VERTEX
  5
2471F
  8
0
 10
498.33666108753141
 20
188.4980952691121
 30
0.0
  0
VERTEX
  5
24720
  8
0
 10
499.07788728984991
 20
189.00215331319669
 30
0.0
  0
VERTEX
  5
24721
  8
0
 10
499.83297907003168
 20
189.4837080808779
 30
0.0
  0
VERTEX
  5
24722
  8
0
 10
500.60129754504709
 20
189.9423521287458
 30
0.0
  0
VERTEX
  5
24723
  8
0
 10
501.38219264075951
 20
190.37769739814749
 30
0.0
  0
VERTEX
  5
24724
  8
0
 10
502.17500364195712
 20
190.7893755435216
 30
0.0
  0
VERTEX
  5
24725
  8
0
 10
502.57566836133668
 20
190.9862298040525
 30
0.0
  0
VERTEX
  5
24726
  8
0
 10
502.9790597513819
 20
191.1770382440568
 30
0.0
  0
VERTEX
  5
24727
  8
0
 10
503.7936806572925
 20
191.54035749840659
 30
0.0
  0
VERTEX
  5
24728
  8
0
 10
504.61817710907422
 20
191.87902590220889
 30
0.0
  0
VERTEX
  5
24729
  8
0
 10
505.45185150041419
 20
192.19275690818361
 30
0.0
  0
VERTEX
  5
2472A
  8
0
 10
506.29399845954782
 20
192.48128506857799
 30
0.0
  0
VERTEX
  5
2472B
  8
0
 10
507.14390544607022
 20
192.7443662597625
 30
0.0
  0
VERTEX
  5
2472C
  8
0
 10
507.57154446880122
 20
192.86629383528631
 30
0.0
  0
VERTEX
  5
2472D
  8
0
 10
508.00085335382119
 20
192.98177788878451
 30
0.0
  0
VERTEX
  5
2472E
  8
0
 10
508.86411711931578
 20
193.1933190817044
 30
0.0
  0
VERTEX
  5
2472F
  8
0
 10
509.73296633522432
 20
193.3788108535536
 30
0.0
  0
VERTEX
  5
24730
  8
0
 10
510.60666586836851
 20
193.53809625977371
 30
0.0
  0
VERTEX
  5
24731
  8
0
 10
511.48447648171617
 20
193.6710405290091
 30
0.0
  0
VERTEX
  5
24732
  8
0
 10
512.36565545985229
 20
193.77753117713559
 30
0.0
  0
VERTEX
  5
24733
  8
0
 10
512.8072751906243
 20
193.8208273599684
 30
0.0
  0
VERTEX
  5
24734
  8
0
 10
513.24945723738836
 20
193.85747810243311
 30
0.0
  0
VERTEX
  5
24735
  8
0
 10
514.13513402978515
 20
193.91081366182109
 30
0.0
  0
VERTEX
  5
24736
  8
0
 10
515.02193646605474
 20
193.93749272809191
 30
0.0
  0
VERTEX
  5
24737
  8
0
 10
515.46552534442787
 20
193.9408281405276
 30
0.0
  0
VERTEX
  5
24738
  8
0
 10
515.90911422280124
 20
193.93749272809191
 30
0.0
  0
VERTEX
  5
24739
  8
0
 10
516.79591665907083
 20
193.91081366182109
 30
0.0
  0
VERTEX
  5
2473A
  8
0
 10
517.68159345146739
 20
193.85747810243311
 30
0.0
  0
VERTEX
  5
2473B
  8
0
 10
518.12377549823157
 20
193.8208273599684
 30
0.0
  0
VERTEX
  5
2473C
  8
0
 10
518.56539522900346
 20
193.77753117713559
 30
0.0
  0
VERTEX
  5
2473D
  8
0
 10
519.44657420713918
 20
193.6710405290091
 30
0.0
  0
VERTEX
  5
2473E
  8
0
 10
520.32438482048735
 20
193.53809625977371
 30
0.0
  0
VERTEX
  5
2473F
  8
0
 10
521.1980843536312
 20
193.3788108535536
 30
0.0
  0
VERTEX
  5
24740
  8
0
 10
522.0669335695402
 20
193.1933190817044
 30
0.0
  0
VERTEX
  5
24741
  8
0
 10
522.93019733503479
 20
192.98177788878451
 30
0.0
  0
VERTEX
  5
24742
  8
0
 10
523.35950622005475
 20
192.86629383528631
 30
0.0
  0
VERTEX
  5
24743
  8
0
 10
523.78714524278519
 20
192.7443662597625
 30
0.0
  0
VERTEX
  5
24744
  8
0
 10
524.63705222930821
 20
192.48128506857799
 30
0.0
  0
VERTEX
  5
24745
  8
0
 10
525.47919918844173
 20
192.19275690818361
 30
0.0
  0
VERTEX
  5
24746
  8
0
 10
526.31287357978181
 20
191.87902590220889
 30
0.0
  0
VERTEX
  5
24747
  8
0
 10
527.13737003156302
 20
191.54035749840659
 30
0.0
  0
VERTEX
  5
24748
  8
0
 10
527.95199093747351
 20
191.1770382440568
 30
0.0
  0
VERTEX
  5
24749
  8
0
 10
528.35538232751924
 20
190.9862298040525
 30
0.0
  0
VERTEX
  5
2474A
  8
0
 10
528.75604704689874
 20
190.7893755435216
 30
0.0
  0
VERTEX
  5
2474B
  8
0
 10
529.54885804809635
 20
190.37769739814749
 30
0.0
  0
VERTEX
  5
2474C
  8
0
 10
530.32975314380883
 20
189.9423521287458
 30
0.0
  0
VERTEX
  5
2474D
  8
0
 10
531.09807161882372
 20
189.4837080808779
 30
0.0
  0
VERTEX
  5
2474E
  8
0
 10
531.85316339900601
 20
189.00215331319669
 30
0.0
  0
VERTEX
  5
2474F
  8
0
 10
532.59438960132445
 20
188.4980952691121
 30
0.0
  0
VERTEX
  5
24750
  8
0
 10
532.95960665313476
 20
188.23776006049729
 30
0.0
  0
VERTEX
  5
24751
  8
0
 10
533.32112307441093
 20
187.9719604320525
 30
0.0
  0
VERTEX
  5
24752
  8
0
 10
534.03274892919387
 20
187.42419396461719
 30
0.0
  0
VERTEX
  5
24753
  8
0
 10
534.72866505915408
 20
186.85525933192361
 30
0.0
  0
VERTEX
  5
24754
  8
0
 10
535.40828264976835
 20
186.26563790947151
 30
0.0
  0
VERTEX
  5
24755
  8
0
 10
536.07102667670551
 20
185.6558285758492
 30
0.0
  0
VERTEX
  5
24756
  8
0
 10
536.71633639235279
 20
185.02634729063351
 30
0.0
  0
VERTEX
  5
24757
  8
0
 10
537.03228217061758
 20
184.7043954669862
 30
0.0
  0
VERTEX
  5
24758
  8
0
 10
537.34366580026608
 20
184.37772665783669
 30
0.0
  0
VERTEX
  5
24759
  8
0
 10
537.95248411713635
 20
183.7105154752694
 30
0.0
  0
VERTEX
  5
2475A
  8
0
 10
538.54227622188637
 20
183.02527827020359
 30
0.0
  0
VERTEX
  5
2475B
  8
0
 10
539.11254309151263
 20
182.32259482172589
 30
0.0
  0
VERTEX
  5
2475C
  8
0
 10
539.66280222331079
 20
181.60305967018621
 30
0.0
  0
VERTEX
  5
2475D
  8
0
 10
540.19258804311937
 20
180.86728161415789
 30
0.0
  0
VERTEX
  5
2475E
  8
0
 10
540.4496626952423
 20
180.4934955187245
 30
0.0
  0
VERTEX
  5
2475F
  8
0
 10
540.7014522992439
 20
180.11588319533391
 30
0.0
  0
VERTEX
  5
24760
  8
0
 10
541.18896444172105
 20
179.34950017179199
 30
0.0
  0
VERTEX
  5
24761
  8
0
 10
541.65471198660669
 20
178.56878098008289
 30
0.0
  0
VERTEX
  5
24762
  8
0
 10
541.87930015985319
 20
178.1732512895523
 30
0.0
  0
VERTEX
  5
24763
  8
0
 10
542.09830086498005
 20
177.7743861865865
 30
0.0
  0
VERTEX
  5
24764
  8
0
 10
542.51935575636344
 20
176.96698792860661
 30
0.0
  0
VERTEX
  5
24765
  8
0
 10
542.91752040628353
 20
176.1472693456767
 30
0.0
  0
VERTEX
  5
24766
  8
0
 10
543.10791284904553
 20
175.73300627982141
 30
0.0
  0
VERTEX
  5
24767
  8
0
 10
543.29245792769461
 20
175.31592400155481
 30
0.0
  0
VERTEX
  5
24768
  8
0
 10
543.64385108602198
 20
174.4736552974004
 30
0.0
  0
VERTEX
  5
24769
  8
0
 10
543.97140256757211
 20
173.6211758766253
 30
0.0
  0
VERTEX
  5
2476A
  8
0
 10
544.27483523109004
 20
172.75920702192701
 30
0.0
  0
VERTEX
  5
2476B
  8
0
 10
544.55389234224856
 20
171.8884780450125
 30
0.0
  0
VERTEX
  5
2476C
  8
0
 10
544.80833779087277
 20
171.0097256695253
 30
0.0
  0
VERTEX
  5
2476D
  8
0
 10
544.92626304624434
 20
170.56757280687719
 30
0.0
  0
VERTEX
  5
2476E
  8
0
 10
545.03795629071055
 20
170.12369340770601
 30
0.0
  0
VERTEX
  5
2476F
  8
0
 10
545.24255356158574
 20
169.2311309313063
 30
0.0
  0
VERTEX
  5
24770
  8
0
 10
545.42195649378209
 20
168.33279343728961
 30
0.0
  0
VERTEX
  5
24771
  8
0
 10
545.5760132945079
 20
167.4294410088628
 30
0.0
  0
VERTEX
  5
24772
  8
0
 10
545.70459361632891
 20
166.52183797236691
 30
0.0
  0
VERTEX
  5
24773
  8
0
 10
545.80758866745691
 20
165.6107522505817
 30
0.0
  0
VERTEX
  5
24774
  8
0
 10
545.84946363622612
 20
165.15414418213231
 30
0.0
  0
VERTEX
  5
24775
  8
0
 10
545.88491130379543
 20
164.6969547129865
 30
0.0
  0
VERTEX
  5
24776
  8
0
 10
545.93649610267448
 20
163.781218523528
 30
0.0
  0
VERTEX
  5
24777
  8
0
 10
545.96229941820445
 20
162.8643184864454
 30
0.0
  0
VERTEX
  5
24778
  8
0
 10
545.96552534442799
 20
162.40567443857751
 30
0.0
  0
SEQEND
  5
24779
  8
0
  0
POLYLINE
  5
1C86E
  8
0
 66
     1
 10
0.0
 20
0.0
 30
0.0
  0
VERTEX
  5
2477A
  8
0
 10
545.96552534442799
 20
162.40567443857751
 30
0.0
  0
VERTEX
  5
2477B
  8
0
 10
545.95906225128374
 20
161.7565062508784
 30
0.0
  0
VERTEX
  5
2477C
  8
0
 10
545.90737393968857
 20
160.45927025316581
 30
0.0
  0
VERTEX
  5
2477D
  8
0
 10
545.80408493118
 20
159.16533352330589
 30
0.0
  0
VERTEX
  5
2477E
  8
0
 10
545.73314146880602
 20
158.52028810956239
 30
0.0
  0
VERTEX
  5
2477F
  8
0
 10
545.64937030661213
 20
157.87688935901539
 30
0.0
  0
VERTEX
  5
24780
  8
0
 10
545.44349231623573
 20
156.5961217477948
 30
0.0
  0
VERTEX
  5
24781
  8
0
 10
545.18679993517162
 20
155.32520166494069
 30
0.0
  0
VERTEX
  5
24782
  8
0
 10
544.87972827187605
 20
154.06628339362121
 30
0.0
  0
VERTEX
  5
24783
  8
0
 10
544.52279783060794
 20
152.8215008732372
 30
0.0
  0
VERTEX
  5
24784
  8
0
 10
544.11661362914265
 20
151.5929640822724
 30
0.0
  0
VERTEX
  5
24785
  8
0
 10
543.8952632960868
 20
150.9854397706913
 30
0.0
  0
VERTEX
  5
24786
  8
0
 10
543.66186417323195
 20
150.38275546175831
 30
0.0
  0
VERTEX
  5
24787
  8
0
 10
543.15932028954865
 20
149.19292638541671
 30
0.0
  0
VERTEX
  5
24788
  8
0
 10
542.60983381908818
 20
148.02549368246079
 30
0.0
  0
VERTEX
  5
24789
  8
0
 10
542.01433617325108
 20
146.88243621895251
 30
0.0
  0
VERTEX
  5
2478A
  8
0
 10
541.37383675504543
 20
145.76569154351179
 30
0.0
  0
VERTEX
  5
2478B
  8
0
 10
540.68942124808916
 20
144.6771526030588
 30
0.0
  0
VERTEX
  5
2478C
  8
0
 10
540.3311046451571
 20
144.1440388423193
 30
0.0
  0
VERTEX
  5
2478D
  8
0
 10
539.96224977631664
 20
143.6186645341576
 30
0.0
  0
VERTEX
  5
2478E
  8
0
 10
539.19355493749845
 20
142.59202153540579
 30
0.0
  0
VERTEX
  5
2478F
  8
0
 10
538.3846397139182
 20
141.5989638261608
 30
0.0
  0
VERTEX
  5
24790
  8
0
 10
537.96552534442799
 20
141.11555778582621
 30
0.0
  0
SEQEND
  5
24791
  8
0
  0
LINE
  5
1C86F
  8
2
 10
484.96552534442799
 20
194.32567680462171
 30
0.0
 11
545.96552534442799
 21
194.32567680462171
 31
0.0
  0
LINE
  5
1C870
  8
0
 10
492.96552534442799
 20
131.32567680462171
 30
0.0
 11
492.96552534442799
 21
183.6957822005111
 31
0.0
  0
LINE
  5
1C873
  8
0
 10
537.96552534442799
 20
183.6957822005111
 30
0.0
 11
537.96552534442799
 21
131.32567680462171
 31
0.0
  0
LINE
  5
1C874
  8
0
 10
502.24208547077382
 20
190.82567680462171
 30
0.0
 11
528.68896521808199
 21
190.82567680462171
 31
0.0
  0
POLYLINE
  5
1C878
  8
0
 66
     1
 10
0.0
 20
0.0
 30
0.0
  0
VERTEX
  5
24792
  8
0
 10
515.46552534442787
 20
196.5256768046215
 30
0.0
  0
VERTEX
  5
24793
  8
0
 10
515.70550600133583
 20
196.52477459096909
 30
0.0
  0
VERTEX
  5
24794
  8
0
 10
516.18541655056833
 20
196.51755716802521
 30
0.0
  0
VERTEX
  5
24795
  8
0
 10
516.66517481679
 20
196.50312384888321
 30
0.0
  0
VERTEX
  5
24796
  8
0
 10
516.90496512748405
 20
196.49320212274279
 30
0.0
  0
VERTEX
  5
24797
  8
0
 10
517.14467931378567
 20
196.481477686712
 30
0.0
  0
VERTEX
  5
24798
  8
0
 10
517.62382860902244
 20
196.4526232604571
 30
0.0
  0
VERTEX
  5
24799
  8
0
 10
518.10252134510574
 20
196.41656667387269
 30
0.0
  0
VERTEX
  5
2479A
  8
0
 10
518.58065626121777
 20
196.37331555423
 30
0.0
  0
VERTEX
  5
2479B
  8
0
 10
519.05813221454264
 20
196.3228790507041
 30
0.0
  0
VERTEX
  5
2479C
  8
0
 10
519.53484820165704
 20
196.26526783243929
 30
0.0
  0
VERTEX
  5
2479D
  8
0
 10
519.7728896876896
 20
196.23377545445419
 30
0.0
  0
VERTEX
  5
2479E
  8
0
 10
520.01070337989756
 20
196.20049408628981
 30
0.0
  0
VERTEX
  5
2479F
  8
0
 10
520.48559708869504
 20
196.12857151424441
 30
0.0
  0
VERTEX
  5
247A0
  8
0
 10
520.95942887086403
 20
196.0495153305273
 30
0.0
  0
VERTEX
  5
247A1
  8
0
 10
521.43209849385585
 20
195.9633422583783
 30
0.0
  0
VERTEX
  5
247A2
  8
0
 10
521.90350597095994
 20
195.87007052651691
 30
0.0
  0
VERTEX
  5
247A3
  8
0
 10
522.373551582456
 20
195.76971986528631
 30
0.0
  0
VERTEX
  5
247A4
  8
0
 10
522.60803260438524
 20
195.7168965114692
 30
0.0
  0
VERTEX
  5
247A5
  8
0
 10
522.84213589670605
 20
195.66231150247859
 30
0.0
  0
VERTEX
  5
247A6
  8
0
 10
523.30915979119163
 20
195.54786815884421
 30
0.0
  0
VERTEX
  5
247A7
  8
0
 10
523.77452447347684
 20
195.42641404328739
 30
0.0
  0
VERTEX
  5
247A8
  8
0
 10
524.00655383281128
 20
195.36306591698349
 30
0.0
  0
VERTEX
  5
247A9
  8
0
 10
524.23813150211117
 20
195.2979748477442
 30
0.0
  0
VERTEX
  5
247AA
  8
0
 10
524.69988280745065
 20
195.16257774174571
 30
0.0
  0
VERTEX
  5
247AB
  8
0
 10
525.15968071240331
 20
195.02025136667501
 30
0.0
  0
VERTEX
  5
247AC
  8
0
 10
525.38881672806883
 20
194.94649905464351
 30
0.0
  0
VERTEX
  5
247AD
  8
0
 10
525.61742795309283
 20
194.87102582970459
 30
0.0
  0
VERTEX
  5
247AE
  8
0
 10
526.07302769943215
 20
194.71493269742899
 30
0.0
  0
VERTEX
  5
247AF
  8
0
 10
526.5263835756067
 20
194.55200498918839
 30
0.0
  0
VERTEX
  5
247B0
  8
0
 10
526.97739968046244
 20
194.38227717008201
 30
0.0
  0
VERTEX
  5
247B1
  8
0
 10
527.42598060779017
 20
194.20578514367841
 30
0.0
  0
VERTEX
  5
247B2
  8
0
 10
527.87203146650916
 20
194.02256624442089
 30
0.0
  0
VERTEX
  5
247B3
  8
0
 10
528.09407861247564
 20
193.92844627380231
 30
0.0
  0
VERTEX
  5
247B4
  8
0
 10
528.31545790074085
 20
193.8326592297289
 30
0.0
  0
VERTEX
  5
247B5
  8
0
 10
528.75616610976613
 20
193.63610427180041
 30
0.0
  0
VERTEX
  5
247B6
  8
0
 10
529.19406286786887
 20
193.43294294911399
 30
0.0
  0
VERTEX
  5
247B7
  8
0
 10
529.62905554405643
 20
193.22321823763241
 30
0.0
  0
VERTEX
  5
247B8
  8
0
 10
530.06105212165494
 20
193.0069745017135
 30
0.0
  0
VERTEX
  5
247B9
  8
0
 10
530.48996121777327
 20
192.7842574847227
 30
0.0
  0
VERTEX
  5
247BA
  8
0
 10
530.70322958118413
 20
192.6704861653252
 30
0.0
  0
VERTEX
  5
247BB
  8
0
 10
530.91569210263424
 20
192.55511429936041
 30
0.0
  0
VERTEX
  5
247BC
  8
0
 10
531.33815471876767
 20
192.319593417692
 30
0.0
  0
VERTEX
  5
247BD
  8
0
 10
531.75725970005976
 20
192.0777446608972
 30
0.0
  0
VERTEX
  5
247BE
  8
0
 10
532.17291839065774
 20
191.8296191887307
 30
0.0
  0
VERTEX
  5
247BF
  8
0
 10
532.58504286372499
 20
191.57526948869781
 30
0.0
  0
VERTEX
  5
247C0
  8
0
 10
532.99354594003853
 20
191.31474936495351
 30
0.0
  0
VERTEX
  5
247C1
  8
0
 10
533.19641241987301
 20
191.18219256521479
 30
0.0
  0
VERTEX
  5
247C2
  8
0
 10
533.39834120643172
 20
191.0481139269213
 30
0.0
  0
VERTEX
  5
247C3
  8
0
 10
533.7993430340747
 20
190.77541957763421
 30
0.0
  0
VERTEX
  5
247C4
  8
0
 10
534.19646659658611
 20
190.4967240018031
 30
0.0
  0
VERTEX
  5
247C5
  8
0
 10
534.5896278879776
 20
190.21208615361641
 30
0.0
  0
VERTEX
  5
247C6
  8
0
 10
534.97874374042613
 20
189.9215662442675
 30
0.0
  0
VERTEX
  5
247C7
  8
0
 10
535.36373184186266
 20
189.62522572921799
 30
0.0
  0
VERTEX
  5
247C8
  8
0
 10
535.55465250171574
 20
189.47489228642371
 30
0.0
  0
VERTEX
  5
247C9
  8
0
 10
535.74451075338936
 20
189.3231272951989
 30
0.0
  0
VERTEX
  5
247CA
  8
0
 10
536.12099992650201
 20
189.0153348469475
 30
0.0
  0
VERTEX
  5
247CB
  8
0
 10
536.49311972013174
 20
188.7019134936931
 30
0.0
  0
VERTEX
  5
247CC
  8
0
 10
536.86079141749258
 20
188.3829295353803
 30
0.0
  0
VERTEX
  5
247CD
  8
0
 10
537.22393724273024
 20
188.0584504486464
 30
0.0
  0
VERTEX
  5
247CE
  8
0
 10
537.5824803773761
 20
187.72854487254651
 30
0.0
  0
VERTEX
  5
247CF
  8
0
 10
537.76000219574462
 20
187.56157891496969
 30
0.0
  0
VERTEX
  5
247D0
  8
0
 10
537.93634497659832
 20
187.39328259403459
 30
0.0
  0
VERTEX
  5
247D1
  8
0
 10
538.28545618524265
 20
187.0527345332016
 30
0.0
  0
VERTEX
  5
247D2
  8
0
 10
538.62974015366979
 20
186.7069727282705
 30
0.0
  0
VERTEX
  5
247D3
  8
0
 10
538.8000491235839
 20
186.53215948570821
 30
0.0
  0
VERTEX
  5
247D4
  8
0
 10
538.96912405337662
 20
186.35607032036199
 30
0.0
  0
VERTEX
  5
247D5
  8
0
 10
539.30353609240001
 20
186.0001015380189
 30
0.0
  0
VERTEX
  5
247D6
  8
0
 10
539.63290553050638
 20
185.6391416815049
 30
0.0
  0
VERTEX
  5
247D7
  8
0
 10
539.79567745916199
 20
185.4568139209
 30
0.0
  0
VERTEX
  5
247D8
  8
0
 10
539.9571626941547
 20
185.27326710687751
 30
0.0
  0
VERTEX
  5
247D9
  8
0
 10
540.27623899123398
 20
184.9025552098332
 30
0.0
  0
VERTEX
  5
247DA
  8
0
 10
540.59006692557432
 20
184.5270844093383
 30
0.0
  0
VERTEX
  5
247DB
  8
0
 10
540.89858011122442
 20
184.14693413103939
 30
0.0
  0
VERTEX
  5
247DC
  8
0
 10
541.20171328649303
 20
183.7621847904602
 30
0.0
  0
VERTEX
  5
247DD
  8
0
 10
541.49940232775725
 20
183.3729177759937
 30
0.0
  0
VERTEX
  5
247DE
  8
0
 10
541.64618557403855
 20
183.17661583671131
 30
0.0
  0
VERTEX
  5
247DF
  8
0
 10
541.79158426302445
 20
182.9792154316842
 30
0.0
  0
VERTEX
  5
247E0
  8
0
 10
542.07819728525465
 20
182.58116103980771
 30
0.0
  0
VERTEX
  5
247E1
  8
0
 10
542.35918076543328
 20
182.17883880325601
 30
0.0
  0
VERTEX
  5
247E2
  8
0
 10
542.63447526539846
 20
181.77233382772511
 30
0.0
  0
VERTEX
  5
247E3
  8
0
 10
542.90402255041181
 20
181.36173210371001
 30
0.0
  0
VERTEX
  5
247E4
  8
0
 10
543.16776560148026
 20
180.94712048831701
 30
0.0
  0
VERTEX
  5
247E5
  8
0
 10
543.29744305625309
 20
180.7383383466458
 30
0.0
  0
VERTEX
  5
247E6
  8
0
 10
543.42564862741517
 20
180.52858668688981
 30
0.0
  0
VERTEX
  5
247E7
  8
0
 10
543.67761707663522
 20
180.10621923445481
 30
0.0
  0
VERTEX
  5
247E8
  8
0
 10
543.92361764870554
 20
179.68010747699549
 30
0.0
  0
VERTEX
  5
247E9
  8
0
 10
544.73688283930915
 20
178.16053821467449
 30
0.0
  0
VERTEX
  5
247EA
  8
0
 10
545.95354991730028
 20
175.46283405632039
 30
0.0
  0
VERTEX
  5
247EB
  8
0
 10
546.93818471911925
 20
172.66575702914631
 30
0.0
  0
VERTEX
  5
247EC
  8
0
 10
547.34107761196708
 20
171.23658086985279
 30
0.0
  0
VERTEX
  5
247ED
  8
0
 10
547.68329357938592
 20
169.7905945782513
 30
0.0
  0
VERTEX
  5
247EE
  8
0
 10
548.18320576976384
 20
166.85922842595619
 30
0.0
  0
VERTEX
  5
247EF
  8
0
 10
548.43411665662916
 20
163.89396803868789
 30
0.0
  0
VERTEX
  5
247F0
  8
0
 10
548.46552534442787
 20
162.40567443857751
 30
0.0
  0
SEQEND
  5
247F1
  8
0
  0
POLYLINE
  5
1C879
  8
0
 66
     1
 10
0.0
 20
0.0
 30
0.0
  0
VERTEX
  5
247F2
  8
0
 10
548.46552534442787
 20
162.40567443857751
 30
0.0
  0
VERTEX
  5
247F3
  8
0
 10
548.459504942943
 20
161.7539560141299
 30
0.0
  0
VERTEX
  5
247F4
  8
0
 10
548.41135491034618
 20
160.45147025582031
 30
0.0
  0
VERTEX
  5
247F5
  8
0
 10
548.31512511329527
 20
159.1518363812861
 30
0.0
  0
VERTEX
  5
247F6
  8
0
 10
548.24902145270426
 20
158.5036818360245
 30
0.0
  0
VERTEX
  5
247F7
  8
0
 10
548.1709559855276
 20
157.8569510217971
 30
0.0
  0
VERTEX
  5
247F8
  8
0
 10
547.97905792143183
 20
156.5687038788387
 30
0.0
  0
VERTEX
  5
247F9
  8
0
 10
547.73971096901005
 20
155.28897496636179
 30
0.0
  0
VERTEX
  5
247FA
  8
0
 10
547.45326442118437
 20
154.01963186716779
 30
0.0
  0
VERTEX
  5
247FB
  8
0
 10
547.12013630605588
 20
152.7625270074368
 30
0.0
  0
VERTEX
  5
247FC
  8
0
 10
546.74081277684945
 20
151.51949495337519
 30
0.0
  0
VERTEX
  5
247FD
  8
0
 10
546.53399811023974
 20
150.90382398736119
 30
0.0
  0
VERTEX
  5
247FE
  8
0
 10
546.31584740244398
 20
150.29234973392479
 30
0.0
  0
VERTEX
  5
247FF
  8
0
 10
545.84586035951634
 20
149.0828821934478
 30
0.0
  0
VERTEX
  5
24800
  8
0
 10
545.3315375274824
 20
147.89285737823951
 30
0.0
  0
VERTEX
  5
24801
  8
0
 10
544.77362948755217
 20
146.72401196069859
 30
0.0
  0
VERTEX
  5
24802
  8
0
 10
544.17295042736259
 20
145.5780517048947
 30
0.0
  0
VERTEX
  5
24803
  8
0
 10
543.53037695278806
 20
144.45664897725231
 30
0.0
  0
VERTEX
  5
24804
  8
0
 10
543.1936705039443
 20
143.90566956716111
 30
0.0
  0
VERTEX
  5
24805
  8
0
 10
542.84684680865803
 20
143.3614403059664
 30
0.0
  0
VERTEX
  5
24806
  8
0
 10
542.12335751024966
 20
142.29402399272379
 30
0.0
  0
VERTEX
  5
24807
  8
0
 10
541.3609648875572
 20
141.25595778020579
 30
0.0
  0
VERTEX
  5
24808
  8
0
 10
540.96552534442787
 20
140.74840610524049
 30
0.0
  0
SEQEND
  5
24809
  8
0
  0
POLYLINE
  5
1C87A
  8
0
 66
     1
 10
0.0
 20
0.0
 30
0.0
  0
VERTEX
  5
2480A
  8
0
 10
489.96552534442787
 20
140.74840610524049
 30
0.0
  0
VERTEX
  5
2480B
  8
0
 10
489.57008580129872
 20
141.25595778020579
 30
0.0
  0
VERTEX
  5
2480C
  8
0
 10
488.80769317860631
 20
142.29402399272379
 30
0.0
  0
VERTEX
  5
2480D
  8
0
 10
488.08420388019749
 20
143.3614403059664
 30
0.0
  0
VERTEX
  5
2480E
  8
0
 10
487.73738018491161
 20
143.90566956716111
 30
0.0
  0
VERTEX
  5
2480F
  8
0
 10
487.40067373606729
 20
144.45664897725231
 30
0.0
  0
VERTEX
  5
24810
  8
0
 10
486.75810026149333
 20
145.5780517048947
 30
0.0
  0
VERTEX
  5
24811
  8
0
 10
486.1574212013038
 20
146.72401196069859
 30
0.0
  0
VERTEX
  5
24812
  8
0
 10
485.59951316137312
 20
147.89285737823951
 30
0.0
  0
VERTEX
  5
24813
  8
0
 10
485.08519032933913
 20
149.0828821934478
 30
0.0
  0
VERTEX
  5
24814
  8
0
 10
484.615203286412
 20
150.29234973392479
 30
0.0
  0
VERTEX
  5
24815
  8
0
 10
484.39705257861579
 20
150.90382398736119
 30
0.0
  0
VERTEX
  5
24816
  8
0
 10
484.19023791200652
 20
151.51949495337519
 30
0.0
  0
VERTEX
  5
24817
  8
0
 10
483.81091438280009
 20
152.7625270074368
 30
0.0
  0
VERTEX
  5
24818
  8
0
 10
483.47778626767098
 20
154.01963186716779
 30
0.0
  0
VERTEX
  5
24819
  8
0
 10
483.19133971984593
 20
155.28897496636179
 30
0.0
  0
VERTEX
  5
2481A
  8
0
 10
482.95199276742409
 20
156.5687038788387
 30
0.0
  0
VERTEX
  5
2481B
  8
0
 10
482.76009470332838
 20
157.8569510217971
 30
0.0
  0
VERTEX
  5
2481C
  8
0
 10
482.68202923615161
 20
158.5036818360245
 30
0.0
  0
VERTEX
  5
2481D
  8
0
 10
482.61592557556008
 20
159.1518363812861
 30
0.0
  0
VERTEX
  5
2481E
  8
0
 10
482.51969577850917
 20
160.45147025582031
 30
0.0
  0
VERTEX
  5
2481F
  8
0
 10
482.47154574591281
 20
161.7539560141299
 30
0.0
  0
VERTEX
  5
24820
  8
0
 10
482.46552534442787
 20
162.40567443857751
 30
0.0
  0
SEQEND
  5
24821
  8
0
  0
POLYLINE
  5
1C87B
  8
0
 66
     1
 10
0.0
 20
0.0
 30
0.0
  0
VERTEX
  5
24822
  8
0
 10
482.46552534442787
 20
162.40567443857751
 30
0.0
  0
VERTEX
  5
24823
  8
0
 10
482.49693403222631
 20
163.89396803868789
 30
0.0
  0
VERTEX
  5
24824
  8
0
 10
482.74784491909207
 20
166.85922842595619
 30
0.0
  0
VERTEX
  5
24825
  8
0
 10
483.24775710947
 20
169.7905945782513
 30
0.0
  0
VERTEX
  5
24826
  8
0
 10
483.58997307688873
 20
171.23658086985279
 30
0.0
  0
VERTEX
  5
24827
  8
0
 10
483.99286596973661
 20
172.66575702914631
 30
0.0
  0
VERTEX
  5
24828
  8
0
 10
484.97750077155519
 20
175.46283405632039
 30
0.0
  0
VERTEX
  5
24829
  8
0
 10
486.19416784954637
 20
178.16053821467449
 30
0.0
  0
VERTEX
  5
2482A
  8
0
 10
487.00743304015032
 20
179.68010747699549
 30
0.0
  0
VERTEX
  5
2482B
  8
0
 10
487.2534336122207
 20
180.10621923445481
 30
0.0
  0
VERTEX
  5
2482C
  8
0
 10
487.50540206144058
 20
180.52858668688981
 30
0.0
  0
VERTEX
  5
2482D
  8
0
 10
487.63360763260289
 20
180.7383383466458
 30
0.0
  0
VERTEX
  5
2482E
  8
0
 10
487.76328508737561
 20
180.94712048831701
 30
0.0
  0
VERTEX
  5
2482F
  8
0
 10
488.0270281384436
 20
181.36173210371001
 30
0.0
  0
VERTEX
  5
24830
  8
0
 10
488.29657542345728
 20
181.77233382772511
 30
0.0
  0
VERTEX
  5
24831
  8
0
 10
488.57186992342213
 20
182.17883880325601
 30
0.0
  0
VERTEX
  5
24832
  8
0
 10
488.85285340360088
 20
182.58116103980771
 30
0.0
  0
VERTEX
  5
24833
  8
0
 10
489.1394664258309
 20
182.9792154316842
 30
0.0
  0
VERTEX
  5
24834
  8
0
 10
489.28486511481691
 20
183.17661583671131
 30
0.0
  0
VERTEX
  5
24835
  8
0
 10
489.43164836109833
 20
183.3729177759937
 30
0.0
  0
VERTEX
  5
24836
  8
0
 10
489.72933740236289
 20
183.7621847904602
 30
0.0
  0
VERTEX
  5
24837
  8
0
 10
490.0324705776315
 20
184.14693413103939
 30
0.0
  0
VERTEX
  5
24838
  8
0
 10
490.34098376328109
 20
184.5270844093383
 30
0.0
  0
VERTEX
  5
24839
  8
0
 10
490.65481169762143
 20
184.9025552098332
 30
0.0
  0
VERTEX
  5
2483A
  8
0
 10
490.97388799470082
 20
185.27326710687751
 30
0.0
  0
VERTEX
  5
2483B
  8
0
 10
491.13537322969381
 20
185.4568139209
 30
0.0
  0
VERTEX
  5
2483C
  8
0
 10
491.29814515834909
 20
185.6391416815049
 30
0.0
  0
VERTEX
  5
2483D
  8
0
 10
491.62751459645602
 20
186.0001015380189
 30
0.0
  0
VERTEX
  5
2483E
  8
0
 10
491.9619266354793
 20
186.35607032036199
 30
0.0
  0
VERTEX
  5
2483F
  8
0
 10
492.13100156527162
 20
186.53215948570821
 30
0.0
  0
VERTEX
  5
24840
  8
0
 10
492.30131053518562
 20
186.7069727282705
 30
0.0
  0
VERTEX
  5
24841
  8
0
 10
492.6455945036131
 20
187.0527345332016
 30
0.0
  0
VERTEX
  5
24842
  8
0
 10
492.99470571225709
 20
187.39328259403459
 30
0.0
  0
VERTEX
  5
24843
  8
0
 10
493.1710484931109
 20
187.56157891496969
 30
0.0
  0
VERTEX
  5
24844
  8
0
 10
493.34857031147931
 20
187.72854487254651
 30
0.0
  0
VERTEX
  5
24845
  8
0
 10
493.70711344612567
 20
188.0584504486464
 30
0.0
  0
VERTEX
  5
24846
  8
0
 10
494.07025927136323
 20
188.3829295353803
 30
0.0
  0
VERTEX
  5
24847
  8
0
 10
494.43793096872378
 20
188.7019134936931
 30
0.0
  0
VERTEX
  5
24848
  8
0
 10
494.81005076235391
 20
189.0153348469475
 30
0.0
  0
VERTEX
  5
24849
  8
0
 10
495.1865399354665
 20
189.3231272951989
 30
0.0
  0
VERTEX
  5
2484A
  8
0
 10
495.37639818714018
 20
189.47489228642371
 30
0.0
  0
VERTEX
  5
2484B
  8
0
 10
495.56731884699269
 20
189.62522572921799
 30
0.0
  0
VERTEX
  5
2484C
  8
0
 10
495.95230694842979
 20
189.9215662442675
 30
0.0
  0
VERTEX
  5
2484D
  8
0
 10
496.34142280087781
 20
190.21208615361641
 30
0.0
  0
VERTEX
  5
2484E
  8
0
 10
496.73458409226981
 20
190.4967240018031
 30
0.0
  0
VERTEX
  5
2484F
  8
0
 10
497.13170765478111
 20
190.77541957763421
 30
0.0
  0
VERTEX
  5
24850
  8
0
 10
497.5327094824238
 20
191.0481139269213
 30
0.0
  0
VERTEX
  5
24851
  8
0
 10
497.73463826898251
 20
191.18219256521479
 30
0.0
  0
VERTEX
  5
24852
  8
0
 10
497.93750474881739
 20
191.31474936495351
 30
0.0
  0
VERTEX
  5
24853
  8
0
 10
498.34600782513041
 20
191.57526948869781
 30
0.0
  0
VERTEX
  5
24854
  8
0
 10
498.75813229819772
 20
191.8296191887307
 30
0.0
  0
VERTEX
  5
24855
  8
0
 10
499.1737909887961
 20
192.0777446608972
 30
0.0
  0
VERTEX
  5
24856
  8
0
 10
499.59289597008819
 20
192.319593417692
 30
0.0
  0
VERTEX
  5
24857
  8
0
 10
500.01535858622128
 20
192.55511429936041
 30
0.0
  0
VERTEX
  5
24858
  8
0
 10
500.22782110767179
 20
192.6704861653252
 30
0.0
  0
VERTEX
  5
24859
  8
0
 10
500.44108947108271
 20
192.7842574847227
 30
0.0
  0
VERTEX
  5
2485A
  8
0
 10
500.86999856720098
 20
193.0069745017135
 30
0.0
  0
VERTEX
  5
2485B
  8
0
 10
501.30199514479949
 20
193.22321823763241
 30
0.0
  0
VERTEX
  5
2485C
  8
0
 10
501.73698782098688
 20
193.43294294911399
 30
0.0
  0
VERTEX
  5
2485D
  8
0
 10
502.17488457908928
 20
193.63610427180041
 30
0.0
  0
VERTEX
  5
2485E
  8
0
 10
502.6155927881145
 20
193.8326592297289
 30
0.0
  0
VERTEX
  5
2485F
  8
0
 10
502.83697207637982
 20
193.92844627380231
 30
0.0
  0
VERTEX
  5
24860
  8
0
 10
503.05901922234631
 20
194.02256624442089
 30
0.0
  0
VERTEX
  5
24861
  8
0
 10
503.50507008106558
 20
194.20578514367841
 30
0.0
  0
VERTEX
  5
24862
  8
0
 10
503.95365100839348
 20
194.38227717008201
 30
0.0
  0
VERTEX
  5
24863
  8
0
 10
504.40466711324871
 20
194.55200498918839
 30
0.0
  0
VERTEX
  5
24864
  8
0
 10
504.85802298942372
 20
194.71493269742899
 30
0.0
  0
VERTEX
  5
24865
  8
0
 10
505.31362273576269
 20
194.87102582970459
 30
0.0
  0
VERTEX
  5
24866
  8
0
 10
505.54223396078669
 20
194.94649905464351
 30
0.0
  0
VERTEX
  5
24867
  8
0
 10
505.7713699764526
 20
195.02025136667501
 30
0.0
  0
VERTEX
  5
24868
  8
0
 10
506.23116788140533
 20
195.16257774174571
 30
0.0
  0
VERTEX
  5
24869
  8
0
 10
506.69291918674429
 20
195.2979748477442
 30
0.0
  0
VERTEX
  5
2486A
  8
0
 10
506.9244968560447
 20
195.36306591698349
 30
0.0
  0
VERTEX
  5
2486B
  8
0
 10
507.15652621537851
 20
195.42641404328739
 30
0.0
  0
VERTEX
  5
2486C
  8
0
 10
507.62189089766429
 20
195.54786815884421
 30
0.0
  0
VERTEX
  5
2486D
  8
0
 10
508.0889147921493
 20
195.66231150247859
 30
0.0
  0
VERTEX
  5
2486E
  8
0
 10
508.32301808447068
 20
195.7168965114692
 30
0.0
  0
VERTEX
  5
2486F
  8
0
 10
508.55749910639997
 20
195.76971986528631
 30
0.0
  0
VERTEX
  5
24870
  8
0
 10
509.02754471789558
 20
195.87007052651691
 30
0.0
  0
VERTEX
  5
24871
  8
0
 10
509.49895219499962
 20
195.9633422583783
 30
0.0
  0
VERTEX
  5
24872
  8
0
 10
509.97162181799138
 20
196.0495153305273
 30
0.0
  0
VERTEX
  5
24873
  8
0
 10
510.44545360016082
 20
196.12857151424441
 30
0.0
  0
VERTEX
  5
24874
  8
0
 10
510.92034730895779
 20
196.20049408628981
 30
0.0
  0
VERTEX
  5
24875
  8
0
 10
511.15816100116621
 20
196.23377545445419
 30
0.0
  0
VERTEX
  5
24876
  8
0
 10
511.39620248719888
 20
196.26526783243929
 30
0.0
  0
VERTEX
  5
24877
  8
0
 10
511.87291847431288
 20
196.3228790507041
 30
0.0
  0
VERTEX
  5
24878
  8
0
 10
512.35039442763764
 20
196.37331555423
 30
0.0
  0
VERTEX
  5
24879
  8
0
 10
512.82852934375023
 20
196.41656667387269
 30
0.0
  0
VERTEX
  5
2487A
  8
0
 10
513.30722207983308
 20
196.4526232604571
 30
0.0
  0
VERTEX
  5
2487B
  8
0
 10
513.7863713750703
 20
196.481477686712
 30
0.0
  0
VERTEX
  5
2487C
  8
0
 10
514.02608556137193
 20
196.49320212274279
 30
0.0
  0
VERTEX
  5
2487D
  8
0
 10
514.26587587206575
 20
196.50312384888321
 30
0.0
  0
VERTEX
  5
2487E
  8
0
 10
514.74563413828719
 20
196.51755716802521
 30
0.0
  0
VERTEX
  5
2487F
  8
0
 10
515.22554468752014
 20
196.52477459096909
 30
0.0
  0
VERTEX
  5
24880
  8
0
 10
515.46552534442787
 20
196.5256768046215
 30
0.0
  0
SEQEND
  5
24881
  8
0
  0
LINE
  5
1C87D
  8
0
 10
487.4405253444279
 20
205.0256768046215
 30
0.0
 11
543.49052534442808
 21
205.0256768046215
 31
0.0
  0
LINE
  5
1C87F
  8
0
 10
482.96552534442787
 20
201.5256768046215
 30
0.0
 11
547.96552534442787
 21
201.5256768046215
 31
0.0
  0
LINE
  5
1C881
  8
0
 10
478.96552534442787
 20
196.5256768046215
 30
0.0
 11
551.96552534442787
 21
196.5256768046215
 31
0.0
  0
LINE
  5
1C884
  8
0
 10
489.36552534442802
 20
135.5106768046216
 30
0.0
 11
489.96552534442787
 21
135.5106768046216
 31
0.0
  0
LINE
  5
1C885
  8
0
 10
551.19852534442771
 20
145.32567680462171
 30
0.0
 11
548.96552534442787
 21
145.32567680462171
 31
0.0
  0
LINE
  5
1C886
  8
0
 10
548.96552534442787
 20
137.32567680462171
 30
0.0
 11
551.19852534442771
 21
137.32567680462171
 31
0.0
  0
LINE
  5
1C887
  8
0
 10
551.96552534442787
 20
144.55867680462191
 30
0.0
 11
551.19852534442771
 21
145.32567680462171
 31
0.0
  0
LINE
  5
1C888
  8
0
 10
551.19852534442771
 20
137.32567680462171
 30
0.0
 11
551.96552534442787
 21
138.0926768046215
 31
0.0
  0
LINE
  5
1C889
  8
0
 10
484.66552534442781
 20
135.0673434712885
 30
0.0
 11
484.92494505384309
 21
134.09917593526501
 31
0.0
  0
LINE
  5
1C88A
  8
0
 10
484.92494505384309
 20
148.55217767397829
 30
0.0
 11
484.66552534442781
 21
147.58401013795489
 31
0.0
  0
LINE
  5
1C88B
  8
0
 10
489.10610563501223
 20
134.09917593526501
 30
0.0
 11
489.36552534442802
 21
135.0673434712885
 31
0.0
  0
LINE
  5
1C88F
  8
0
 10
548.96552534442787
 20
147.14067680462171
 30
0.0
 11
546.46552534442799
 21
147.14067680462171
 31
0.0
  0
LINE
  5
1C890
  8
0
 10
546.46552534442799
 20
135.5106768046216
 30
0.0
 11
548.96552534442787
 21
135.5106768046216
 31
0.0
  0
LINE
  5
1C891
  8
0
 10
540.96552534442787
 20
135.0673434712885
 30
0.0
 11
541.22494505384338
 21
134.09917593526501
 31
0.0
  0
LINE
  5
1C893
  8
0
 10
546.20610563501248
 20
134.09917593526501
 30
0.0
 11
546.46552534442799
 21
135.0673434712885
 31
0.0
  0
LINE
  5
1C894
  8
0
 10
546.46552534442799
 20
147.58401013795489
 30
0.0
 11
546.20610563501248
 21
148.55217767397829
 31
0.0
  0
LINE
  5
1C897
  8
0
 10
537.96552534442799
 20
147.32567680462171
 30
0.0
 11
530.46552534442799
 21
147.32567680462171
 31
0.0
  0
LINE
  5
1C899
  8
0
 10
500.46552534442799
 20
147.32567680462171
 30
0.0
 11
492.96552534442799
 21
147.32567680462171
 31
0.0
  0
LINE
  5
1C89A
  8
0
 10
492.96552534442799
 20
135.32567680462171
 30
0.0
 11
500.46552534442799
 21
135.32567680462171
 31
0.0
  0
LINE
  5
1C89C
  8
0
 10
530.46552534442799
 20
135.32567680462171
 30
0.0
 11
537.96552534442799
 21
135.32567680462171
 31
0.0
  0
LINE
  5
1C89D
  8
0
 10
551.19852534442771
 20
137.32567680462171
 30
0.0
 11
551.19852534442771
 21
145.32567680462171
 31
0.0
  0
LINE
  5
1C89E
  8
0
 10
551.96552534442787
 20
138.0926768046215
 30
0.0
 11
551.96552534442787
 21
144.55867680462191
 31
0.0
  0
LINE
  5
1C89F
  8
0
 10
484.66552534442781
 20
135.0673434712885
 30
0.0
 11
484.66552534442781
 21
147.58401013795489
 31
0.0
  0
LINE
  5
1C8A0
  8
0
 10
489.36552534442802
 20
135.0673434712885
 30
0.0
 11
489.36552534442802
 21
141.5268009486299
 31
0.0
  0
POLYLINE
  5
1C8A2
  8
0
 66
     1
 10
0.0
 20
0.0
 30
0.0
  0
VERTEX
  5
24882
  8
0
 10
484.92494505384309
 20
144.9389272393
 30
0.0
  0
VERTEX
  5
24883
  8
0
 10
484.84410040058532
 20
145.2635011349721
 30
0.0
  0
VERTEX
  5
24884
  8
0
 10
484.72949006183211
 20
145.87306171374439
 30
0.0
  0
VERTEX
  5
24885
  8
0
 10
484.67271547804779
 20
146.45546988531979
 30
0.0
  0
VERTEX
  5
24886
  8
0
 10
484.66552534442781
 20
146.74555245663939
 30
0.0
  0
SEQEND
  5
24887
  8
0
  0
POLYLINE
  5
1C8A3
  8
0
 66
     1
 10
0.0
 20
0.0
 30
0.0
  0
VERTEX
  5
24888
  8
0
 10
484.66552534442781
 20
146.74555245663939
 30
0.0
  0
VERTEX
  5
24889
  8
0
 10
484.67271547804779
 20
147.0356350279589
 30
0.0
  0
VERTEX
  5
2488A
  8
0
 10
484.72949006183211
 20
147.61804319953441
 30
0.0
  0
VERTEX
  5
2488B
  8
0
 10
484.84410040058532
 20
148.2276037783063
 30
0.0
  0
VERTEX
  5
2488C
  8
0
 10
484.92494505384309
 20
148.55217767397829
 30
0.0
  0
SEQEND
  5
2488D
  8
0
  0
LINE
  5
1C8A6
  8
0
 10
484.92494505384309
 20
148.55217767397829
 30
0.0
 11
485.30802726648739
 21
148.55217767397829
 31
0.0
  0
POLYLINE
  5
1C8B0
  8
0
 66
     1
 10
0.0
 20
0.0
 30
0.0
  0
VERTEX
  5
2488E
  8
0
 10
489.36552534442802
 20
135.905801152604
 30
0.0
  0
VERTEX
  5
2488F
  8
0
 10
489.35833521080798
 20
135.6157185812844
 30
0.0
  0
VERTEX
  5
24890
  8
0
 10
489.30156062702372
 20
135.033310409709
 30
0.0
  0
VERTEX
  5
24891
  8
0
 10
489.18695028827051
 20
134.42374983093711
 30
0.0
  0
VERTEX
  5
24892
  8
0
 10
489.10610563501223
 20
134.09917593526501
 30
0.0
  0
SEQEND
  5
24893
  8
0
  0
POLYLINE
  5
1C8B1
  8
0
 66
     1
 10
0.0
 20
0.0
 30
0.0
  0
VERTEX
  5
24894
  8
0
 10
484.92494505384309
 20
134.09917593526501
 30
0.0
  0
VERTEX
  5
24895
  8
0
 10
484.84410040058532
 20
134.42374983093711
 30
0.0
  0
VERTEX
  5
24896
  8
0
 10
484.72949006183211
 20
135.033310409709
 30
0.0
  0
VERTEX
  5
24897
  8
0
 10
484.67271547804779
 20
135.6157185812844
 30
0.0
  0
VERTEX
  5
24898
  8
0
 10
484.66552534442781
 20
135.905801152604
 30
0.0
  0
SEQEND
  5
24899
  8
0
  0
POLYLINE
  5
1C8B2
  8
0
 66
     1
 10
0.0
 20
0.0
 30
0.0
  0
VERTEX
  5
2489A
  8
0
 10
484.66552534442781
 20
135.905801152604
 30
0.0
  0
VERTEX
  5
2489B
  8
0
 10
484.67271547804779
 20
136.19588372392349
 30
0.0
  0
VERTEX
  5
2489C
  8
0
 10
484.72949006183211
 20
136.778291895499
 30
0.0
  0
VERTEX
  5
2489D
  8
0
 10
484.84410040058532
 20
137.38785247427131
 30
0.0
  0
VERTEX
  5
2489E
  8
0
 10
484.92494505384309
 20
137.71242636994339
 30
0.0
  0
SEQEND
  5
2489F
  8
0
  0
POLYLINE
  5
1C8B3
  8
0
 66
     1
 10
0.0
 20
0.0
 30
0.0
  0
VERTEX
  5
248A0
  8
0
 10
489.10610563501223
 20
137.71242636994339
 30
0.0
  0
VERTEX
  5
248A1
  8
0
 10
489.18695028827051
 20
137.38785247427131
 30
0.0
  0
VERTEX
  5
248A2
  8
0
 10
489.30156062702372
 20
136.778291895499
 30
0.0
  0
VERTEX
  5
248A3
  8
0
 10
489.35833521080798
 20
136.19588372392349
 30
0.0
  0
VERTEX
  5
248A4
  8
0
 10
489.36552534442802
 20
135.905801152604
 30
0.0
  0
SEQEND
  5
248A5
  8
0
  0
LINE
  5
1C8B7
  8
0
 10
484.92494505384309
 20
134.09917593526501
 30
0.0
 11
489.10610563501223
 21
134.09917593526501
 31
0.0
  0
POLYLINE
  5
1C8B9
  8
0
 66
     1
 10
0.0
 20
0.0
 30
0.0
  0
VERTEX
  5
248A6
  8
0
 10
489.36552534442802
 20
141.32567680462171
 30
0.0
  0
VERTEX
  5
248A7
  8
0
 10
489.35833521080798
 20
140.74551166198259
 30
0.0
  0
VERTEX
  5
248A8
  8
0
 10
489.30156062702372
 20
139.5806953188316
 30
0.0
  0
VERTEX
  5
248A9
  8
0
 10
489.18695028827051
 20
138.36157416128751
 30
0.0
  0
VERTEX
  5
248AA
  8
0
 10
489.10610563501223
 20
137.71242636994339
 30
0.0
  0
SEQEND
  5
248AB
  8
0
  0
LINE
  5
1C8BA
  8
0
 10
484.92494505384309
 20
137.71242636994339
 30
0.0
 11
489.10610563501223
 21
137.71242636994339
 31
0.0
  0
POLYLINE
  5
1C8BB
  8
0
 66
     1
 10
0.0
 20
0.0
 30
0.0
  0
VERTEX
  5
248AC
  8
0
 10
484.92494505384309
 20
137.71242636994339
 30
0.0
  0
VERTEX
  5
248AD
  8
0
 10
484.84410040058532
 20
138.36157416128751
 30
0.0
  0
VERTEX
  5
248AE
  8
0
 10
484.72949006183211
 20
139.5806953188316
 30
0.0
  0
VERTEX
  5
248AF
  8
0
 10
484.67271547804779
 20
140.74551166198259
 30
0.0
  0
VERTEX
  5
248B0
  8
0
 10
484.66552534442781
 20
141.32567680462171
 30
0.0
  0
SEQEND
  5
248B1
  8
0
  0
POLYLINE
  5
1C8BC
  8
0
 66
     1
 10
0.0
 20
0.0
 30
0.0
  0
VERTEX
  5
248B2
  8
0
 10
484.66552534442781
 20
141.32567680462171
 30
0.0
  0
VERTEX
  5
248B3
  8
0
 10
484.67271547804779
 20
141.9058419472608
 30
0.0
  0
VERTEX
  5
248B4
  8
0
 10
484.72949006183211
 20
143.0706582904117
 30
0.0
  0
VERTEX
  5
248B5
  8
0
 10
484.84410040058532
 20
144.28977944795591
 30
0.0
  0
VERTEX
  5
248B6
  8
0
 10
484.92494505384309
 20
144.9389272393
 30
0.0
  0
SEQEND
  5
248B7
  8
0
  0
LINE
  5
1C8BD
  8
0
 10
484.92494505384309
 20
144.9389272393
 30
0.0
 11
487.11744879147358
 21
144.9389272393
 31
0.0
  0
POLYLINE
  5
1C8C0
  8
0
 66
     1
 10
0.0
 20
0.0
 30
0.0
  0
VERTEX
  5
248B8
  8
0
 10
489.36464569009371
 20
141.52841290434111
 30
0.0
  0
VERTEX
  5
248B9
  8
0
 10
489.36491401301782
 20
141.49468044123381
 30
0.0
  0
VERTEX
  5
248BA
  8
0
 10
489.36530492349442
 20
141.42715174536119
 30
0.0
  0
VERTEX
  5
248BB
  8
0
 10
489.36550081373571
 20
141.35952804667249
 30
0.0
  0
VERTEX
  5
248BC
  8
0
 10
489.36552534442802
 20
141.32567680462171
 30
0.0
  0
SEQEND
  5
248BD
  8
0
  0
LINE
  5
1C8C1
  8
0
 10
548.96552534442787
 20
135.5106768046216
 30
0.0
 11
548.96552534442787
 21
147.14067680462171
 31
0.0
  0
LINE
  5
1C8C2
  8
0
 10
546.46552534442799
 20
135.0673434712885
 30
0.0
 11
546.46552534442799
 21
147.58401013795489
 31
0.0
  0
POLYLINE
  5
1C8C5
  8
0
 66
     1
 10
0.0
 20
0.0
 30
0.0
  0
VERTEX
  5
248BE
  8
0
 10
546.20610563501248
 20
148.55217767397829
 30
0.0
  0
VERTEX
  5
248BF
  8
0
 10
546.2869502882703
 20
148.2276037783063
 30
0.0
  0
VERTEX
  5
248C0
  8
0
 10
546.40156062702363
 20
147.61804319953441
 30
0.0
  0
VERTEX
  5
248C1
  8
0
 10
546.45833521080795
 20
147.0356350279589
 30
0.0
  0
VERTEX
  5
248C2
  8
0
 10
546.46552534442799
 20
146.74555245663939
 30
0.0
  0
SEQEND
  5
248C3
  8
0
  0
POLYLINE
  5
1C8C6
  8
0
 66
     1
 10
0.0
 20
0.0
 30
0.0
  0
VERTEX
  5
248C4
  8
0
 10
546.46552534442799
 20
146.74555245663939
 30
0.0
  0
VERTEX
  5
248C5
  8
0
 10
546.45833521080795
 20
146.45546988531979
 30
0.0
  0
VERTEX
  5
248C6
  8
0
 10
546.40156062702363
 20
145.87306171374439
 30
0.0
  0
VERTEX
  5
248C7
  8
0
 10
546.2869502882703
 20
145.2635011349721
 30
0.0
  0
VERTEX
  5
248C8
  8
0
 10
546.20610563501248
 20
144.9389272393
 30
0.0
  0
SEQEND
  5
248C9
  8
0
  0
LINE
  5
1C8C8
  8
0
 10
545.62302342236808
 20
148.55217767397829
 30
0.0
 11
546.20610563501248
 21
148.55217767397829
 31
0.0
  0
POLYLINE
  5
1C8D1
  8
0
 66
     1
 10
0.0
 20
0.0
 30
0.0
  0
VERTEX
  5
248CA
  8
0
 10
546.46552534442799
 20
135.905801152604
 30
0.0
  0
VERTEX
  5
248CB
  8
0
 10
546.45833521080795
 20
135.6157185812844
 30
0.0
  0
VERTEX
  5
248CC
  8
0
 10
546.40156062702363
 20
135.033310409709
 30
0.0
  0
VERTEX
  5
248CD
  8
0
 10
546.2869502882703
 20
134.42374983093711
 30
0.0
  0
VERTEX
  5
248CE
  8
0
 10
546.20610563501248
 20
134.09917593526501
 30
0.0
  0
SEQEND
  5
248CF
  8
0
  0
POLYLINE
  5
1C8D2
  8
0
 66
     1
 10
0.0
 20
0.0
 30
0.0
  0
VERTEX
  5
248D0
  8
0
 10
541.22494505384338
 20
134.09917593526501
 30
0.0
  0
VERTEX
  5
248D1
  8
0
 10
541.14410040058499
 20
134.42374983093711
 30
0.0
  0
VERTEX
  5
248D2
  8
0
 10
541.02949006183235
 20
135.033310409709
 30
0.0
  0
VERTEX
  5
248D3
  8
0
 10
540.97271547804803
 20
135.6157185812844
 30
0.0
  0
VERTEX
  5
248D4
  8
0
 10
540.96552534442787
 20
135.905801152604
 30
0.0
  0
SEQEND
  5
248D5
  8
0
  0
POLYLINE
  5
1C8D3
  8
0
 66
     1
 10
0.0
 20
0.0
 30
0.0
  0
VERTEX
  5
248D6
  8
0
 10
540.96552534442787
 20
135.905801152604
 30
0.0
  0
VERTEX
  5
248D7
  8
0
 10
540.97271547804803
 20
136.19588372392349
 30
0.0
  0
VERTEX
  5
248D8
  8
0
 10
541.02949006183235
 20
136.778291895499
 30
0.0
  0
VERTEX
  5
248D9
  8
0
 10
541.14410040058499
 20
137.3878524742708
 30
0.0
  0
VERTEX
  5
248DA
  8
0
 10
541.22494505384338
 20
137.71242636994339
 30
0.0
  0
SEQEND
  5
248DB
  8
0
  0
POLYLINE
  5
1C8D4
  8
0
 66
     1
 10
0.0
 20
0.0
 30
0.0
  0
VERTEX
  5
248DC
  8
0
 10
546.20610563501248
 20
137.71242636994339
 30
0.0
  0
VERTEX
  5
248DD
  8
0
 10
546.2869502882703
 20
137.3878524742708
 30
0.0
  0
VERTEX
  5
248DE
  8
0
 10
546.40156062702363
 20
136.778291895499
 30
0.0
  0
VERTEX
  5
248DF
  8
0
 10
546.45833521080795
 20
136.19588372392349
 30
0.0
  0
VERTEX
  5
248E0
  8
0
 10
546.46552534442799
 20
135.905801152604
 30
0.0
  0
SEQEND
  5
248E1
  8
0
  0
LINE
  5
1C8D8
  8
0
 10
541.22494505384338
 20
134.09917593526501
 30
0.0
 11
546.20610563501248
 21
134.09917593526501
 31
0.0
  0
POLYLINE
  5
1C8DA
  8
0
 66
     1
 10
0.0
 20
0.0
 30
0.0
  0
VERTEX
  5
248E2
  8
0
 10
546.46552534442799
 20
141.32567680462171
 30
0.0
  0
VERTEX
  5
248E3
  8
0
 10
546.45833521080795
 20
140.74551166198259
 30
0.0
  0
VERTEX
  5
248E4
  8
0
 10
546.40156062702363
 20
139.5806953188312
 30
0.0
  0
VERTEX
  5
248E5
  8
0
 10
546.2869502882703
 20
138.36157416128751
 30
0.0
  0
VERTEX
  5
248E6
  8
0
 10
546.20610563501248
 20
137.71242636994339
 30
0.0
  0
SEQEND
  5
248E7
  8
0
  0
LINE
  5
1C8DB
  8
0
 10
541.22494505384338
 20
137.71242636994339
 30
0.0
 11
546.20610563501248
 21
137.71242636994339
 31
0.0
  0
POLYLINE
  5
1C8DC
  8
0
 66
     1
 10
0.0
 20
0.0
 30
0.0
  0
VERTEX
  5
248E8
  8
0
 10
541.22494505384338
 20
137.71242636994339
 30
0.0
  0
VERTEX
  5
248E9
  8
0
 10
541.15618642221852
 20
138.25767537557789
 30
0.0
  0
VERTEX
  5
248EA
  8
0
 10
541.05208536146517
 20
139.28905635899631
 30
0.0
  0
VERTEX
  5
248EB
  8
0
 10
540.98911202210502
 20
140.27232534332089
 30
0.0
  0
VERTEX
  5
248EC
  8
0
 10
540.97244338046585
 20
140.7566182176115
 30
0.0
  0
SEQEND
  5
248ED
  8
0
  0
LINE
  5
1C8E0
  8
0
 10
543.81360189738189
 20
144.9389272393
 30
0.0
 11
546.20610563501248
 21
144.9389272393
 31
0.0
  0
POLYLINE
  5
1C8E1
  8
0
 66
     1
 10
0.0
 20
0.0
 30
0.0
  0
VERTEX
  5
248EE
  8
0
 10
546.20610563501248
 20
144.9389272393
 30
0.0
  0
VERTEX
  5
248EF
  8
0
 10
546.2869502882703
 20
144.28977944795591
 30
0.0
  0
VERTEX
  5
248F0
  8
0
 10
546.40156062702363
 20
143.0706582904117
 30
0.0
  0
VERTEX
  5
248F1
  8
0
 10
546.45833521080795
 20
141.9058419472608
 30
0.0
  0
VERTEX
  5
248F2
  8
0
 10
546.46552534442799
 20
141.32567680462171
 30
0.0
  0
SEQEND
  5
248F3
  8
0
  0
ARC
  5
1C907
  8
0
 10
528.46552534442787
 20
177.0328189473357
 30
0.0
 40
1.9999999999999889
 50
0.0
 51
69.99480991184123
  0
ARC
  5
1C908
  8
0
 10
528.46552534442787
 20
105.6185346619072
 30
0.0
 40
1.9999999999999849
 50
290.00519008815883
 51
0.0
  0
ARC
  5
1C909
  8
0
 10
515.46552534442787
 20
141.32567680462171
 30
0.0
 40
39.999999999999922
 50
249.9948099118412
 51
290.00519008815883
  0
ARC
  5
1C90A
  8
0
 10
515.46552534442787
 20
141.32567680462171
 30
0.0
 40
39.999999999999929
 50
69.99480991184123
 51
110.0051900881587
  0
ARC
  5
1C90B
  8
0
 10
502.46552534442787
 20
177.03281894733621
 30
0.0
 40
1.999999999999958
 50
110.0051900881587
 51
180.0
  0
ARC
  5
1C90C
  8
0
 10
502.46552534442787
 20
105.6185346619072
 30
0.0
 40
1.999999999999966
 50
180.0
 51
249.9948099118412
  0
LINE
  5
1C917
  8
0
 10
530.46552534442799
 20
177.0328189473357
 30
0.0
 11
530.46552534442799
 21
105.6185346619072
 31
0.0
  0
LINE
  5
1C919
  8
0
 10
500.46552534442799
 20
177.0328189473357
 30
0.0
 11
500.46552534442799
 21
105.6185346619072
 31
0.0
  0
LINE
  5
2395F
  8
0
 10
312.64398265064801
 20
376.65766106012961
 30
0.0
 11
312.64398265064801
 21
371.15766106012961
 31
0.0
  0
LINE
  5
23960
  8
0
 10
325.16064931731438
 20
376.65766106012961
 30
0.0
 11
325.16064931731438
 21
371.15766106012961
 31
0.0
  0
LINE
  5
23961
  8
3
 10
322.13531598398089
 20
382.15766106012961
 30
0.0
 11
322.13531598398089
 21
379.15766106012961
 31
0.0
  0
LINE
  5
23962
  8
3
 10
315.66931598398099
 20
382.15766106012961
 30
0.0
 11
315.66931598398099
 21
379.15766106012961
 31
0.0
  0
LINE
  5
23963
  8
0
 10
312.64398265064801
 20
319.55766106012931
 30
0.0
 11
312.64398265064801
 21
314.85766106012937
 31
0.0
  0
LINE
  5
23964
  8
0
 10
325.16064931731438
 20
319.55766106012931
 30
0.0
 11
325.16064931731438
 21
314.85766106012937
 31
0.0
  0
CIRCLE
  5
23965
  8
0
 10
318.90231598398532
 20
141.32567680462299
 30
0.0
 40
6.2583333333333391
  0
LINE
  5
23966
  8
0
 10
312.64398265065211
 20
144.93892723930179
 30
0.0
 11
318.90231598398532
 21
148.55217767397971
 31
0.0
  0
LINE
  5
23967
  8
0
 10
318.90231598398532
 20
148.55217767397971
 30
0.0
 11
325.16064931731847
 21
144.93892723930179
 31
0.0
  0
LINE
  5
23968
  8
0
 10
312.64398265065211
 20
137.7124263699443
 30
0.0
 11
318.90231598398532
 21
134.0991759352664
 31
0.0
  0
LINE
  5
23969
  8
0
 10
318.90231598398532
 20
134.0991759352664
 30
0.0
 11
325.16064931731847
 21
137.7124263699443
 31
0.0
  0
LINE
  5
2396A
  8
0
 10
325.16064931731847
 20
144.93892723930179
 30
0.0
 11
325.16064931731847
 21
137.7124263699443
 31
0.0
  0
LINE
  5
2396B
  8
0
 10
312.64398265065211
 20
144.93892723930179
 30
0.0
 11
312.64398265065211
 21
137.7124263699443
 31
0.0
  0
LINE
  5
2396C
  8
1
 10
268.72633665374542
 20
141.32567680462299
 30
0.0
 11
369.07829531422522
 21
141.32567680462299
 31
0.0
  0
LINE
  5
2396D
  8
1
 10
318.90231598398532
 20
91.149697474383174
 30
0.0
 11
318.90231598398532
 21
191.50165613486479
 31
0.0
  0
ARC
  5
2396E
  8
0
 10
318.90231598398532
 20
141.3256768046235
 30
0.0
 40
39.999999999999979
 50
94.802410135763836
 51
26.416295574367229
  0
ARC
  5
2396F
  8
0
 10
318.90231598398532
 20
141.3256768046235
 30
0.0
 40
28.900670063920611
 50
103.66788768857251
 51
18.38098458993203
  0
ARC
  5
23970
  8
0
 10
318.90231598398532
 20
141.3256768046235
 30
0.0
 40
37.586465413383401
 50
96.241441546862092
 51
25.10514165758056
  0
ARC
  5
23971
  8
0
 10
318.90231598398532
 20
141.32567680462299
 30
0.0
 40
14.96883590123252
 50
149.2727915659745
 51
342.60774104153791
  0
LINE
  5
23972
  8
3
 10
85.839106623667234
 20
144.5586768046214
 30
0.0
 11
88.839106623667249
 21
144.5586768046214
 31
0.0
  0
LINE
  5
23973
  8
3
 10
85.839106623667234
 20
138.0926768046215
 30
0.0
 11
88.839106623667249
 21
138.09267680462099
 31
0.0
  0
LINE
  5
23974
  8
3
 10
551.96552534442787
 20
144.55867680462191
 30
0.0
 11
548.96552534442787
 21
144.5586768046214
 31
0.0
  0
LINE
  5
23975
  8
3
 10
551.96552534442787
 20
138.0926768046215
 30
0.0
 11
548.96552534442787
 21
138.09267680462099
 31
0.0
  0
LINE
  5
23979
  8
1
 10
474.02824723394491
 20
141.3256768046212
 30
0.0
 11
556.90280345491101
 21
141.3256768046212
 31
0.0
  0
LINE
  5
2397A
  8
1
 10
515.46552534442787
 20
91.149697474381355
 30
0.0
 11
515.46552534442787
 21
218.501656134863
 31
0.0
  0
LINE
  5
2397C
  8
1
 10
80.901828513184213
 20
141.3256768046212
 30
0.0
 11
163.7763847341503
 21
141.3256768046212
 31
0.0
  0
LINE
  5
2397D
  8
1
 10
122.33910662366721
 20
91.149697474381355
 30
0.0
 11
122.33910662366721
 21
218.501656134863
 31
0.0
  0
TEXT
  5
24372
  8
0
 62
     3
 10
0.0
 20
0.0
 30
0.0
 40
10.0
  1
CAF8-080FBL
  7
STANDARD1
  0
LINE
  5
24394
  8
0
 10
526.46552534442799
 20
205.02567680462289
 30
0.0
 11
526.46552534442799
 21
208.3256768046231
 31
0.0
  0
LINE
  5
24395
  8
0
 10
504.46552534442799
 20
208.3256768046231
 30
0.0
 11
504.46552534442799
 21
205.02567680462289
 31
0.0
  0
LINE
  5
24396
  8
0
 10
504.46552534442799
 20
208.3256768046231
 30
0.0
 11
526.46552534442799
 21
208.3256768046231
 31
0.0
  0
LINE
  5
24397
  8
0
 10
133.33910662366719
 20
205.02567680462289
 30
0.0
 11
133.33910662366719
 21
208.3256768046231
 31
0.0
  0
LINE
  5
24398
  8
0
 10
111.33910662366721
 20
208.3256768046231
 30
0.0
 11
111.33910662366721
 21
205.02567680462289
 31
0.0
  0
LINE
  5
24399
  8
0
 10
111.33910662366721
 20
208.3256768046231
 30
0.0
 11
133.33910662366719
 21
208.3256768046231
 31
0.0
  0
ENDSEC
  0
EOF
