  0
SECTION
  2
HEADER
  9
$ACADVER
  1
AC1009
  9
$INSBASE
 10
0.0
 20
0.0
 30
0.0
  9
$EXTMIN
 10
0.0
 20
-2.960436562073669
 30
0.0
  9
$EXTMAX
 10
928.13139089936112
 20
687.12385432191331
 30
0.0
  9
$LIMMIN
 10
0.0
 20
0.0
  9
$LIMMAX
 10
375.0
 20
270.0
  9
$ORTHOMODE
 70
     1
  9
$REGENMODE
 70
     1
  9
$FILLMODE
 70
     1
  9
$QTEXTMODE
 70
     0
  9
$MIRRTEXT
 70
     1
  9
$DRAGMODE
 70
     2
  9
$LTSCALE
 40
10.0
  9
$OSMODE
 70
  3071
  9
$ATTMODE
 70
     1
  9
$TEXTSIZE
 40
5.0
  9
$TRACEWID
 40
0.05
  9
$TEXTSTYLE
  7
STANDARD
  9
$CLAYER
  8
0
  9
$CELTYPE
  6
BYLAYER
  9
$CECOLOR
 62
     6
  9
$DIMSCALE
 40
2.0
  9
$DIMASZ
 40
3.0
  9
$DIMEXO
 40
2.0
  9
$DIMDLI
 40
0.38
  9
$DIMRND
 40
0.0
  9
$DIMDLE
 40
0.0
  9
$DIMEXE
 40
2.0
  9
$DIMTP
 40
0.0
  9
$DIMTM
 40
0.0
  9
$DIMTXT
 40
3.2000000000000002
  9
$DIMCEN
 40
0.0
  9
$DIMTSZ
 40
0.0
  9
$DIMTOL
 70
     0
  9
$DIMLIM
 70
     0
  9
$DIMTIH
 70
     0
  9
$DIMTOH
 70
     0
  9
$DIMSE1
 70
     0
  9
$DIMSE2
 70
     0
  9
$DIMTAD
 70
     1
  9
$DIMZIN
 70
     8
  9
$DIMBLK
  1

  9
$DIMASO
 70
     0
  9
$DIMSHO
 70
     0
  9
$DIMPOST
  1

  9
$DIMAPOST
  1

  9
$DIMALT
 70
     0
  9
$DIMALTD
 70
     2
  9
$DIMALTF
 40
25.399999999999999
  9
$DIMLFAC
 40
1.0
  9
$DIMTOFL
 70
     0
  9
$DIMTVP
 40
1.6000000000000001
  9
$DIMTIX
 70
     1
  9
$DIMSOXD
 70
     0
  9
$DIMSAH
 70
     0
  9
$DIMBLK1
  1

  9
$DIMBLK2
  1

  9
$DIMSTYLE
  2
STANDARD
  9
$DIMCLRD
 70
     0
  9
$DIMCLRE
 70
     0
  9
$DIMCLRT
 70
     0
  9
$DIMTFAC
 40
1.0
  9
$DIMGAP
 40
1.1999999999999991
  9
$LUNITS
 70
     2
  9
$LUPREC
 70
     4
  9
$SKETCHINC
 40
0.1
  9
$FILLETRAD
 40
0.0
  9
$AUNITS
 70
     0
  9
$AUPREC
 70
     4
  9
$MENU
  1
ACAD
  9
$ELEVATION
 40
0.0
  9
$PELEVATION
 40
0.0
  9
$THICKNESS
 40
0.0
  9
$LIMCHECK
 70
     0
  9
$BLIPMODE
 70
     0
  9
$CHAMFERA
 40
0.0
  9
$CHAMFERB
 40
0.0
  9
$SKPOLY
 70
     0
  9
$TDCREATE
 40
2448055.7149187499
  9
$TDUPDATE
 40
2456598.5595725579
  9
$TDINDWG
 40
4.4225324652999998
  9
$TDUSRTIMER
 40
4.4225324652999998
  9
$USRTIMER
 70
     1
  9
$ANGBASE
 50
0.0
  9
$ANGDIR
 70
     0
  9
$PDMODE
 70
     0
  9
$PDSIZE
 40
0.0
  9
$PLINEWID
 40
0.0
  9
$COORDS
 70
     1
  9
$SPLFRAME
 70
     0
  9
$SPLINETYPE
 70
     6
  9
$SPLINESEGS
 70
     8
  9
$ATTDIA
 70
     0
  9
$ATTREQ
 70
     1
  9
$HANDLING
 70
     1
  9
$HANDSEED
  5
43FE5
  9
$SURFTAB1
 70
     6
  9
$SURFTAB2
 70
     6
  9
$SURFTYPE
 70
     6
  9
$SURFU
 70
     6
  9
$SURFV
 70
     6
  9
$UCSNAME
  2

  9
$UCSORG
 10
0.0
 20
0.0
 30
0.0
  9
$UCSXDIR
 10
1.0
 20
0.0
 30
0.0
  9
$UCSYDIR
 10
0.0
 20
1.0
 30
0.0
  9
$PUCSNAME
  2

  9
$PUCSORG
 10
0.0
 20
0.0
 30
0.0
  9
$PUCSXDIR
 10
1.0
 20
0.0
 30
0.0
  9
$PUCSYDIR
 10
0.0
 20
1.0
 30
0.0
  9
$USERI1
 70
     0
  9
$USERI2
 70
     0
  9
$USERI3
 70
     0
  9
$USERI4
 70
     0
  9
$USERI5
 70
     0
  9
$USERR1
 40
0.0
  9
$USERR2
 40
0.0
  9
$USERR3
 40
0.0
  9
$USERR4
 40
0.0
  9
$USERR5
 40
0.0
  9
$WORLDVIEW
 70
     1
  9
$SHADEDGE
 70
     3
  9
$SHADEDIF
 70
    70
  9
$TILEMODE
 70
     1
  9
$MAXACTVP
 70
    16
  9
$PLIMCHECK
 70
     0
  9
$PEXTMIN
 10
1.0000000000000000E+020
 20
1.0000000000000000E+020
 30
1.0000000000000000E+020
  9
$PEXTMAX
 10
-1.0000000000000000E+020
 20
-1.0000000000000000E+020
 30
-1.0000000000000000E+020
  9
$PLIMMIN
 10
0.0
 20
0.0
  9
$PLIMMAX
 10
12.0
 20
9.0
  9
$UNITMODE
 70
     0
  9
$VISRETAIN
 70
     0
  9
$PLINEGEN
 70
     1
  9
$PSLTSCALE
 70
     0
  0
ENDSEC
  0
SECTION
  2
TABLES
  0
TABLE
  2
VPORT
 70
     1
  0
VPORT
  2
*ACTIVE
 70
     0
 10
0.0
 20
0.0
 11
1.0
 21
1.0
 12
483.1891176338811
 22
342.06786215076261
 13
0.0
 23
0.0
 14
5.0
 24
5.0
 15
10.0
 25
10.0
 16
0.0
 26
0.0
 36
1.0
 17
0.0
 27
0.0
 37
0.0
 40
696.34364756552554
 41
1.8318713450292401
 42
50.0
 43
0.0
 44
0.0
 50
0.0
 51
0.0
 71
     0
 72
   500
 73
     1
 74
     1
 75
     0
 76
     0
 77
     0
 78
     2
  0
ENDTAB
  0
TABLE
  2
LTYPE
 70
     3
  0
LTYPE
  2
CONTINUOUS
 70
     0
  3
実線
 72
    65
 73
     0
 40
0.0
  0
LTYPE
  2
CENTER
 70
     0
  3
____ _ ____ _ ____ _ ____ _ ____ _ ____ _ ____
 72
    65
 73
     4
 40
2.0
 49
1.25
 49
-0.25
 49
0.25
 49
-0.25
  0
LTYPE
  2
PHANTOM2
 70
     0
  3
___ _ _ ___ _ _ ___ _ _ ___ _ _
 72
    65
 73
     6
 40
1.25
 49
0.625
 49
-0.125
 49
0.125
 49
-0.125
 49
0.125
 49
-0.125
  0
ENDTAB
  0
TABLE
  2
LAYER
 70
     4
  0
LAYER
  2
0
 70
     0
 62
     7
  6
CONTINUOUS
  0
LAYER
  2
1
 70
     0
 62
     1
  6
CENTER
  0
LAYER
  2
DEFPOINTS
 70
     0
 62
     7
  6
CONTINUOUS
  0
LAYER
  2
3
 70
     0
 62
     3
  6
CONTINUOUS
  0
ENDTAB
  0
TABLE
  2
STYLE
 70
     3
  0
STYLE
  2
STANDARD
 70
     0
 40
0.0
 41
1.0
 50
0.0
 71
     0
 42
5.0
  3
simplex.shx
  4
bigfont.shx
  0
STYLE
  2
07500
 70
     0
 40
0.0
 41
0.75
 50
0.0
 71
     0
 42
0.2
  3
simplex.shx
  4
bigfont.shx
  0
STYLE
  2
STANDARD1
 70
     0
 40
0.0
 41
1.0
 50
0.0
 71
     0
 42
3.0
  3
txt
  4

  0
ENDTAB
  0
TABLE
  2
VIEW
 70
     2
  0
VIEW
  2
ALL
 70
     0
 40
270.0
 10
220.99159663865549
 20
135.0
 41
0.0
 11
0.0
 21
0.0
 31
1.0
 12
0.0
 22
0.0
 32
0.0
 42
0.0
 43
0.0
 44
0.0
 50
0.0
 71
     0
  0
VIEW
  2
OLE1
 70
     0
 40
168.2487151179721
 10
2892.3009567448912
 20
702.51600084347126
 41
162.5749581879237
 11
0.0
 21
0.0
 31
1.0
 12
0.0
 22
0.0
 32
0.0
 42
50.0
 43
0.0
 44
0.0
 50
0.0
 71
     0
  0
ENDTAB
  0
TABLE
  2
UCS
 70
     0
  0
ENDTAB
  0
TABLE
  2
APPID
 70
    48
  0
APPID
  2
ACAD
 70
     0
  0
APPID
  2
DCO15
 70
     0
  0
APPID
  2
GENIUS_GENOREF_13
 70
     0
  0
APPID
  2
GENIUS_GENOENT_13
 70
     0
  0
APPID
  2
GENIUS_GENBH_13
 70
     0
  0
APPID
  2
GENIUS_GENOBJ_13
 70
     0
  0
APPID
  2
GENIUS_GENODEF_13
 70
     0
  0
APPID
  2
GENIUS_GENOLIS_13
 70
     0
  0
APPID
  2
GENIUS_GENOBJ-NBEHI-BHF_13
 70
     0
  0
APPID
  2
GENIUS_GENOBJ-NBEHI-BHB_13
 70
     0
  0
APPID
  2
GENIUS_GENOBJ-F-PART_13
 70
     0
  0
APPID
  2
GENIUS_GEFSTDP_13
 70
     0
  0
APPID
  2
GENIUS_GENOBJ-N-RSSYM_13
 70
     0
  0
APPID
  2
GENIUS_GENSYMENT_13
 70
     0
  0
APPID
  2
GENIUS_GENOBJ-N-TIT_13
 70
     0
  0
APPID
  2
GENIUS_GENTITLE_13
 70
     0
  0
APPID
  2
GENIUS_GENZVEED_13
 70
     0
  0
APPID
  2
GENIUS_GENOBJ-N-LEADER_13
 70
     0
  0
APPID
  2
GENIUS_GENOBJ-N-FIL_13
 70
     0
  0
APPID
  2
GENIUS_GENOBJ-N-SEC_13
 70
     0
  0
APPID
  2
GENIUS_GENOBJ-N-CRS_13
 70
     0
  0
APPID
  2
GENIUS_GENOBJ-N-ZOO_13
 70
     0
  0
APPID
  2
GENIUS_GENZOO_13
 70
     0
  0
APPID
  2
GENIUS_GENOBJ-F-TOL_13
 70
     0
  0
APPID
  2
GENIUS_GENFIL_13
 70
     0
  0
APPID
  2
GENIUS_GENOBJ-N-CHA_13
 70
     0
  0
APPID
  2
_CALL_MAC$
 70
     0
  0
APPID
  2
ASM_BASE
 70
     0
  0
APPID
  2
ASM_EXPLO_VER_2_00
 70
     0
  0
APPID
  2
ASM_CADM_VER_12_00
 70
     0
  0
APPID
  2
ASM_BASEFORO
 70
     0
  0
APPID
  2
ASM_BASETRAVI
 70
     0
  0
APPID
  2
ASM_BASETRAVI1
 70
     0
  0
APPID
  2
ASM_GRUPPI
 70
     0
  0
APPID
  2
ASM_CADM_ALBERO
 70
     0
  0
APPID
  2
ASM_GOLE
 70
     0
  0
APPID
  2
ACAD_MLEADERVER
 70
     0
  0
APPID
  2
ACAD_DSTYLE_DIMJAG
 70
     0
  0
APPID
  2
ACAD_DSTYLE_DIMTALN
 70
     0
  0
APPID
  2
ACAD_EXEMPT_FROM_CAD_STANDARDS
 70
     0
  0
APPID
  2
ACAD_DSTYLE_DIMRADIAL_EXTENSION
 70
     0
  0
APPID
  2
ACAD_PSEXT
 70
     0
  0
APPID
  2
ACAD_DSTYLE_DIMBREAK
 70
     0
  0
APPID
  2
ACAECLAYERSTANDARD
 70
     0
  0
APPID
  2
ACCMTRANSPARENCY
 70
     0
  0
APPID
  2
GRADIENTCOLOR1ACI
 70
     0
  0
APPID
  2
GRADIENTCOLOR2ACI
 70
     0
  0
APPID
  2
ACAD_NAV_VCDISPLAY
 70
     0
  0
ENDTAB
  0
TABLE
  2
DIMSTYLE
 70
     1
  0
DIMSTYLE
  2
STANDARD
 70
     0
  3

  4

  5

  6

  7

 40
1.0
 41
0.18
 42
0.0625
 43
0.38
 44
0.18
 45
0.0
 46
0.0
 47
0.0
 48
0.0
140
0.18
141
0.09
142
0.0
143
25.399999999999999
144
1.0
145
0.0
146
1.0
147
0.09
 71
     0
 72
     0
 73
     1
 74
     1
 75
     0
 76
     0
 77
     0
 78
     0
170
     0
171
     2
172
     0
173
     0
174
     0
175
     0
176
     0
177
     0
178
     0
  0
ENDTAB
  0
ENDSEC
  0
SECTION
  2
BLOCKS
  0
BLOCK
  8
0
  2
$MODEL_SPACE
 70
     0
 10
0.0
 20
0.0
 30
0.0
  3
$MODEL_SPACE
  1

  0
ENDBLK
  5
36
  8
0
  0
BLOCK
 67
     1
  8
0
  2
$PAPER_SPACE
 70
     0
 10
0.0
 20
0.0
 30
0.0
  3
$PAPER_SPACE
  1

  0
ENDBLK
  5
34
 67
     1
  8
0
  0
ENDSEC
  0
SECTION
  2
ENTITIES
  0
LINE
  5
43896
  8
0
 10
556.10135706417623
 20
404.70817530267522
 30
0.0
 11
556.10135706417623
 21
401.5081753026754
 31
0.0
  0
LINE
  5
43897
  8
0
 10
659.10135706417623
 20
398.2081753026751
 30
0.0
 11
659.10135706417623
 21
404.70817530267522
 31
0.0
  0
LINE
  5
43898
  8
0
 10
556.10135706417623
 20
412.40817530267498
 30
0.0
 11
557.45907481562881
 21
404.70817530267522
 31
0.0
  0
LINE
  5
43899
  8
0
 10
657.74363931272183
 20
404.70817530267522
 30
0.0
 11
659.10135706417623
 21
412.40817530267498
 31
0.0
  0
LINE
  5
4389A
  8
0
 10
561.10135706417623
 20
413.20817530267499
 30
0.0
 11
561.10135706417623
 21
412.40817530267498
 31
0.0
  0
LINE
  5
4389B
  8
0
 10
654.10135706417623
 20
412.40817530267498
 30
0.0
 11
654.10135706417623
 21
413.20817530267499
 31
0.0
  0
CIRCLE
  5
438A0
  8
0
 10
551.60135706417623
 20
275.7081753026751
 30
0.0
 40
8.9999999999999147
  0
LINE
  5
438A1
  8
0
 10
546.11652950687403
 20
266.20817530267527
 30
0.0
 11
557.0861846214766
 21
266.20817530267527
 31
0.0
  0
LINE
  5
438A2
  8
0
 10
540.63170194957183
 20
275.7081753026751
 30
0.0
 11
546.11652950687403
 21
266.20817530267527
 31
0.0
  0
LINE
  5
438A3
  8
0
 10
546.11652950687403
 20
285.2081753026755
 30
0.0
 11
540.63170194957183
 21
275.7081753026751
 31
0.0
  0
LINE
  5
438A4
  8
0
 10
557.0861846214766
 20
285.2081753026755
 30
0.0
 11
546.11652950687403
 21
285.2081753026755
 31
0.0
  0
LINE
  5
438A5
  8
0
 10
562.5710121787788
 20
275.7081753026751
 30
0.0
 11
557.0861846214766
 21
285.2081753026755
 31
0.0
  0
LINE
  5
438A6
  8
0
 10
557.0861846214766
 20
266.20817530267527
 30
0.0
 11
562.5710121787788
 21
275.7081753026751
 31
0.0
  0
LINE
  5
438A7
  8
0
 10
677.60135706417623
 20
413.20817530267499
 30
0.0
 11
677.60135706417623
 21
415.70817530267499
 31
0.0
  0
LINE
  5
438AC
  8
0
 10
537.60135706417623
 20
413.20817530267499
 30
0.0
 11
537.60135706417623
 21
415.70817530267499
 31
0.0
  0
LINE
  5
438AD
  8
0
 10
537.60135706417623
 20
415.70817530267499
 30
0.0
 11
677.60135706417645
 21
415.70817530267499
 31
0.0
  0
LINE
  5
438AE
  8
0
 10
537.60135706417623
 20
413.20817530267499
 30
0.0
 11
677.60135706417645
 21
413.20817530267499
 31
0.0
  0
LINE
  5
438B1
  8
0
 10
568.23119069419499
 20
401.5081753026754
 30
0.0
 11
568.23119069419499
 21
271.28209079375893
 31
0.0
  0
LINE
  5
438B2
  8
0
 10
659.10135706417623
 20
398.2081753026751
 30
0.0
 11
568.23119069419499
 21
271.28209079375893
 31
0.0
  0
LINE
  5
438B4
  8
0
 10
556.10135706417623
 20
404.70817530267522
 30
0.0
 11
659.10135706417623
 21
404.70817530267522
 31
0.0
  0
LINE
  5
438B6
  8
0
 10
556.10135706417623
 20
412.40817530267498
 30
0.0
 11
659.10135706417623
 21
412.40817530267498
 31
0.0
  0
LINE
  5
438B7
  8
0
 10
491.11801756256949
 20
388.50817530267551
 30
0.0
 11
494.60135706417441
 21
375.50817530267523
 31
0.0
  0
LINE
  5
438B8
  8
0
 10
539.63467806096651
 20
401.5081753026754
 30
0.0
 11
491.11801756256949
 21
388.50817530267551
 31
0.0
  0
ARC
  5
438B9
  8
0
 10
559.10135706417623
 20
275.70817530267431
 30
0.0
 40
9.9999999999992895
 50
270.0
 51
324.39999554882883
  0
LINE
  5
438BA
  8
0
 10
544.10135706417623
 20
265.70817530267499
 30
0.0
 11
559.10135706417623
 21
265.70817530267499
 31
0.0
  0
ARC
  5
438BB
  8
0
 10
544.10135706417623
 20
275.7081753026751
 30
0.0
 40
9.9999999999999432
 50
173.1517815801916
 51
270.0
  0
LINE
  5
438BC
  8
0
 10
546.01512051730685
 20
375.50817530267523
 30
0.0
 11
534.17270195178105
 21
276.90057106713238
 31
0.0
  0
LINE
  5
438BD
  8
0
 10
494.60135706417441
 20
375.50817530267523
 30
0.0
 11
546.01512051730685
 21
375.50817530267523
 31
0.0
  0
LINE
  5
438BE
  8
0
 10
568.23119069419499
 20
401.5081753026754
 30
0.0
 11
539.63467806096651
 21
401.5081753026754
 31
0.0
  0
LINE
  5
438BF
  8
0
 10
567.23236422240825
 20
269.88694496942338
 30
0.0
 11
568.23119069419499
 21
271.28209079375893
 31
0.0
  0
LINE
  5
438E3
  8
0
 10
916.19741630314547
 20
266.20817530267527
 30
0.0
 11
916.33139089936128
 21
266.70817530267527
 31
0.0
  0
LINE
  5
438E4
  8
0
 10
916.33139089936128
 20
284.70817530267527
 30
0.0
 11
916.19741630314547
 21
285.2081753026755
 31
0.0
  0
LINE
  5
438E5
  8
0
 10
906.33139089936128
 20
266.70817530267527
 30
0.0
 11
906.46536549557732
 21
266.20817530267527
 31
0.0
  0
LINE
  5
438E6
  8
0
 10
832.43139089936176
 20
266.70817530267527
 30
0.0
 11
832.56536549557768
 21
266.20817530267527
 31
0.0
  0
LINE
  5
438E9
  8
0
 10
903.13139089936055
 20
285.7081753026751
 30
0.0
 11
902.13139089936055
 21
285.7081753026751
 31
0.0
  0
LINE
  5
438EA
  8
0
 10
844.13139089936055
 20
285.7081753026751
 30
0.0
 11
843.13139089936055
 21
285.7081753026751
 31
0.0
  0
LINE
  5
438ED
  8
0
 10
821.63139089936067
 20
404.70817530267522
 30
0.0
 11
821.63139089936067
 21
326.27374826977211
 31
0.0
  0
LINE
  5
438EE
  8
0
 10
924.63139089936055
 20
326.27374826977189
 30
0.0
 11
924.63139089936055
 21
404.70817530267522
 31
0.0
  0
LINE
  5
438EF
  8
0
 10
821.63139089936067
 20
412.40817530267498
 30
0.0
 11
822.98910865081496
 21
404.70817530267522
 31
0.0
  0
LINE
  5
438F0
  8
0
 10
923.27367314790797
 20
404.70817530267522
 30
0.0
 11
924.63139089936055
 21
412.40817530267498
 31
0.0
  0
LINE
  5
438F1
  8
0
 10
826.63139089936055
 20
413.20817530267499
 30
0.0
 11
826.63139089936055
 21
412.40817530267498
 31
0.0
  0
LINE
  5
438F2
  8
0
 10
919.63139089936067
 20
412.40817530267498
 30
0.0
 11
919.63139089936067
 21
413.20817530267499
 31
0.0
  0
ARC
  5
438F3
  8
0
 10
883.64499329987575
 20
176.70817530267769
 30
0.0
 40
1.0000000000025531
 50
270.0000000000652
 51
340.99999999990803
  0
ARC
  5
438F4
  8
0
 10
883.64499329987575
 20
374.70817530267249
 30
0.0
 40
1.000000000002643
 50
19.00000000009663
 51
89.999999999908809
  0
LINE
  5
438F5
  8
0
 10
879.13139089936055
 20
175.7081753026753
 30
0.0
 11
883.64499329987575
 21
175.7081753026753
 31
0.0
  0
LINE
  5
438F6
  8
0
 10
883.64499329987575
 20
375.70817530267527
 30
0.0
 11
879.13139089936055
 21
375.70817530267527
 31
0.0
  0
ARC
  5
438F7
  8
0
 10
879.13139089936055
 20
176.0081753026754
 30
0.0
 40
0.2999999999998692
 50
180.0
 51
270.00000000001302
  0
ARC
  5
438F8
  8
0
 10
879.13139089936055
 20
375.40817530267532
 30
0.0
 40
0.3000000000000114
 50
89.99999999996092
 51
180.0
  0
ARC
  5
438F9
  8
0
 10
876.13139089936055
 20
176.0081753026754
 30
0.0
 40
0.2999999999998692
 50
269.99999999996089
 51
0.0
  0
ARC
  5
438FA
  8
0
 10
876.13139089936055
 20
375.40817530267532
 30
0.0
 40
0.2999999999998692
 50
359.99999999997402
 51
90.000000000013031
  0
LINE
  5
438FB
  8
0
 10
870.13139089936055
 20
175.7081753026753
 30
0.0
 11
876.13139089936055
 21
175.7081753026753
 31
0.0
  0
LINE
  5
438FC
  8
0
 10
876.13139089936055
 20
375.70817530267527
 30
0.0
 11
870.13139089936055
 21
375.70817530267527
 31
0.0
  0
ARC
  5
438FD
  8
0
 10
867.13139089936067
 20
176.0081753026754
 30
0.0
 40
0.2999999999998692
 50
269.99999999996089
 51
0.0
  0
ARC
  5
438FE
  8
0
 10
867.13139089936067
 20
375.40817530267532
 30
0.0
 40
0.2999999999998692
 50
359.99999999997402
 51
90.000000000013031
  0
ARC
  5
438FF
  8
0
 10
870.13139089936055
 20
176.0081753026754
 30
0.0
 40
0.2999999999998692
 50
180.0
 51
270.00000000001302
  0
ARC
  5
43900
  8
0
 10
870.13139089936055
 20
375.40817530267532
 30
0.0
 40
0.3000000000000114
 50
89.99999999996092
 51
180.0
  0
LINE
  5
43901
  8
0
 10
862.61778849884558
 20
175.7081753026753
 30
0.0
 11
867.13139089936067
 21
175.7081753026753
 31
0.0
  0
LINE
  5
43902
  8
0
 10
867.13139089936067
 20
375.70817530267527
 30
0.0
 11
862.61778849884558
 21
375.70817530267527
 31
0.0
  0
ARC
  5
43903
  8
0
 10
862.61778849884558
 20
176.70817530267769
 30
0.0
 40
1.0000000000025531
 50
199.0000000000918
 51
269.99999999993491
  0
ARC
  5
43904
  8
0
 10
862.61778849884558
 20
374.70817530267249
 30
0.0
 40
1.000000000002643
 50
90.000000000065128
 51
160.99999999990331
  0
LINE
  5
43905
  8
0
 10
876.43139089935994
 20
176.0081753026754
 30
0.0
 11
878.83139089936128
 21
176.0081753026754
 31
0.0
  0
LINE
  5
43906
  8
0
 10
878.83139089936128
 20
375.40817530267532
 30
0.0
 11
876.43139089935994
 21
375.40817530267532
 31
0.0
  0
LINE
  5
43907
  8
0
 10
867.43139089936165
 20
176.0081753026754
 30
0.0
 11
869.83139089936128
 21
176.0081753026754
 31
0.0
  0
LINE
  5
43908
  8
0
 10
869.83139089936128
 20
375.40817530267532
 30
0.0
 11
867.43139089936165
 21
375.40817530267532
 31
0.0
  0
LINE
  5
43909
  8
0
 10
884.59051187547709
 20
176.38260714821851
 30
0.0
 11
887.74806102703121
 21
185.55279574096241
 31
0.0
  0
LINE
  5
4390A
  8
0
 10
887.74806102703121
 20
365.86355486438828
 30
0.0
 11
884.59051187547709
 21
375.03374345713218
 31
0.0
  0
LINE
  5
4390B
  8
0
 10
861.67226992324595
 20
375.03374345713218
 30
0.0
 11
858.51472077169001
 21
365.86355486438828
 31
0.0
  0
LINE
  5
4390C
  8
0
 10
858.51472077169001
 20
185.55279574096241
 30
0.0
 11
861.67226992324595
 21
176.38260714821851
 31
0.0
  0
ARC
  5
4390D
  8
0
 10
884.91150530025971
 20
186.52950020432939
 30
0.0
 40
2.9999999999750671
 50
340.9999999999261
 51
0.0000000000390827
  0
ARC
  5
4390E
  8
0
 10
884.91150530025971
 20
364.88685040102092
 30
0.0
 40
2.9999999999750671
 50
359.99999999996089
 51
19.000000000073879
  0
ARC
  5
4390F
  8
0
 10
861.35127649846333
 20
186.52950020432939
 30
0.0
 40
2.9999999999749241
 50
179.99999999996089
 51
199.00000000007401
  0
ARC
  5
43910
  8
0
 10
861.35127649846333
 20
364.88685040102092
 30
0.0
 40
2.9999999999749241
 50
160.9999999999261
 51
180.00000000003911
  0
ARC
  5
43911
  8
0
 10
888.74483863356818
 20
188.44764810848571
 30
0.0
 40
0.8333333333335347
 50
180.0000000000195
 51
359.9999999999805
  0
ARC
  5
43912
  8
0
 10
888.74483863356818
 20
362.96870249686498
 30
0.0
 40
0.8333333333335347
 50
0.0000000000195413
 51
179.99999999998039
  0
ARC
  5
43913
  8
0
 10
857.51794316515497
 20
188.44764810848571
 30
0.0
 40
0.8333333333335347
 50
180.0000000000195
 51
359.9999999999805
  0
ARC
  5
43914
  8
0
 10
857.51794316515497
 20
362.96870249686498
 30
0.0
 40
0.8333333333335347
 50
0.0000000000195413
 51
179.99999999998039
  0
ARC
  5
43915
  8
0
 10
890.41150530023424
 20
193.2879995712787
 30
0.0
 40
0.8333333333334991
 50
180.0000000000195
 51
359.9999999999805
  0
ARC
  5
43916
  8
0
 10
890.41150530023424
 20
358.1283510340715
 30
0.0
 40
0.8333333333334991
 50
0.0000000000195413
 51
179.99999999998039
  0
ARC
  5
43917
  8
0
 10
855.85127649848698
 20
193.2879995712787
 30
0.0
 40
0.8333333333334991
 50
180.0000000000195
 51
359.9999999999805
  0
ARC
  5
43918
  8
0
 10
855.85127649848698
 20
358.1283510340715
 30
0.0
 40
0.8333333333334991
 50
0.0000000000195413
 51
179.99999999998039
  0
LINE
  5
43919
  8
0
 10
891.24483863356807
 20
195.70817530267621
 30
0.0
 11
897.96794662615775
 21
215.23349866654829
 31
0.0
  0
LINE
  5
4391A
  8
0
 10
897.96794662615775
 20
336.18285193880251
 30
0.0
 11
891.24483863356807
 21
355.70817530267527
 31
0.0
  0
LINE
  5
4391B
  8
0
 10
855.01794316515497
 20
355.70817530267527
 30
0.0
 11
848.29483517256347
 21
336.18285193880251
 31
0.0
  0
LINE
  5
4391C
  8
0
 10
848.29483517256347
 20
215.23349866654829
 30
0.0
 11
855.01794316515497
 21
195.70817530267499
 31
0.0
  0
ARC
  5
4391D
  8
0
 10
895.13139089938625
 20
216.2102031299157
 30
0.0
 40
2.9999999999751732
 50
340.99999999992599
 51
0.0000000000358258
  0
ARC
  5
4391E
  8
0
 10
895.13139089938625
 20
335.20614747543499
 30
0.0
 40
2.9999999999751732
 50
359.99999999996089
 51
19.000000000074031
  0
ARC
  5
4391F
  8
0
 10
851.1313908993352
 20
216.2102031299157
 30
0.0
 40
2.9999999999750959
 50
179.9999999999641
 51
199.00000000007401
  0
ARC
  5
43920
  8
0
 10
851.1313908993352
 20
335.20614747543499
 30
0.0
 40
2.9999999999750959
 50
160.9999999999259
 51
180.00000000003911
  0
LINE
  5
43921
  8
0
 10
898.13139089936067
 20
262.7081753026755
 30
0.0
 11
900.73602560997722
 21
262.89030910426641
 31
0.0
  0
LINE
  5
43922
  8
0
 10
900.73602560997722
 20
288.52604150108391
 30
0.0
 11
898.13139089936067
 21
288.70817530267482
 31
0.0
  0
LINE
  5
43923
  8
0
 10
848.13139089936067
 20
288.70817530267482
 30
0.0
 11
845.526756188744
 21
288.52604150108391
 31
0.0
  0
LINE
  5
43924
  8
0
 10
845.526756188744
 20
262.89030910426641
 30
0.0
 11
848.13139089936067
 21
262.7081753026755
 31
0.0
  0
ARC
  5
43925
  8
0
 10
900.63139089936055
 20
264.38665517965552
 30
0.0
 40
1.499999999999488
 50
273.99999999999648
 51
0.0
  0
ARC
  5
43926
  8
0
 10
900.63139089936055
 20
287.02969542569491
 30
0.0
 40
1.499999999999488
 50
0.0
 51
86.00000000000351
  0
ARC
  5
43927
  8
0
 10
845.63139089936067
 20
264.38665517965552
 30
0.0
 40
1.499999999999523
 50
180.0
 51
266.00000000000352
  0
ARC
  5
43928
  8
0
 10
845.63139089936067
 20
287.02969542569491
 30
0.0
 40
1.499999999999523
 50
93.999999999996476
 51
180.0
  0
LINE
  5
43929
  8
0
 10
916.33139089936128
 20
284.70817530267527
 30
0.0
 11
916.33139089936128
 21
266.70817530267527
 31
0.0
  0
ARC
  5
4392C
  8
0
 10
887.08335232166712
 20
270.95817530267527
 30
0.0
 40
29.11041859764034
 50
350.60895175604878
 51
9.3910482439553622
  0
ARC
  5
4392D
  8
0
 10
886.76913461798642
 20
280.45817530267527
 30
0.0
 40
29.42046972689462
 50
350.70880198371509
 51
9.2911980162849002
  0
LINE
  5
4392E
  8
0
 10
916.19741630314547
 20
285.2081753026755
 30
0.0
 11
915.41479228889239
 21
285.2081753026755
 31
0.0
  0
LINE
  5
4392F
  8
0
 10
915.80362340203556
 20
275.7081753026751
 30
0.0
 11
909.76073155349241
 21
275.7081753026751
 31
0.0
  0
LINE
  5
43930
  8
0
 10
916.19741630314547
 20
266.20817530267527
 30
0.0
 11
906.46536549557732
 21
266.20817530267527
 31
0.0
  0
ARC
  5
43931
  8
0
 10
928.58754780563038
 20
270.39128938368708
 30
0.0
 40
22.127389130249501
 50
177.16460278270131
 51
190.89716697410461
  0
ARC
  5
43933
  8
0
 10
861.67942947705615
 20
270.95817530267527
 30
0.0
 40
29.11041859764034
 50
170.6089517560446
 51
189.39104824395531
  0
LINE
  5
43934
  8
0
 10
836.50205024522893
 20
275.7081753026751
 30
0.0
 11
832.95915839668749
 21
275.7081753026751
 31
0.0
  0
LINE
  5
43935
  8
0
 10
839.93139089936165
 20
266.20817530267527
 30
0.0
 11
832.56536549557768
 21
266.20817530267527
 31
0.0
  0
POLYLINE
  5
43936
  8
0
 66
     1
 10
0.0
 20
0.0
 30
0.0
 70
   128
  0
VERTEX
  5
43CC1
  8
0
 10
832.95915839668749
 20
275.7081753026751
 30
0.0
  0
VERTEX
  5
43CC2
  8
0
 10
832.5767005411044
 20
279.68089837740757
 30
0.0
  0
VERTEX
  5
43CC3
  8
0
 10
832.67412849797711
 20
281.85074588224097
 30
0.0
  0
SEQEND
  5
43CC4
  8
0
  0
LINE
  5
43937
  8
0
 10
832.43139089936176
 20
266.70817530267527
 30
0.0
 11
832.43139089936176
 21
282.19726887713409
 31
0.0
  0
LINE
  5
4393A
  8
0
 10
928.13139089936055
 20
413.20817530267499
 30
0.0
 11
928.13139089936055
 21
415.70817530267499
 31
0.0
  0
LINE
  5
43941
  8
0
 10
818.13139089936055
 20
413.20817530267499
 30
0.0
 11
818.13139089936055
 21
415.70817530267499
 31
0.0
  0
LINE
  5
43942
  8
0
 10
818.13139089936055
 20
415.70817530267499
 30
0.0
 11
928.13139089936112
 21
415.70817530267499
 31
0.0
  0
LINE
  5
43943
  8
0
 10
818.13139089936055
 20
413.20817530267499
 30
0.0
 11
928.13139089936112
 21
413.2081753026751
 31
0.0
  0
LINE
  5
43944
  8
0
 10
839.93139089936165
 20
265.70817530267499
 30
0.0
 11
839.93139089936165
 21
271.28209079375893
 31
0.0
  0
POLYLINE
  5
43945
  8
0
 10
906.33139089936139
 20
271.28209079375949
 30
0.0
 66
     1
 70
     8
  0
VERTEX
  8
0
  5
43CD9
 10
906.331
 20
271.282
 30
0.000000
  70
    32
  0
VERTEX
  8
0
  5
43CDA
 10
907.808
 20
273.090
 30
0.000000
  70
    32
  0
VERTEX
  8
0
  5
43CDB
 10
909.235
 20
274.976
 30
0.000000
  70
    32
  0
VERTEX
  8
0
  5
43CDC
 10
910.609
 20
276.936
 30
0.000000
  70
    32
  0
VERTEX
  8
0
  5
43CDD
 10
911.929
 20
278.968
 30
0.000000
  70
    32
  0
VERTEX
  8
0
  5
43CDE
 10
913.192
 20
281.069
 30
0.000000
  70
    32
  0
VERTEX
  8
0
  5
43CDF
 10
914.397
 20
283.236
 30
0.000000
  70
    32
  0
VERTEX
  8
0
  5
43CE0
 10
915.542
 20
285.465
 30
0.000000
  70
    32
  0
VERTEX
  8
0
  5
43CE1
 10
916.625
 20
287.753
 30
0.000000
  70
    32
  0
VERTEX
  8
0
  5
43CE2
 10
917.645
 20
290.098
 30
0.000000
  70
    32
  0
VERTEX
  8
0
  5
43CE3
 10
918.600
 20
292.495
 30
0.000000
  70
    32
  0
VERTEX
  8
0
  5
43CE4
 10
919.489
 20
294.941
 30
0.000000
  70
    32
  0
VERTEX
  8
0
  5
43CE5
 10
920.311
 20
297.433
 30
0.000000
  70
    32
  0
VERTEX
  8
0
  5
43CE6
 10
921.064
 20
299.967
 30
0.000000
  70
    32
  0
VERTEX
  8
0
  5
43CE7
 10
921.747
 20
302.539
 30
0.000000
  70
    32
  0
VERTEX
  8
0
  5
43CE8
 10
922.360
 20
305.146
 30
0.000000
  70
    32
  0
VERTEX
  8
0
  5
43CE9
 10
922.901
 20
307.783
 30
0.000000
  70
    32
  0
VERTEX
  8
0
  5
43CEA
 10
923.370
 20
310.448
 30
0.000000
  70
    32
  0
VERTEX
  8
0
  5
43CEB
 10
923.765
 20
313.135
 30
0.000000
  70
    32
  0
VERTEX
  8
0
  5
43CEC
 10
924.087
 20
315.841
 30
0.000000
  70
    32
  0
VERTEX
  8
0
  5
43CED
 10
924.335
 20
318.563
 30
0.000000
  70
    32
  0
VERTEX
  8
0
  5
43CEE
 10
924.508
 20
321.296
 30
0.000000
  70
    32
  0
VERTEX
  8
0
  5
43CEF
 10
924.606
 20
324.036
 30
0.000000
  70
    32
  0
VERTEX
  8
0
  5
43CF0
 10
924.630
 20
326.779
 30
0.000000
  70
    32
  0
VERTEX
  8
0
  5
43CF1
 10
924.579
 20
329.521
 30
0.000000
  70
    32
  0
VERTEX
  8
0
  5
43CF2
 10
924.453
 20
332.259
 30
0.000000
  70
    32
  0
VERTEX
  8
0
  5
43CF3
 10
924.252
 20
334.988
 30
0.000000
  70
    32
  0
VERTEX
  8
0
  5
43CF4
 10
923.977
 20
337.705
 30
0.000000
  70
    32
  0
VERTEX
  8
0
  5
43CF5
 10
923.628
 20
340.405
 30
0.000000
  70
    32
  0
VERTEX
  8
0
  5
43CF6
 10
923.205
 20
343.084
 30
0.000000
  70
    32
  0
VERTEX
  8
0
  5
43CF7
 10
922.710
 20
345.739
 30
0.000000
  70
    32
  0
VERTEX
  8
0
  5
43CF8
 10
922.143
 20
348.365
 30
0.000000
  70
    32
  0
VERTEX
  8
0
  5
43CF9
 10
921.504
 20
350.959
 30
0.000000
  70
    32
  0
VERTEX
  8
0
  5
43CFA
 10
920.795
 20
353.518
 30
0.000000
  70
    32
  0
VERTEX
  8
0
  5
43CFB
 10
920.016
 20
356.037
 30
0.000000
  70
    32
  0
VERTEX
  8
0
  5
43CFC
 10
919.170
 20
358.512
 30
0.000000
  70
    32
  0
VERTEX
  8
0
  5
43CFD
 10
918.256
 20
360.941
 30
0.000000
  70
    32
  0
VERTEX
  8
0
  5
43CFE
 10
917.277
 20
363.319
 30
0.000000
  70
    32
  0
VERTEX
  8
0
  5
43CFF
 10
916.234
 20
365.643
 30
0.000000
  70
    32
  0
VERTEX
  8
0
  5
43D00
 10
915.128
 20
367.911
 30
0.000000
  70
    32
  0
VERTEX
  8
0
  5
43D01
 10
913.960
 20
370.117
 30
0.000000
  70
    32
  0
VERTEX
  8
0
  5
43D02
 10
912.734
 20
372.260
 30
0.000000
  70
    32
  0
VERTEX
  8
0
  5
43D03
 10
911.450
 20
374.336
 30
0.000000
  70
    32
  0
VERTEX
  8
0
  5
43D04
 10
910.110
 20
376.342
 30
0.000000
  70
    32
  0
VERTEX
  8
0
  5
43D05
 10
908.716
 20
378.275
 30
0.000000
  70
    32
  0
VERTEX
  8
0
  5
43D06
 10
907.270
 20
380.132
 30
0.000000
  70
    32
  0
VERTEX
  8
0
  5
43D07
 10
905.775
 20
381.911
 30
0.000000
  70
    32
  0
VERTEX
  8
0
  5
43D08
 10
904.233
 20
383.609
 30
0.000000
  70
    32
  0
VERTEX
  8
0
  5
43D09
 10
902.645
 20
385.224
 30
0.000000
  70
    32
  0
VERTEX
  8
0
  5
43D0A
 10
901.014
 20
386.753
 30
0.000000
  70
    32
  0
VERTEX
  8
0
  5
43D0B
 10
899.343
 20
388.194
 30
0.000000
  70
    32
  0
VERTEX
  8
0
  5
43D0C
 10
897.633
 20
389.545
 30
0.000000
  70
    32
  0
VERTEX
  8
0
  5
43D0D
 10
895.888
 20
390.804
 30
0.000000
  70
    32
  0
VERTEX
  8
0
  5
43D0E
 10
894.110
 20
391.969
 30
0.000000
  70
    32
  0
VERTEX
  8
0
  5
43D0F
 10
892.301
 20
393.039
 30
0.000000
  70
    32
  0
VERTEX
  8
0
  5
43D10
 10
890.465
 20
394.012
 30
0.000000
  70
    32
  0
VERTEX
  8
0
  5
43D11
 10
888.603
 20
394.885
 30
0.000000
  70
    32
  0
VERTEX
  8
0
  5
43D12
 10
886.718
 20
395.660
 30
0.000000
  70
    32
  0
VERTEX
  8
0
  5
43D13
 10
884.814
 20
396.333
 30
0.000000
  70
    32
  0
VERTEX
  8
0
  5
43D14
 10
882.893
 20
396.904
 30
0.000000
  70
    32
  0
VERTEX
  8
0
  5
43D15
 10
880.958
 20
397.373
 30
0.000000
  70
    32
  0
VERTEX
  8
0
  5
43D16
 10
879.011
 20
397.738
 30
0.000000
  70
    32
  0
VERTEX
  8
0
  5
43D17
 10
877.056
 20
397.999
 30
0.000000
  70
    32
  0
VERTEX
  8
0
  5
43D18
 10
875.095
 20
398.156
 30
0.000000
  70
    32
  0
VERTEX
  8
0
  5
43D19
 10
873.131
 20
398.208
 30
0.000000
  70
    32
  0
VERTEX
  8
0
  5
43D1A
 10
871.168
 20
398.156
 30
0.000000
  70
    32
  0
VERTEX
  8
0
  5
43D1B
 10
869.207
 20
397.999
 30
0.000000
  70
    32
  0
VERTEX
  8
0
  5
43D1C
 10
867.251
 20
397.738
 30
0.000000
  70
    32
  0
VERTEX
  8
0
  5
43D1D
 10
865.305
 20
397.373
 30
0.000000
  70
    32
  0
VERTEX
  8
0
  5
43D1E
 10
863.370
 20
396.904
 30
0.000000
  70
    32
  0
VERTEX
  8
0
  5
43D1F
 10
861.448
 20
396.333
 30
0.000000
  70
    32
  0
VERTEX
  8
0
  5
43D20
 10
859.544
 20
395.660
 30
0.000000
  70
    32
  0
VERTEX
  8
0
  5
43D21
 10
857.660
 20
394.885
 30
0.000000
  70
    32
  0
VERTEX
  8
0
  5
43D22
 10
855.798
 20
394.012
 30
0.000000
  70
    32
  0
VERTEX
  8
0
  5
43D23
 10
853.962
 20
393.039
 30
0.000000
  70
    32
  0
VERTEX
  8
0
  5
43D24
 10
852.153
 20
391.969
 30
0.000000
  70
    32
  0
VERTEX
  8
0
  5
43D25
 10
850.375
 20
390.804
 30
0.000000
  70
    32
  0
VERTEX
  8
0
  5
43D26
 10
848.630
 20
389.545
 30
0.000000
  70
    32
  0
VERTEX
  8
0
  5
43D27
 10
846.920
 20
388.194
 30
0.000000
  70
    32
  0
VERTEX
  8
0
  5
43D28
 10
845.249
 20
386.753
 30
0.000000
  70
    32
  0
VERTEX
  8
0
  5
43D29
 10
843.618
 20
385.224
 30
0.000000
  70
    32
  0
VERTEX
  8
0
  5
43D2A
 10
842.030
 20
383.609
 30
0.000000
  70
    32
  0
VERTEX
  8
0
  5
43D2B
 10
840.488
 20
381.911
 30
0.000000
  70
    32
  0
VERTEX
  8
0
  5
43D2C
 10
838.992
 20
380.132
 30
0.000000
  70
    32
  0
VERTEX
  8
0
  5
43D2D
 10
837.547
 20
378.275
 30
0.000000
  70
    32
  0
VERTEX
  8
0
  5
43D2E
 10
836.153
 20
376.342
 30
0.000000
  70
    32
  0
VERTEX
  8
0
  5
43D2F
 10
834.813
 20
374.336
 30
0.000000
  70
    32
  0
VERTEX
  8
0
  5
43D30
 10
833.529
 20
372.260
 30
0.000000
  70
    32
  0
VERTEX
  8
0
  5
43D31
 10
832.302
 20
370.117
 30
0.000000
  70
    32
  0
VERTEX
  8
0
  5
43D32
 10
831.135
 20
367.911
 30
0.000000
  70
    32
  0
VERTEX
  8
0
  5
43D33
 10
830.029
 20
365.643
 30
0.000000
  70
    32
  0
VERTEX
  8
0
  5
43D34
 10
828.986
 20
363.319
 30
0.000000
  70
    32
  0
VERTEX
  8
0
  5
43D35
 10
828.007
 20
360.941
 30
0.000000
  70
    32
  0
VERTEX
  8
0
  5
43D36
 10
827.093
 20
358.512
 30
0.000000
  70
    32
  0
VERTEX
  8
0
  5
43D37
 10
826.246
 20
356.037
 30
0.000000
  70
    32
  0
VERTEX
  8
0
  5
43D38
 10
825.468
 20
353.518
 30
0.000000
  70
    32
  0
VERTEX
  8
0
  5
43D39
 10
824.759
 20
350.959
 30
0.000000
  70
    32
  0
VERTEX
  8
0
  5
43D3A
 10
824.120
 20
348.365
 30
0.000000
  70
    32
  0
VERTEX
  8
0
  5
43D3B
 10
823.553
 20
345.739
 30
0.000000
  70
    32
  0
VERTEX
  8
0
  5
43D3C
 10
823.057
 20
343.084
 30
0.000000
  70
    32
  0
VERTEX
  8
0
  5
43D3D
 10
822.635
 20
340.405
 30
0.000000
  70
    32
  0
VERTEX
  8
0
  5
43D3E
 10
822.286
 20
337.705
 30
0.000000
  70
    32
  0
VERTEX
  8
0
  5
43D3F
 10
822.011
 20
334.988
 30
0.000000
  70
    32
  0
VERTEX
  8
0
  5
43D40
 10
821.810
 20
332.259
 30
0.000000
  70
    32
  0
VERTEX
  8
0
  5
43D41
 10
821.684
 20
329.521
 30
0.000000
  70
    32
  0
VERTEX
  8
0
  5
43D42
 10
821.633
 20
326.779
 30
0.000000
  70
    32
  0
VERTEX
  8
0
  5
43D43
 10
821.656
 20
324.036
 30
0.000000
  70
    32
  0
VERTEX
  8
0
  5
43D44
 10
821.755
 20
321.296
 30
0.000000
  70
    32
  0
VERTEX
  8
0
  5
43D45
 10
821.928
 20
318.563
 30
0.000000
  70
    32
  0
VERTEX
  8
0
  5
43D46
 10
822.176
 20
315.841
 30
0.000000
  70
    32
  0
VERTEX
  8
0
  5
43D47
 10
822.498
 20
313.135
 30
0.000000
  70
    32
  0
VERTEX
  8
0
  5
43D48
 10
822.893
 20
310.448
 30
0.000000
  70
    32
  0
VERTEX
  8
0
  5
43D49
 10
823.362
 20
307.783
 30
0.000000
  70
    32
  0
VERTEX
  8
0
  5
43D4A
 10
823.903
 20
305.146
 30
0.000000
  70
    32
  0
VERTEX
  8
0
  5
43D4B
 10
824.515
 20
302.539
 30
0.000000
  70
    32
  0
VERTEX
  8
0
  5
43D4C
 10
825.199
 20
299.967
 30
0.000000
  70
    32
  0
VERTEX
  8
0
  5
43D4D
 10
825.952
 20
297.433
 30
0.000000
  70
    32
  0
VERTEX
  8
0
  5
43D4E
 10
826.773
 20
294.941
 30
0.000000
  70
    32
  0
VERTEX
  8
0
  5
43D4F
 10
827.662
 20
292.495
 30
0.000000
  70
    32
  0
VERTEX
  8
0
  5
43D50
 10
828.618
 20
290.098
 30
0.000000
  70
    32
  0
VERTEX
  8
0
  5
43D51
 10
829.638
 20
287.753
 30
0.000000
  70
    32
  0
VERTEX
  8
0
  5
43D52
 10
830.721
 20
285.465
 30
0.000000
  70
    32
  0
VERTEX
  8
0
  5
43D53
 10
831.866
 20
283.236
 30
0.000000
  70
    32
  0
VERTEX
  8
0
  5
43D54
 10
833.071
 20
281.069
 30
0.000000
  70
    32
  0
VERTEX
  8
0
  5
43D55
 10
834.334
 20
278.968
 30
0.000000
  70
    32
  0
VERTEX
  8
0
  5
43D56
 10
835.653
 20
276.936
 30
0.000000
  70
    32
  0
VERTEX
  8
0
  5
43D57
 10
837.028
 20
274.976
 30
0.000000
  70
    32
  0
VERTEX
  8
0
  5
43D58
 10
838.454
 20
273.090
 30
0.000000
  70
    32
  0
VERTEX
  8
0
  5
43D59
 10
839.931
 20
271.282
 30
0.000000
  70
    32
  0
SEQEND
  8
0
  5
43D5A
  0
LINE
  5
43946
  8
0
 10
906.33139089936128
 20
265.70817530267499
 30
0.0
 11
906.33139089936128
 21
271.28209079375893
 31
0.0
  0
LINE
  5
43947
  8
0
 10
903.13139089936055
 20
269.88694496942338
 30
0.0
 11
906.33139089936128
 21
269.88694496942338
 31
0.0
  0
POLYLINE
  5
43949
  8
0
 10
903.13139089936146
 20
273.40050079443802
 30
0.0
 66
     1
 70
     8
  0
VERTEX
  8
0
  5
43D5B
 10
903.131
 20
273.401
 30
0.000000
  70
    32
  0
VERTEX
  8
0
  5
43D5C
 10
904.570
 20
275.058
 30
0.000000
  70
    32
  0
VERTEX
  8
0
  5
43D5D
 10
905.963
 20
276.791
 30
0.000000
  70
    32
  0
VERTEX
  8
0
  5
43D5E
 10
907.306
 20
278.598
 30
0.000000
  70
    32
  0
VERTEX
  8
0
  5
43D5F
 10
908.598
 20
280.477
 30
0.000000
  70
    32
  0
VERTEX
  8
0
  5
43D60
 10
909.837
 20
282.424
 30
0.000000
  70
    32
  0
VERTEX
  8
0
  5
43D61
 10
911.022
 20
284.436
 30
0.000000
  70
    32
  0
VERTEX
  8
0
  5
43D62
 10
912.150
 20
286.510
 30
0.000000
  70
    32
  0
VERTEX
  8
0
  5
43D63
 10
913.220
 20
288.644
 30
0.000000
  70
    32
  0
VERTEX
  8
0
  5
43D64
 10
914.230
 20
290.834
 30
0.000000
  70
    32
  0
VERTEX
  8
0
  5
43D65
 10
915.179
 20
293.076
 30
0.000000
  70
    32
  0
VERTEX
  8
0
  5
43D66
 10
916.065
 20
295.368
 30
0.000000
  70
    32
  0
VERTEX
  8
0
  5
43D67
 10
916.888
 20
297.707
 30
0.000000
  70
    32
  0
VERTEX
  8
0
  5
43D68
 10
917.645
 20
300.088
 30
0.000000
  70
    32
  0
VERTEX
  8
0
  5
43D69
 10
918.335
 20
302.507
 30
0.000000
  70
    32
  0
VERTEX
  8
0
  5
43D6A
 10
918.958
 20
304.963
 30
0.000000
  70
    32
  0
VERTEX
  8
0
  5
43D6B
 10
919.513
 20
307.450
 30
0.000000
  70
    32
  0
VERTEX
  8
0
  5
43D6C
 10
919.999
 20
309.965
 30
0.000000
  70
    32
  0
VERTEX
  8
0
  5
43D6D
 10
920.415
 20
312.504
 30
0.000000
  70
    32
  0
VERTEX
  8
0
  5
43D6E
 10
920.760
 20
315.065
 30
0.000000
  70
    32
  0
VERTEX
  8
0
  5
43D6F
 10
921.034
 20
317.641
 30
0.000000
  70
    32
  0
VERTEX
  8
0
  5
43D70
 10
921.237
 20
320.231
 30
0.000000
  70
    32
  0
VERTEX
  8
0
  5
43D71
 10
921.368
 20
322.829
 30
0.000000
  70
    32
  0
VERTEX
  8
0
  5
43D72
 10
921.428
 20
325.433
 30
0.000000
  70
    32
  0
VERTEX
  8
0
  5
43D73
 10
921.415
 20
328.038
 30
0.000000
  70
    32
  0
VERTEX
  8
0
  5
43D74
 10
921.330
 20
330.641
 30
0.000000
  70
    32
  0
VERTEX
  8
0
  5
43D75
 10
921.173
 20
333.236
 30
0.000000
  70
    32
  0
VERTEX
  8
0
  5
43D76
 10
920.945
 20
335.822
 30
0.000000
  70
    32
  0
VERTEX
  8
0
  5
43D77
 10
920.646
 20
338.393
 30
0.000000
  70
    32
  0
VERTEX
  8
0
  5
43D78
 10
920.275
 20
340.946
 30
0.000000
  70
    32
  0
VERTEX
  8
0
  5
43D79
 10
919.835
 20
343.478
 30
0.000000
  70
    32
  0
VERTEX
  8
0
  5
43D7A
 10
919.324
 20
345.983
 30
0.000000
  70
    32
  0
VERTEX
  8
0
  5
43D7B
 10
918.745
 20
348.459
 30
0.000000
  70
    32
  0
VERTEX
  8
0
  5
43D7C
 10
918.098
 20
350.903
 30
0.000000
  70
    32
  0
VERTEX
  8
0
  5
43D7D
 10
917.384
 20
353.309
 30
0.000000
  70
    32
  0
VERTEX
  8
0
  5
43D7E
 10
916.603
 20
355.675
 30
0.000000
  70
    32
  0
VERTEX
  8
0
  5
43D7F
 10
915.758
 20
357.997
 30
0.000000
  70
    32
  0
VERTEX
  8
0
  5
43D80
 10
914.850
 20
360.272
 30
0.000000
  70
    32
  0
VERTEX
  8
0
  5
43D81
 10
913.879
 20
362.497
 30
0.000000
  70
    32
  0
VERTEX
  8
0
  5
43D82
 10
912.847
 20
364.667
 30
0.000000
  70
    32
  0
VERTEX
  8
0
  5
43D83
 10
911.757
 20
366.780
 30
0.000000
  70
    32
  0
VERTEX
  8
0
  5
43D84
 10
910.608
 20
368.833
 30
0.000000
  70
    32
  0
VERTEX
  8
0
  5
43D85
 10
909.404
 20
370.822
 30
0.000000
  70
    32
  0
VERTEX
  8
0
  5
43D86
 10
908.146
 20
372.745
 30
0.000000
  70
    32
  0
VERTEX
  8
0
  5
43D87
 10
906.835
 20
374.598
 30
0.000000
  70
    32
  0
VERTEX
  8
0
  5
43D88
 10
905.474
 20
376.380
 30
0.000000
  70
    32
  0
VERTEX
  8
0
  5
43D89
 10
904.065
 20
378.086
 30
0.000000
  70
    32
  0
VERTEX
  8
0
  5
43D8A
 10
902.610
 20
379.716
 30
0.000000
  70
    32
  0
VERTEX
  8
0
  5
43D8B
 10
901.111
 20
381.266
 30
0.000000
  70
    32
  0
VERTEX
  8
0
  5
43D8C
 10
899.570
 20
382.734
 30
0.000000
  70
    32
  0
VERTEX
  8
0
  5
43D8D
 10
897.990
 20
384.117
 30
0.000000
  70
    32
  0
VERTEX
  8
0
  5
43D8E
 10
896.373
 20
385.415
 30
0.000000
  70
    32
  0
VERTEX
  8
0
  5
43D8F
 10
894.721
 20
386.624
 30
0.000000
  70
    32
  0
VERTEX
  8
0
  5
43D90
 10
893.037
 20
387.743
 30
0.000000
  70
    32
  0
VERTEX
  8
0
  5
43D91
 10
891.323
 20
388.771
 30
0.000000
  70
    32
  0
VERTEX
  8
0
  5
43D92
 10
889.582
 20
389.705
 30
0.000000
  70
    32
  0
VERTEX
  8
0
  5
43D93
 10
887.816
 20
390.545
 30
0.000000
  70
    32
  0
VERTEX
  8
0
  5
43D94
 10
886.029
 20
391.289
 30
0.000000
  70
    32
  0
VERTEX
  8
0
  5
43D95
 10
884.222
 20
391.936
 30
0.000000
  70
    32
  0
VERTEX
  8
0
  5
43D96
 10
882.399
 20
392.485
 30
0.000000
  70
    32
  0
VERTEX
  8
0
  5
43D97
 10
880.562
 20
392.935
 30
0.000000
  70
    32
  0
VERTEX
  8
0
  5
43D98
 10
878.714
 20
393.286
 30
0.000000
  70
    32
  0
VERTEX
  8
0
  5
43D99
 10
876.858
 20
393.537
 30
0.000000
  70
    32
  0
VERTEX
  8
0
  5
43D9A
 10
874.996
 20
393.688
 30
0.000000
  70
    32
  0
VERTEX
  8
0
  5
43D9B
 10
873.131
 20
393.738
 30
0.000000
  70
    32
  0
VERTEX
  8
0
  5
43D9C
 10
871.267
 20
393.688
 30
0.000000
  70
    32
  0
VERTEX
  8
0
  5
43D9D
 10
869.405
 20
393.537
 30
0.000000
  70
    32
  0
VERTEX
  8
0
  5
43D9E
 10
867.548
 20
393.286
 30
0.000000
  70
    32
  0
VERTEX
  8
0
  5
43D9F
 10
865.700
 20
392.935
 30
0.000000
  70
    32
  0
VERTEX
  8
0
  5
43DA0
 10
863.863
 20
392.485
 30
0.000000
  70
    32
  0
VERTEX
  8
0
  5
43DA1
 10
862.040
 20
391.936
 30
0.000000
  70
    32
  0
VERTEX
  8
0
  5
43DA2
 10
860.234
 20
391.289
 30
0.000000
  70
    32
  0
VERTEX
  8
0
  5
43DA3
 10
858.446
 20
390.545
 30
0.000000
  70
    32
  0
VERTEX
  8
0
  5
43DA4
 10
856.681
 20
389.705
 30
0.000000
  70
    32
  0
VERTEX
  8
0
  5
43DA5
 10
854.940
 20
388.771
 30
0.000000
  70
    32
  0
VERTEX
  8
0
  5
43DA6
 10
853.226
 20
387.743
 30
0.000000
  70
    32
  0
VERTEX
  8
0
  5
43DA7
 10
851.542
 20
386.624
 30
0.000000
  70
    32
  0
VERTEX
  8
0
  5
43DA8
 10
849.890
 20
385.415
 30
0.000000
  70
    32
  0
VERTEX
  8
0
  5
43DA9
 10
848.273
 20
384.117
 30
0.000000
  70
    32
  0
VERTEX
  8
0
  5
43DAA
 10
846.693
 20
382.734
 30
0.000000
  70
    32
  0
VERTEX
  8
0
  5
43DAB
 10
845.152
 20
381.266
 30
0.000000
  70
    32
  0
VERTEX
  8
0
  5
43DAC
 10
843.653
 20
379.716
 30
0.000000
  70
    32
  0
VERTEX
  8
0
  5
43DAD
 10
842.198
 20
378.086
 30
0.000000
  70
    32
  0
VERTEX
  8
0
  5
43DAE
 10
840.788
 20
376.380
 30
0.000000
  70
    32
  0
VERTEX
  8
0
  5
43DAF
 10
839.428
 20
374.598
 30
0.000000
  70
    32
  0
VERTEX
  8
0
  5
43DB0
 10
838.117
 20
372.745
 30
0.000000
  70
    32
  0
VERTEX
  8
0
  5
43DB1
 10
836.859
 20
370.822
 30
0.000000
  70
    32
  0
VERTEX
  8
0
  5
43DB2
 10
835.655
 20
368.833
 30
0.000000
  70
    32
  0
VERTEX
  8
0
  5
43DB3
 10
834.506
 20
366.780
 30
0.000000
  70
    32
  0
VERTEX
  8
0
  5
43DB4
 10
833.415
 20
364.667
 30
0.000000
  70
    32
  0
VERTEX
  8
0
  5
43DB5
 10
832.384
 20
362.497
 30
0.000000
  70
    32
  0
VERTEX
  8
0
  5
43DB6
 10
831.413
 20
360.272
 30
0.000000
  70
    32
  0
VERTEX
  8
0
  5
43DB7
 10
830.504
 20
357.997
 30
0.000000
  70
    32
  0
VERTEX
  8
0
  5
43DB8
 10
829.659
 20
355.675
 30
0.000000
  70
    32
  0
VERTEX
  8
0
  5
43DB9
 10
828.879
 20
353.309
 30
0.000000
  70
    32
  0
VERTEX
  8
0
  5
43DBA
 10
828.165
 20
350.903
 30
0.000000
  70
    32
  0
VERTEX
  8
0
  5
43DBB
 10
827.518
 20
348.459
 30
0.000000
  70
    32
  0
VERTEX
  8
0
  5
43DBC
 10
826.939
 20
345.983
 30
0.000000
  70
    32
  0
VERTEX
  8
0
  5
43DBD
 10
826.428
 20
343.478
 30
0.000000
  70
    32
  0
VERTEX
  8
0
  5
43DBE
 10
825.988
 20
340.946
 30
0.000000
  70
    32
  0
VERTEX
  8
0
  5
43DBF
 10
825.617
 20
338.393
 30
0.000000
  70
    32
  0
VERTEX
  8
0
  5
43DC0
 10
825.318
 20
335.822
 30
0.000000
  70
    32
  0
VERTEX
  8
0
  5
43DC1
 10
825.089
 20
333.236
 30
0.000000
  70
    32
  0
VERTEX
  8
0
  5
43DC2
 10
824.933
 20
330.641
 30
0.000000
  70
    32
  0
VERTEX
  8
0
  5
43DC3
 10
824.848
 20
328.038
 30
0.000000
  70
    32
  0
VERTEX
  8
0
  5
43DC4
 10
824.835
 20
325.433
 30
0.000000
  70
    32
  0
VERTEX
  8
0
  5
43DC5
 10
824.894
 20
322.829
 30
0.000000
  70
    32
  0
VERTEX
  8
0
  5
43DC6
 10
825.026
 20
320.231
 30
0.000000
  70
    32
  0
VERTEX
  8
0
  5
43DC7
 10
825.228
 20
317.641
 30
0.000000
  70
    32
  0
VERTEX
  8
0
  5
43DC8
 10
825.503
 20
315.065
 30
0.000000
  70
    32
  0
VERTEX
  8
0
  5
43DC9
 10
825.848
 20
312.504
 30
0.000000
  70
    32
  0
VERTEX
  8
0
  5
43DCA
 10
826.264
 20
309.965
 30
0.000000
  70
    32
  0
VERTEX
  8
0
  5
43DCB
 10
826.750
 20
307.450
 30
0.000000
  70
    32
  0
VERTEX
  8
0
  5
43DCC
 10
827.304
 20
304.963
 30
0.000000
  70
    32
  0
VERTEX
  8
0
  5
43DCD
 10
827.928
 20
302.507
 30
0.000000
  70
    32
  0
VERTEX
  8
0
  5
43DCE
 10
828.618
 20
300.088
 30
0.000000
  70
    32
  0
VERTEX
  8
0
  5
43DCF
 10
829.375
 20
297.707
 30
0.000000
  70
    32
  0
VERTEX
  8
0
  5
43DD0
 10
830.197
 20
295.368
 30
0.000000
  70
    32
  0
VERTEX
  8
0
  5
43DD1
 10
831.084
 20
293.076
 30
0.000000
  70
    32
  0
VERTEX
  8
0
  5
43DD2
 10
832.033
 20
290.834
 30
0.000000
  70
    32
  0
VERTEX
  8
0
  5
43DD3
 10
833.043
 20
288.644
 30
0.000000
  70
    32
  0
VERTEX
  8
0
  5
43DD4
 10
834.113
 20
286.510
 30
0.000000
  70
    32
  0
VERTEX
  8
0
  5
43DD5
 10
835.241
 20
284.436
 30
0.000000
  70
    32
  0
VERTEX
  8
0
  5
43DD6
 10
836.425
 20
282.424
 30
0.000000
  70
    32
  0
VERTEX
  8
0
  5
43DD7
 10
837.665
 20
280.477
 30
0.000000
  70
    32
  0
VERTEX
  8
0
  5
43DD8
 10
838.957
 20
278.598
 30
0.000000
  70
    32
  0
VERTEX
  8
0
  5
43DD9
 10
840.300
 20
276.791
 30
0.000000
  70
    32
  0
VERTEX
  8
0
  5
43DDA
 10
841.692
 20
275.058
 30
0.000000
  70
    32
  0
VERTEX
  8
0
  5
43DDB
 10
843.131
 20
273.401
 30
0.000000
  70
    32
  0
SEQEND
  8
0
  5
43DDC
  0
LINE
  5
4394B
  8
0
 10
839.93139089936165
 20
269.88694496942338
 30
0.0
 11
843.13139089936055
 21
269.88694496942338
 31
0.0
  0
LINE
  5
4394C
  8
0
 10
821.63139089936067
 20
404.70817530267522
 30
0.0
 11
924.63139089936055
 21
404.70817530267522
 31
0.0
  0
LINE
  5
4394D
  8
0
 10
821.63139089936067
 20
412.40817530267498
 30
0.0
 11
924.63139089936055
 21
412.40817530267498
 31
0.0
  0
LINE
  5
4394E
  8
0
 10
903.13139089936055
 20
379.1469957451061
 30
0.0
 11
903.13139089936055
 21
265.70817530267499
 31
0.0
  0
LINE
  5
4394F
  8
0
 10
843.13139089936055
 20
265.70817530267499
 30
0.0
 11
843.13139089936055
 21
379.14699574510678
 31
0.0
  0
LINE
  5
43950
  8
0
 10
902.13139089936055
 20
265.70817530267499
 30
0.0
 11
906.33139089936128
 21
265.70817530267499
 31
0.0
  0
LINE
  5
43953
  8
0
 10
839.93139089936165
 20
265.70817530267499
 30
0.0
 11
844.13139089936055
 21
265.70817530267499
 31
0.0
  0
LINE
  5
43958
  8
0
 10
866.1683527195172
 20
393.0337309329571
 30
0.0
 11
880.09442907920402
 21
393.0337309329571
 31
0.0
  0
LINE
  5
4395A
  8
0
 10
857.55919314419725
 20
390.13595345408709
 30
0.0
 11
888.70358865452363
 21
390.13595345408709
 31
0.0
  0
LINE
  5
4395D
  8
0
 10
848.13139089936158
 20
383.67854617122703
 30
0.0
 11
898.13139089936158
 21
383.67854617122703
 31
0.0
  0
LINE
  5
4395F
  8
0
 10
878.83139089936128
 20
176.0081753026754
 30
0.0
 11
878.83139089936128
 21
375.40817530267532
 31
0.0
  0
LINE
  5
43961
  8
0
 10
876.43139089935994
 20
176.0081753026754
 30
0.0
 11
876.43139089935994
 21
375.40817530267532
 31
0.0
  0
LINE
  5
43963
  8
0
 10
867.43139089936165
 20
176.0081753026754
 30
0.0
 11
867.43139089936165
 21
375.40817530267532
 31
0.0
  0
LINE
  5
43965
  8
0
 10
869.83139089936128
 20
176.0081753026754
 30
0.0
 11
869.83139089936128
 21
375.40817530267532
 31
0.0
  0
LINE
  5
43967
  8
0
 10
887.91150530023424
 20
186.52950020432939
 30
0.0
 11
887.91150530023424
 21
364.88685040101723
 31
0.0
  0
LINE
  5
43969
  8
0
 10
858.35127649848698
 20
186.52950020432939
 30
0.0
 11
858.35127649848698
 21
364.88685040101723
 31
0.0
  0
LINE
  5
4396B
  8
0
 10
889.57817196690166
 20
188.4476481084854
 30
0.0
 11
889.578171966902
 21
362.96870249686532
 31
0.0
  0
LINE
  5
4396D
  8
0
 10
856.68460983182104
 20
188.44764810848571
 30
0.0
 11
856.68460983182104
 21
362.96870249686532
 31
0.0
  0
LINE
  5
4396F
  8
0
 10
891.24483863356772
 20
193.2879995712785
 30
0.0
 11
891.24483863356807
 21
358.1283510340723
 31
0.0
  0
LINE
  5
43971
  8
0
 10
855.01794316515497
 20
193.2879995712787
 30
0.0
 11
855.01794316515497
 21
358.1283510340723
 31
0.0
  0
LINE
  5
43973
  8
0
 10
898.13139089936067
 20
216.2102031299157
 30
0.0
 11
898.13139089936067
 21
335.20614747543141
 31
0.0
  0
LINE
  5
43975
  8
0
 10
848.13139089936067
 20
216.2102031299157
 30
0.0
 11
848.13139089936067
 21
335.20614747543141
 31
0.0
  0
LINE
  5
43978
  8
0
 10
902.13139089936055
 20
264.38665517965552
 30
0.0
 11
902.13139089936055
 21
287.02969542569491
 31
0.0
  0
LINE
  5
4397A
  8
0
 10
844.13139089936055
 20
264.38665517965552
 30
0.0
 11
844.13139089936055
 21
287.02969542569491
 31
0.0
  0
LINE
  5
43994
  8
0
 10
900.73602560997722
 20
262.89030910426641
 30
0.0
 11
900.73602560997722
 21
288.52604150108402
 31
0.0
  0
LINE
  5
43996
  8
0
 10
845.526756188744
 20
262.89030910426641
 30
0.0
 11
845.526756188744
 21
288.52604150108408
 31
0.0
  0
LINE
  5
43997
  8
0
 10
187.00529782520599
 20
285.2081753026755
 30
0.0
 11
186.871323228992
 21
284.70817530267527
 31
0.0
  0
LINE
  5
43998
  8
0
 10
186.871323228992
 20
266.70817530267527
 30
0.0
 11
187.00529782520599
 21
266.20817530267527
 31
0.0
  0
LINE
  5
43999
  8
0
 10
196.73734863277599
 20
266.20817530267527
 30
0.0
 11
196.87132322899191
 21
266.70817530267527
 31
0.0
  0
LINE
  5
4399A
  8
0
 10
196.87132322899191
 20
284.70817530267527
 30
0.0
 11
196.73734863277599
 21
285.2081753026755
 31
0.0
  0
LINE
  5
4399B
  8
0
 10
270.63734863277568
 20
266.20817530267527
 30
0.0
 11
270.7713232289916
 21
266.70817530267527
 31
0.0
  0
LINE
  5
4399C
  8
0
 10
270.7713232289916
 20
284.70817530267527
 30
0.0
 11
270.63734863277568
 21
285.2081753026755
 31
0.0
  0
LINE
  5
4399D
  8
0
 10
260.07132322899088
 20
285.7081753026751
 30
0.0
 11
259.07132322899088
 21
285.7081753026751
 31
0.0
  0
LINE
  5
4399E
  8
0
 10
201.07132322899091
 20
285.7081753026751
 30
0.0
 11
200.07132322899091
 21
285.7081753026751
 31
0.0
  0
LINE
  5
439A3
  8
0
 10
178.57132322899079
 20
404.70817530267522
 30
0.0
 11
178.57132322899079
 21
326.27374826977211
 31
0.0
  0
LINE
  5
439A4
  8
0
 10
281.57132322899088
 20
326.27374826977189
 30
0.0
 11
281.57132322899088
 21
404.70817530267522
 31
0.0
  0
LINE
  5
439A5
  8
0
 10
178.57132322899079
 20
412.40817530267498
 30
0.0
 11
179.9290409804434
 21
404.70817530267522
 31
0.0
  0
LINE
  5
439A6
  8
0
 10
280.21360547753648
 20
404.70817530267522
 30
0.0
 11
281.57132322899088
 21
412.40817530267498
 31
0.0
  0
LINE
  5
439A7
  8
0
 10
183.57132322899091
 20
413.20817530267499
 30
0.0
 11
183.57132322899091
 21
412.40817530267498
 31
0.0
  0
LINE
  5
439A8
  8
0
 10
276.57132322899088
 20
412.40817530267498
 30
0.0
 11
276.57132322899088
 21
413.20817530267499
 31
0.0
  0
ARC
  5
439A9
  8
0
 10
219.55772082847579
 20
374.70817530267249
 30
0.0
 40
1.000000000002643
 50
90.000000000065128
 51
160.99999999990311
  0
ARC
  5
439AA
  8
0
 10
219.55772082847579
 20
176.70817530267769
 30
0.0
 40
1.00000000000252
 50
199.000000000092
 51
269.99999999993491
  0
LINE
  5
439AB
  8
0
 10
224.07132322899091
 20
375.70817530267527
 30
0.0
 11
219.557720828474
 21
375.70817530267527
 31
0.0
  0
LINE
  5
439AC
  8
0
 10
219.557720828474
 20
175.7081753026753
 30
0.0
 11
224.07132322899091
 21
175.7081753026753
 31
0.0
  0
ARC
  5
439AD
  8
0
 10
224.07132322899091
 20
375.40817530267532
 30
0.0
 40
0.3000000000000114
 50
0.0
 51
90.0
  0
ARC
  5
439AE
  8
0
 10
224.07132322899091
 20
176.0081753026754
 30
0.0
 40
0.2999999999998692
 50
270.0
 51
0.0
  0
LINE
  5
439AF
  8
0
 10
233.0713232289927
 20
375.70817530267527
 30
0.0
 11
227.07132322899091
 21
375.70817530267527
 31
0.0
  0
LINE
  5
439B0
  8
0
 10
227.07132322899091
 20
175.7081753026753
 30
0.0
 11
233.0713232289927
 21
175.7081753026753
 31
0.0
  0
ARC
  5
439B1
  8
0
 10
227.07132322899091
 20
375.40817530267532
 30
0.0
 40
0.2999999999998692
 50
89.99999999996092
 51
180.00000000002601
  0
ARC
  5
439B2
  8
0
 10
227.07132322899091
 20
176.0081753026754
 30
0.0
 40
0.2999999999998692
 50
180.0
 51
270.00000000001302
  0
ARC
  5
439B3
  8
0
 10
236.07132322899091
 20
375.40817530267532
 30
0.0
 40
0.2999999999998692
 50
89.99999999996092
 51
180.00000000002601
  0
ARC
  5
439B4
  8
0
 10
236.07132322899091
 20
176.0081753026754
 30
0.0
 40
0.2999999999998692
 50
180.0
 51
270.00000000001302
  0
ARC
  5
439B5
  8
0
 10
233.0713232289927
 20
375.40817530267532
 30
0.0
 40
0.3000000000000114
 50
0.0
 51
90.0
  0
ARC
  5
439B6
  8
0
 10
233.0713232289927
 20
176.0081753026754
 30
0.0
 40
0.3000000000000114
 50
270.0
 51
0.0
  0
LINE
  5
439B7
  8
0
 10
240.58492562950781
 20
375.70817530267527
 30
0.0
 11
236.07132322899091
 21
375.70817530267527
 31
0.0
  0
LINE
  5
439B8
  8
0
 10
236.07132322899091
 20
175.7081753026753
 30
0.0
 11
240.58492562950781
 21
175.7081753026753
 31
0.0
  0
ARC
  5
439B9
  8
0
 10
240.58492562950599
 20
374.70817530267249
 30
0.0
 40
1.0000000000027001
 50
19.000000000096861
 51
89.999999999934857
  0
ARC
  5
439BA
  8
0
 10
240.58492562950599
 20
176.70817530267769
 30
0.0
 40
1.0000000000026541
 50
270.0000000000652
 51
340.99999999991343
  0
LINE
  5
439BB
  8
0
 10
226.77132322898979
 20
375.40817530267532
 30
0.0
 11
224.37132322899021
 21
375.40817530267532
 31
0.0
  0
LINE
  5
439BC
  8
0
 10
224.37132322899021
 20
176.0081753026754
 30
0.0
 11
226.77132322898979
 21
176.0081753026754
 31
0.0
  0
LINE
  5
439BD
  8
0
 10
235.7713232289916
 20
375.40817530267532
 30
0.0
 11
233.371323228992
 21
375.40817530267532
 31
0.0
  0
LINE
  5
439BE
  8
0
 10
233.371323228992
 20
176.0081753026754
 30
0.0
 11
235.7713232289916
 21
176.0081753026754
 31
0.0
  0
LINE
  5
439BF
  8
0
 10
218.61220225287619
 20
375.03374345713218
 30
0.0
 11
215.45465310132019
 21
365.86355486438828
 31
0.0
  0
LINE
  5
439C0
  8
0
 10
215.45465310132019
 20
185.55279574096241
 30
0.0
 11
218.61220225287619
 21
176.38260714821851
 31
0.0
  0
LINE
  5
439C1
  8
0
 10
241.53044420510739
 20
176.38260714821851
 30
0.0
 11
244.68799335666341
 21
185.55279574096241
 31
0.0
  0
LINE
  5
439C2
  8
0
 10
244.68799335666341
 20
365.86355486438828
 30
0.0
 11
241.53044420510739
 21
375.03374345713218
 31
0.0
  0
ARC
  5
439C3
  8
0
 10
218.29120882809369
 20
364.88685040102092
 30
0.0
 40
2.9999999999751021
 50
160.99999999992599
 51
180.00000000003911
  0
ARC
  5
439C4
  8
0
 10
218.29120882809369
 20
186.52950020432939
 30
0.0
 40
2.9999999999751021
 50
179.99999999996089
 51
199.0000000000739
  0
ARC
  5
439C5
  8
0
 10
241.8514376298881
 20
364.88685040102092
 30
0.0
 40
2.999999999975016
 50
359.99999999996089
 51
19.000000000073971
  0
ARC
  5
439C6
  8
0
 10
241.8514376298881
 20
186.52950020432939
 30
0.0
 40
2.999999999975016
 50
340.99999999992599
 51
0.0000000000390827
  0
ARC
  5
439C7
  8
0
 10
214.45787549478521
 20
362.96870249686498
 30
0.0
 40
0.8333333333335701
 50
0.0000000000195413
 51
179.99999999998039
  0
ARC
  5
439C8
  8
0
 10
214.45787549478521
 20
188.44764810848571
 30
0.0
 40
0.8333333333335701
 50
180.0000000000195
 51
359.9999999999805
  0
ARC
  5
439C9
  8
0
 10
245.6847709631966
 20
362.96870249686498
 30
0.0
 40
0.8333333333335701
 50
0.0000000000195413
 51
179.99999999998039
  0
ARC
  5
439CA
  8
0
 10
245.6847709631966
 20
188.44764810848571
 30
0.0
 40
0.8333333333335701
 50
180.0000000000195
 51
359.9999999999805
  0
ARC
  5
439CB
  8
0
 10
212.79120882811731
 20
358.1283510340715
 30
0.0
 40
0.8333333333335701
 50
0.0000000000195413
 51
179.99999999998039
  0
ARC
  5
439CC
  8
0
 10
212.79120882811731
 20
193.2879995712787
 30
0.0
 40
0.8333333333335701
 50
180.0000000000195
 51
359.9999999999805
  0
ARC
  5
439CD
  8
0
 10
247.35143762986439
 20
358.1283510340715
 30
0.0
 40
0.8333333333335701
 50
0.0000000000195413
 51
179.99999999998039
  0
ARC
  5
439CE
  8
0
 10
247.35143762986439
 20
193.2879995712787
 30
0.0
 40
0.8333333333335701
 50
180.0000000000195
 51
359.9999999999805
  0
LINE
  5
439CF
  8
0
 10
211.95787549478339
 20
355.70817530267527
 30
0.0
 11
205.234767502192
 21
336.18285193880251
 31
0.0
  0
LINE
  5
439D0
  8
0
 10
205.234767502192
 20
215.23349866654829
 30
0.0
 11
211.95787549478339
 21
195.70817530267499
 31
0.0
  0
LINE
  5
439D1
  8
0
 10
248.18477096319839
 20
195.70817530267499
 30
0.0
 11
254.90787895578981
 21
215.23349866654829
 31
0.0
  0
LINE
  5
439D2
  8
0
 10
254.90787895578981
 20
336.18285193880251
 30
0.0
 11
248.18477096319839
 21
355.70817530267527
 31
0.0
  0
ARC
  5
439D3
  8
0
 10
208.0713232289672
 20
335.20614747543499
 30
0.0
 40
2.9999999999752438
 50
160.99999999992579
 51
180.00000000003911
  0
ARC
  5
439D4
  8
0
 10
208.0713232289672
 20
216.2102031299157
 30
0.0
 40
2.9999999999752438
 50
179.9999999999641
 51
199.0000000000741
  0
ARC
  5
439D5
  8
0
 10
252.07132322901629
 20
335.20614747543499
 30
0.0
 40
2.9999999999750631
 50
359.99999999996089
 51
19.00000000007417
  0
ARC
  5
439D6
  8
0
 10
252.07132322901629
 20
216.2102031299157
 30
0.0
 40
2.9999999999750631
 50
340.99999999992582
 51
0.0000000000358258
  0
LINE
  5
439D7
  8
0
 10
205.07132322899091
 20
288.70817530267482
 30
0.0
 11
202.466688518376
 21
288.52604150108391
 31
0.0
  0
LINE
  5
439D8
  8
0
 10
202.466688518376
 20
262.89030910426641
 30
0.0
 11
205.07132322899091
 21
262.7081753026755
 31
0.0
  0
LINE
  5
439D9
  8
0
 10
255.07132322899091
 20
262.7081753026755
 30
0.0
 11
257.6759579396076
 21
262.89030910426641
 31
0.0
  0
LINE
  5
439DA
  8
0
 10
257.6759579396076
 20
288.52604150108391
 30
0.0
 11
255.07132322899091
 21
288.70817530267482
 31
0.0
  0
ARC
  5
439DB
  8
0
 10
202.57132322899091
 20
287.02969542569491
 30
0.0
 40
1.4999999999996301
 50
93.999999999996476
 51
180.0
  0
ARC
  5
439DC
  8
0
 10
202.57132322899091
 20
264.38665517965552
 30
0.0
 40
1.4999999999996301
 50
180.0
 51
266.00000000000352
  0
ARC
  5
439DD
  8
0
 10
257.5713232289927
 20
287.02969542569491
 30
0.0
 40
1.4999999999994009
 50
0.0
 51
86.00000000000351
  0
ARC
  5
439DE
  8
0
 10
257.5713232289927
 20
264.38665517965552
 30
0.0
 40
1.4999999999994009
 50
273.99999999999648
 51
0.0
  0
LINE
  5
439DF
  8
0
 10
187.39909072631781
 20
275.7081753026751
 30
0.0
 11
196.3435557316661
 21
275.7081753026751
 31
0.0
  0
ARC
  5
439E0
  8
0
 10
216.11636131146039
 20
280.45817530267527
 30
0.0
 40
29.10745832016843
 50
170.6079880236739
 51
189.39201197632909
  0
LINE
  5
439E1
  8
0
 10
187.39909072631781
 20
285.2081753026755
 30
0.0
 11
196.3435557316661
 21
285.2081753026755
 31
0.0
  0
ARC
  5
439E2
  8
0
 10
167.62324901248391
 20
280.45817530267527
 30
0.0
 40
29.110453758811559
 50
350.60896320173953
 51
9.3910367982604672
  0
LINE
  5
439E3
  8
0
 10
186.871323228992
 20
266.70817530267527
 30
0.0
 11
186.871323228992
 21
284.70817530267527
 31
0.0
  0
LINE
  5
439E4
  8
0
 10
187.04595680473901
 20
285.2081753026755
 30
0.0
 11
187.39909072631781
 21
285.2081753026755
 31
0.0
  0
ARC
  5
439E5
  8
0
 10
216.4288567500607
 20
270.95817530267527
 30
0.0
 40
29.415808936578269
 50
170.70731679463179
 51
189.29268320536801
  0
LINE
  5
439E6
  8
0
 10
187.39909072631781
 20
266.20817530267527
 30
0.0
 11
187.04187337109579
 21
266.20817530267527
 31
0.0
  0
LINE
  5
439E7
  8
0
 10
187.39909072631781
 20
266.20817530267527
 30
0.0
 11
196.3435557316661
 21
266.20817530267527
 31
0.0
  0
ARC
  5
439E8
  8
0
 10
167.3092192160475
 20
270.95817530267527
 30
0.0
 40
29.420319456153631
 50
350.70875410647358
 51
9.2912458935262894
  0
LINE
  5
439E9
  8
0
 10
196.69668965324311
 20
266.20817530267527
 30
0.0
 11
196.3435557316661
 21
266.20817530267527
 31
0.0
  0
LINE
  5
439EA
  8
0
 10
196.3435557316661
 20
285.2081753026755
 30
0.0
 11
196.7007730868863
 21
285.2081753026755
 31
0.0
  0
ARC
  5
439EB
  8
0
 10
241.52628514651769
 20
280.45817530267527
 30
0.0
 40
29.10745832017362
 50
350.60798802367401
 51
9.392011976325886
  0
LINE
  5
439EC
  8
0
 10
263.2713232289916
 20
275.7081753026751
 30
0.0
 11
270.24355573166582
 21
275.7081753026751
 31
0.0
  0
LINE
  5
439ED
  8
0
 10
263.2713232289916
 20
285.2081753026755
 30
0.0
 11
270.24355573166582
 21
285.2081753026755
 31
0.0
  0
ARC
  5
439EE
  8
0
 10
241.2137897079229
 20
270.95817530267527
 30
0.0
 40
29.415808936577271
 50
350.70731679463188
 51
9.2926832053680943
  0
LINE
  5
439EF
  8
0
 10
263.2713232289916
 20
266.20817530267527
 30
0.0
 11
270.24355573166582
 21
266.20817530267527
 31
0.0
  0
LINE
  5
439F0
  8
0
 10
270.7713232289916
 20
284.70817530267527
 30
0.0
 11
270.7713232289916
 21
266.70817530267527
 31
0.0
  0
LINE
  5
439F1
  8
0
 10
270.24355573166582
 20
266.20817530267527
 30
0.0
 11
270.60077308688778
 21
266.20817530267527
 31
0.0
  0
LINE
  5
439F2
  8
0
 10
270.59668965324272
 20
285.2081753026755
 30
0.0
 11
270.24355573166582
 21
285.2081753026755
 31
0.0
  0
LINE
  5
439FF
  8
0
 10
263.2713232289916
 20
388.50817530267551
 30
0.0
 11
255.0713232289911
 21
388.50817530267528
 31
0.0
  0
LINE
  5
43A00
  8
0
 10
205.07132322899091
 20
388.50817530267528
 30
0.0
 11
196.87132322899191
 21
388.50817530267551
 31
0.0
  0
LINE
  5
43A02
  8
0
 10
263.2713232289916
 20
401.5081753026754
 30
0.0
 11
196.87132322899191
 21
401.5081753026754
 31
0.0
  0
LINE
  5
43A03
  8
0
 10
205.0713232289911
 20
386.57632365009709
 30
0.0
 11
198.87132322899191
 21
386.57632365009709
 31
0.0
  0
LINE
  5
43A04
  8
0
 10
198.87132322899191
 20
386.57632365009709
 30
0.0
 11
198.87132322899191
 21
375.50817530267523
 31
0.0
  0
LINE
  5
43A05
  8
0
 10
200.07132322899091
 20
375.50817530267523
 30
0.0
 11
196.87132322899191
 21
375.50817530267523
 31
0.0
  0
LINE
  5
43A08
  8
0
 10
263.2713232289916
 20
375.50817530267523
 30
0.0
 11
260.07132322899071
 21
375.50817530267523
 31
0.0
  0
LINE
  5
43A09
  8
0
 10
261.2713232289916
 20
386.57632365009709
 30
0.0
 11
261.2713232289916
 21
375.50817530267523
 31
0.0
  0
LINE
  5
43A0A
  8
0
 10
261.2713232289916
 20
386.57632365009709
 30
0.0
 11
255.07132322899091
 21
386.57632365009709
 31
0.0
  0
LINE
  5
43A0B
  8
0
 10
200.07132322899091
 20
276.90057106713238
 30
0.0
 11
196.87132322899191
 21
276.90057106713238
 31
0.0
  0
LINE
  5
43A0D
  8
0
 10
201.07132322899091
 20
265.70817530267499
 30
0.0
 11
196.87132322899191
 21
265.70817530267499
 31
0.0
  0
LINE
  5
43A0F
  8
0
 10
263.2713232289916
 20
265.70817530267499
 30
0.0
 11
259.07132322899088
 21
265.70817530267499
 31
0.0
  0
LINE
  5
43A11
  8
0
 10
263.2713232289916
 20
276.90057106713238
 30
0.0
 11
260.07132322899088
 21
276.90057106713238
 31
0.0
  0
LINE
  5
43A14
  8
0
 10
200.07132322899091
 20
265.70817530267499
 30
0.0
 11
200.07132322899091
 21
386.57632365009709
 31
0.0
  0
LINE
  5
43A15
  8
0
 10
196.87132322899191
 20
401.5081753026754
 30
0.0
 11
196.87132322899191
 21
265.70817530267499
 31
0.0
  0
LINE
  5
43A17
  8
0
 10
260.07132322899071
 20
386.57632365009709
 30
0.0
 11
260.07132322899071
 21
265.70817530267499
 31
0.0
  0
LINE
  5
43A18
  8
0
 10
263.2713232289916
 20
401.5081753026754
 30
0.0
 11
263.2713232289916
 21
265.70817530267499
 31
0.0
  0
LINE
  5
43A1B
  8
0
 10
175.07132322899091
 20
413.20817530267499
 30
0.0
 11
175.07132322899091
 21
415.70817530267499
 31
0.0
  0
LINE
  5
43A20
  8
0
 10
285.07132322899088
 20
413.20817530267499
 30
0.0
 11
285.07132322899088
 21
415.70817530267499
 31
0.0
  0
LINE
  5
43A21
  8
0
 10
175.07132322899091
 20
415.70817530267499
 30
0.0
 11
285.07132322899088
 21
415.70817530267499
 31
0.0
  0
LINE
  5
43A22
  8
0
 10
175.07132322899091
 20
413.20817530267499
 30
0.0
 11
285.07132322899088
 21
413.20817530267499
 31
0.0
  0
POLYLINE
  5
43A25
  8
0
 10
178.57132322899099
 20
326.27374826977223
 30
0.0
 66
     1
 70
     8
  0
VERTEX
  8
0
  5
43DDD
 10
178.571
 20
326.274
 30
0.000000
  70
    32
  0
VERTEX
  8
0
  5
43DDE
 10
178.572
 20
325.932
 30
0.000000
  70
    32
  0
VERTEX
  8
0
  5
43DDF
 10
178.574
 20
325.591
 30
0.000000
  70
    32
  0
VERTEX
  8
0
  5
43DE0
 10
178.577
 20
325.249
 30
0.000000
  70
    32
  0
VERTEX
  8
0
  5
43DE1
 10
178.581
 20
324.908
 30
0.000000
  70
    32
  0
VERTEX
  8
0
  5
43DE2
 10
178.586
 20
324.567
 30
0.000000
  70
    32
  0
VERTEX
  8
0
  5
43DE3
 10
178.592
 20
324.225
 30
0.000000
  70
    32
  0
VERTEX
  8
0
  5
43DE4
 10
178.600
 20
323.884
 30
0.000000
  70
    32
  0
VERTEX
  8
0
  5
43DE5
 10
178.608
 20
323.543
 30
0.000000
  70
    32
  0
VERTEX
  8
0
  5
43DE6
 10
178.618
 20
323.202
 30
0.000000
  70
    32
  0
VERTEX
  8
0
  5
43DE7
 10
178.629
 20
322.861
 30
0.000000
  70
    32
  0
VERTEX
  8
0
  5
43DE8
 10
178.642
 20
322.520
 30
0.000000
  70
    32
  0
VERTEX
  8
0
  5
43DE9
 10
178.655
 20
322.179
 30
0.000000
  70
    32
  0
VERTEX
  8
0
  5
43DEA
 10
178.669
 20
321.838
 30
0.000000
  70
    32
  0
VERTEX
  8
0
  5
43DEB
 10
178.685
 20
321.497
 30
0.000000
  70
    32
  0
VERTEX
  8
0
  5
43DEC
 10
178.702
 20
321.156
 30
0.000000
  70
    32
  0
VERTEX
  8
0
  5
43DED
 10
178.720
 20
320.816
 30
0.000000
  70
    32
  0
VERTEX
  8
0
  5
43DEE
 10
178.739
 20
320.475
 30
0.000000
  70
    32
  0
VERTEX
  8
0
  5
43DEF
 10
178.759
 20
320.135
 30
0.000000
  70
    32
  0
VERTEX
  8
0
  5
43DF0
 10
178.781
 20
319.795
 30
0.000000
  70
    32
  0
VERTEX
  8
0
  5
43DF1
 10
178.803
 20
319.455
 30
0.000000
  70
    32
  0
VERTEX
  8
0
  5
43DF2
 10
178.827
 20
319.115
 30
0.000000
  70
    32
  0
VERTEX
  8
0
  5
43DF3
 10
178.852
 20
318.776
 30
0.000000
  70
    32
  0
VERTEX
  8
0
  5
43DF4
 10
178.878
 20
318.436
 30
0.000000
  70
    32
  0
VERTEX
  8
0
  5
43DF5
 10
178.905
 20
318.097
 30
0.000000
  70
    32
  0
VERTEX
  8
0
  5
43DF6
 10
178.934
 20
317.758
 30
0.000000
  70
    32
  0
VERTEX
  8
0
  5
43DF7
 10
178.963
 20
317.419
 30
0.000000
  70
    32
  0
VERTEX
  8
0
  5
43DF8
 10
178.994
 20
317.080
 30
0.000000
  70
    32
  0
VERTEX
  8
0
  5
43DF9
 10
179.026
 20
316.741
 30
0.000000
  70
    32
  0
VERTEX
  8
0
  5
43DFA
 10
179.058
 20
316.403
 30
0.000000
  70
    32
  0
VERTEX
  8
0
  5
43DFB
 10
179.093
 20
316.065
 30
0.000000
  70
    32
  0
VERTEX
  8
0
  5
43DFC
 10
179.128
 20
315.727
 30
0.000000
  70
    32
  0
VERTEX
  8
0
  5
43DFD
 10
179.164
 20
315.389
 30
0.000000
  70
    32
  0
VERTEX
  8
0
  5
43DFE
 10
179.202
 20
315.052
 30
0.000000
  70
    32
  0
VERTEX
  8
0
  5
43DFF
 10
179.241
 20
314.715
 30
0.000000
  70
    32
  0
VERTEX
  8
0
  5
43E00
 10
179.280
 20
314.378
 30
0.000000
  70
    32
  0
VERTEX
  8
0
  5
43E01
 10
179.321
 20
314.041
 30
0.000000
  70
    32
  0
VERTEX
  8
0
  5
43E02
 10
179.364
 20
313.705
 30
0.000000
  70
    32
  0
VERTEX
  8
0
  5
43E03
 10
179.407
 20
313.369
 30
0.000000
  70
    32
  0
VERTEX
  8
0
  5
43E04
 10
179.451
 20
313.033
 30
0.000000
  70
    32
  0
VERTEX
  8
0
  5
43E05
 10
179.497
 20
312.698
 30
0.000000
  70
    32
  0
VERTEX
  8
0
  5
43E06
 10
179.544
 20
312.363
 30
0.000000
  70
    32
  0
VERTEX
  8
0
  5
43E07
 10
179.591
 20
312.028
 30
0.000000
  70
    32
  0
VERTEX
  8
0
  5
43E08
 10
179.640
 20
311.693
 30
0.000000
  70
    32
  0
VERTEX
  8
0
  5
43E09
 10
179.690
 20
311.359
 30
0.000000
  70
    32
  0
VERTEX
  8
0
  5
43E0A
 10
179.742
 20
311.025
 30
0.000000
  70
    32
  0
VERTEX
  8
0
  5
43E0B
 10
179.794
 20
310.692
 30
0.000000
  70
    32
  0
VERTEX
  8
0
  5
43E0C
 10
179.848
 20
310.358
 30
0.000000
  70
    32
  0
VERTEX
  8
0
  5
43E0D
 10
179.902
 20
310.026
 30
0.000000
  70
    32
  0
VERTEX
  8
0
  5
43E0E
 10
179.958
 20
309.693
 30
0.000000
  70
    32
  0
VERTEX
  8
0
  5
43E0F
 10
180.015
 20
309.361
 30
0.000000
  70
    32
  0
VERTEX
  8
0
  5
43E10
 10
180.073
 20
309.030
 30
0.000000
  70
    32
  0
VERTEX
  8
0
  5
43E11
 10
180.132
 20
308.698
 30
0.000000
  70
    32
  0
VERTEX
  8
0
  5
43E12
 10
180.192
 20
308.367
 30
0.000000
  70
    32
  0
VERTEX
  8
0
  5
43E13
 10
180.254
 20
308.037
 30
0.000000
  70
    32
  0
VERTEX
  8
0
  5
43E14
 10
180.316
 20
307.707
 30
0.000000
  70
    32
  0
VERTEX
  8
0
  5
43E15
 10
180.380
 20
307.377
 30
0.000000
  70
    32
  0
VERTEX
  8
0
  5
43E16
 10
180.445
 20
307.048
 30
0.000000
  70
    32
  0
VERTEX
  8
0
  5
43E17
 10
180.511
 20
306.719
 30
0.000000
  70
    32
  0
VERTEX
  8
0
  5
43E18
 10
180.578
 20
306.391
 30
0.000000
  70
    32
  0
VERTEX
  8
0
  5
43E19
 10
180.646
 20
306.063
 30
0.000000
  70
    32
  0
VERTEX
  8
0
  5
43E1A
 10
180.715
 20
305.735
 30
0.000000
  70
    32
  0
VERTEX
  8
0
  5
43E1B
 10
180.785
 20
305.408
 30
0.000000
  70
    32
  0
VERTEX
  8
0
  5
43E1C
 10
180.857
 20
305.082
 30
0.000000
  70
    32
  0
VERTEX
  8
0
  5
43E1D
 10
180.929
 20
304.756
 30
0.000000
  70
    32
  0
VERTEX
  8
0
  5
43E1E
 10
181.003
 20
304.430
 30
0.000000
  70
    32
  0
VERTEX
  8
0
  5
43E1F
 10
181.078
 20
304.105
 30
0.000000
  70
    32
  0
VERTEX
  8
0
  5
43E20
 10
181.154
 20
303.780
 30
0.000000
  70
    32
  0
VERTEX
  8
0
  5
43E21
 10
181.231
 20
303.456
 30
0.000000
  70
    32
  0
VERTEX
  8
0
  5
43E22
 10
181.309
 20
303.133
 30
0.000000
  70
    32
  0
VERTEX
  8
0
  5
43E23
 10
181.388
 20
302.810
 30
0.000000
  70
    32
  0
VERTEX
  8
0
  5
43E24
 10
181.468
 20
302.487
 30
0.000000
  70
    32
  0
VERTEX
  8
0
  5
43E25
 10
181.550
 20
302.165
 30
0.000000
  70
    32
  0
VERTEX
  8
0
  5
43E26
 10
181.632
 20
301.844
 30
0.000000
  70
    32
  0
VERTEX
  8
0
  5
43E27
 10
181.716
 20
301.523
 30
0.000000
  70
    32
  0
VERTEX
  8
0
  5
43E28
 10
181.800
 20
301.203
 30
0.000000
  70
    32
  0
VERTEX
  8
0
  5
43E29
 10
181.886
 20
300.883
 30
0.000000
  70
    32
  0
VERTEX
  8
0
  5
43E2A
 10
181.973
 20
300.564
 30
0.000000
  70
    32
  0
VERTEX
  8
0
  5
43E2B
 10
182.061
 20
300.245
 30
0.000000
  70
    32
  0
VERTEX
  8
0
  5
43E2C
 10
182.150
 20
299.927
 30
0.000000
  70
    32
  0
VERTEX
  8
0
  5
43E2D
 10
182.240
 20
299.610
 30
0.000000
  70
    32
  0
VERTEX
  8
0
  5
43E2E
 10
182.331
 20
299.293
 30
0.000000
  70
    32
  0
VERTEX
  8
0
  5
43E2F
 10
182.423
 20
298.977
 30
0.000000
  70
    32
  0
VERTEX
  8
0
  5
43E30
 10
182.517
 20
298.661
 30
0.000000
  70
    32
  0
VERTEX
  8
0
  5
43E31
 10
182.611
 20
298.346
 30
0.000000
  70
    32
  0
VERTEX
  8
0
  5
43E32
 10
182.706
 20
298.032
 30
0.000000
  70
    32
  0
VERTEX
  8
0
  5
43E33
 10
182.803
 20
297.718
 30
0.000000
  70
    32
  0
VERTEX
  8
0
  5
43E34
 10
182.901
 20
297.405
 30
0.000000
  70
    32
  0
VERTEX
  8
0
  5
43E35
 10
182.999
 20
297.093
 30
0.000000
  70
    32
  0
VERTEX
  8
0
  5
43E36
 10
183.099
 20
296.781
 30
0.000000
  70
    32
  0
VERTEX
  8
0
  5
43E37
 10
183.200
 20
296.470
 30
0.000000
  70
    32
  0
VERTEX
  8
0
  5
43E38
 10
183.301
 20
296.159
 30
0.000000
  70
    32
  0
VERTEX
  8
0
  5
43E39
 10
183.404
 20
295.850
 30
0.000000
  70
    32
  0
VERTEX
  8
0
  5
43E3A
 10
183.508
 20
295.540
 30
0.000000
  70
    32
  0
VERTEX
  8
0
  5
43E3B
 10
183.613
 20
295.232
 30
0.000000
  70
    32
  0
VERTEX
  8
0
  5
43E3C
 10
183.719
 20
294.924
 30
0.000000
  70
    32
  0
VERTEX
  8
0
  5
43E3D
 10
183.826
 20
294.617
 30
0.000000
  70
    32
  0
VERTEX
  8
0
  5
43E3E
 10
183.934
 20
294.311
 30
0.000000
  70
    32
  0
VERTEX
  8
0
  5
43E3F
 10
184.043
 20
294.006
 30
0.000000
  70
    32
  0
VERTEX
  8
0
  5
43E40
 10
184.154
 20
293.701
 30
0.000000
  70
    32
  0
VERTEX
  8
0
  5
43E41
 10
184.265
 20
293.397
 30
0.000000
  70
    32
  0
VERTEX
  8
0
  5
43E42
 10
184.377
 20
293.093
 30
0.000000
  70
    32
  0
VERTEX
  8
0
  5
43E43
 10
184.490
 20
292.791
 30
0.000000
  70
    32
  0
VERTEX
  8
0
  5
43E44
 10
184.605
 20
292.489
 30
0.000000
  70
    32
  0
VERTEX
  8
0
  5
43E45
 10
184.720
 20
292.188
 30
0.000000
  70
    32
  0
VERTEX
  8
0
  5
43E46
 10
184.836
 20
291.888
 30
0.000000
  70
    32
  0
VERTEX
  8
0
  5
43E47
 10
184.954
 20
291.588
 30
0.000000
  70
    32
  0
VERTEX
  8
0
  5
43E48
 10
185.072
 20
291.289
 30
0.000000
  70
    32
  0
VERTEX
  8
0
  5
43E49
 10
185.191
 20
290.991
 30
0.000000
  70
    32
  0
VERTEX
  8
0
  5
43E4A
 10
185.312
 20
290.694
 30
0.000000
  70
    32
  0
VERTEX
  8
0
  5
43E4B
 10
185.433
 20
290.398
 30
0.000000
  70
    32
  0
VERTEX
  8
0
  5
43E4C
 10
185.556
 20
290.102
 30
0.000000
  70
    32
  0
VERTEX
  8
0
  5
43E4D
 10
185.679
 20
289.808
 30
0.000000
  70
    32
  0
VERTEX
  8
0
  5
43E4E
 10
185.804
 20
289.514
 30
0.000000
  70
    32
  0
VERTEX
  8
0
  5
43E4F
 10
185.929
 20
289.221
 30
0.000000
  70
    32
  0
VERTEX
  8
0
  5
43E50
 10
186.055
 20
288.928
 30
0.000000
  70
    32
  0
VERTEX
  8
0
  5
43E51
 10
186.183
 20
288.637
 30
0.000000
  70
    32
  0
VERTEX
  8
0
  5
43E52
 10
186.311
 20
288.346
 30
0.000000
  70
    32
  0
VERTEX
  8
0
  5
43E53
 10
186.441
 20
288.057
 30
0.000000
  70
    32
  0
VERTEX
  8
0
  5
43E54
 10
186.571
 20
287.768
 30
0.000000
  70
    32
  0
VERTEX
  8
0
  5
43E55
 10
186.702
 20
287.480
 30
0.000000
  70
    32
  0
VERTEX
  8
0
  5
43E56
 10
186.835
 20
287.193
 30
0.000000
  70
    32
  0
VERTEX
  8
0
  5
43E57
 10
186.968
 20
286.907
 30
0.000000
  70
    32
  0
VERTEX
  8
0
  5
43E58
 10
187.102
 20
286.621
 30
0.000000
  70
    32
  0
VERTEX
  8
0
  5
43E59
 10
187.237
 20
286.337
 30
0.000000
  70
    32
  0
VERTEX
  8
0
  5
43E5A
 10
187.374
 20
286.053
 30
0.000000
  70
    32
  0
VERTEX
  8
0
  5
43E5B
 10
187.511
 20
285.771
 30
0.000000
  70
    32
  0
VERTEX
  8
0
  5
43E5C
 10
187.649
 20
285.489
 30
0.000000
  70
    32
  0
VERTEX
  8
0
  5
43E5D
 10
187.788
 20
285.208
 30
0.000000
  70
    32
  0
SEQEND
  8
0
  5
43E5E
  0
POLYLINE
  5
43A26
  8
0
 10
270.77132322899132
 20
282.197268877135
 30
0.0
 66
     1
 70
     8
  0
VERTEX
  8
0
  5
43E5F
 10
270.771
 20
282.197
 30
0.000000
  70
    32
  0
VERTEX
  8
0
  5
43E60
 10
270.933
 20
282.491
 30
0.000000
  70
    32
  0
VERTEX
  8
0
  5
43E61
 10
271.094
 20
282.785
 30
0.000000
  70
    32
  0
VERTEX
  8
0
  5
43E62
 10
271.254
 20
283.081
 30
0.000000
  70
    32
  0
VERTEX
  8
0
  5
43E63
 10
271.413
 20
283.378
 30
0.000000
  70
    32
  0
VERTEX
  8
0
  5
43E64
 10
271.571
 20
283.676
 30
0.000000
  70
    32
  0
VERTEX
  8
0
  5
43E65
 10
271.727
 20
283.976
 30
0.000000
  70
    32
  0
VERTEX
  8
0
  5
43E66
 10
271.883
 20
284.276
 30
0.000000
  70
    32
  0
VERTEX
  8
0
  5
43E67
 10
272.037
 20
284.577
 30
0.000000
  70
    32
  0
VERTEX
  8
0
  5
43E68
 10
272.190
 20
284.880
 30
0.000000
  70
    32
  0
VERTEX
  8
0
  5
43E69
 10
272.342
 20
285.184
 30
0.000000
  70
    32
  0
VERTEX
  8
0
  5
43E6A
 10
272.493
 20
285.488
 30
0.000000
  70
    32
  0
VERTEX
  8
0
  5
43E6B
 10
272.643
 20
285.794
 30
0.000000
  70
    32
  0
VERTEX
  8
0
  5
43E6C
 10
272.792
 20
286.101
 30
0.000000
  70
    32
  0
VERTEX
  8
0
  5
43E6D
 10
272.940
 20
286.409
 30
0.000000
  70
    32
  0
VERTEX
  8
0
  5
43E6E
 10
273.086
 20
286.718
 30
0.000000
  70
    32
  0
VERTEX
  8
0
  5
43E6F
 10
273.232
 20
287.028
 30
0.000000
  70
    32
  0
VERTEX
  8
0
  5
43E70
 10
273.376
 20
287.339
 30
0.000000
  70
    32
  0
VERTEX
  8
0
  5
43E71
 10
273.519
 20
287.652
 30
0.000000
  70
    32
  0
VERTEX
  8
0
  5
43E72
 10
273.661
 20
287.965
 30
0.000000
  70
    32
  0
VERTEX
  8
0
  5
43E73
 10
273.801
 20
288.279
 30
0.000000
  70
    32
  0
VERTEX
  8
0
  5
43E74
 10
273.941
 20
288.594
 30
0.000000
  70
    32
  0
VERTEX
  8
0
  5
43E75
 10
274.079
 20
288.910
 30
0.000000
  70
    32
  0
VERTEX
  8
0
  5
43E76
 10
274.217
 20
289.228
 30
0.000000
  70
    32
  0
VERTEX
  8
0
  5
43E77
 10
274.353
 20
289.546
 30
0.000000
  70
    32
  0
VERTEX
  8
0
  5
43E78
 10
274.488
 20
289.865
 30
0.000000
  70
    32
  0
VERTEX
  8
0
  5
43E79
 10
274.621
 20
290.185
 30
0.000000
  70
    32
  0
VERTEX
  8
0
  5
43E7A
 10
274.754
 20
290.506
 30
0.000000
  70
    32
  0
VERTEX
  8
0
  5
43E7B
 10
274.885
 20
290.828
 30
0.000000
  70
    32
  0
VERTEX
  8
0
  5
43E7C
 10
275.015
 20
291.151
 30
0.000000
  70
    32
  0
VERTEX
  8
0
  5
43E7D
 10
275.144
 20
291.475
 30
0.000000
  70
    32
  0
VERTEX
  8
0
  5
43E7E
 10
275.272
 20
291.800
 30
0.000000
  70
    32
  0
VERTEX
  8
0
  5
43E7F
 10
275.399
 20
292.126
 30
0.000000
  70
    32
  0
VERTEX
  8
0
  5
43E80
 10
275.524
 20
292.452
 30
0.000000
  70
    32
  0
VERTEX
  8
0
  5
43E81
 10
275.648
 20
292.780
 30
0.000000
  70
    32
  0
VERTEX
  8
0
  5
43E82
 10
275.771
 20
293.108
 30
0.000000
  70
    32
  0
VERTEX
  8
0
  5
43E83
 10
275.893
 20
293.438
 30
0.000000
  70
    32
  0
VERTEX
  8
0
  5
43E84
 10
276.013
 20
293.768
 30
0.000000
  70
    32
  0
VERTEX
  8
0
  5
43E85
 10
276.133
 20
294.099
 30
0.000000
  70
    32
  0
VERTEX
  8
0
  5
43E86
 10
276.251
 20
294.431
 30
0.000000
  70
    32
  0
VERTEX
  8
0
  5
43E87
 10
276.368
 20
294.764
 30
0.000000
  70
    32
  0
VERTEX
  8
0
  5
43E88
 10
276.483
 20
295.097
 30
0.000000
  70
    32
  0
VERTEX
  8
0
  5
43E89
 10
276.598
 20
295.432
 30
0.000000
  70
    32
  0
VERTEX
  8
0
  5
43E8A
 10
276.711
 20
295.767
 30
0.000000
  70
    32
  0
VERTEX
  8
0
  5
43E8B
 10
276.823
 20
296.103
 30
0.000000
  70
    32
  0
VERTEX
  8
0
  5
43E8C
 10
276.933
 20
296.440
 30
0.000000
  70
    32
  0
VERTEX
  8
0
  5
43E8D
 10
277.043
 20
296.778
 30
0.000000
  70
    32
  0
VERTEX
  8
0
  5
43E8E
 10
277.151
 20
297.116
 30
0.000000
  70
    32
  0
VERTEX
  8
0
  5
43E8F
 10
277.258
 20
297.455
 30
0.000000
  70
    32
  0
VERTEX
  8
0
  5
43E90
 10
277.364
 20
297.795
 30
0.000000
  70
    32
  0
VERTEX
  8
0
  5
43E91
 10
277.468
 20
298.136
 30
0.000000
  70
    32
  0
VERTEX
  8
0
  5
43E92
 10
277.571
 20
298.477
 30
0.000000
  70
    32
  0
VERTEX
  8
0
  5
43E93
 10
277.673
 20
298.820
 30
0.000000
  70
    32
  0
VERTEX
  8
0
  5
43E94
 10
277.774
 20
299.163
 30
0.000000
  70
    32
  0
VERTEX
  8
0
  5
43E95
 10
277.873
 20
299.506
 30
0.000000
  70
    32
  0
VERTEX
  8
0
  5
43E96
 10
277.971
 20
299.851
 30
0.000000
  70
    32
  0
VERTEX
  8
0
  5
43E97
 10
278.068
 20
300.196
 30
0.000000
  70
    32
  0
VERTEX
  8
0
  5
43E98
 10
278.164
 20
300.542
 30
0.000000
  70
    32
  0
VERTEX
  8
0
  5
43E99
 10
278.258
 20
300.888
 30
0.000000
  70
    32
  0
VERTEX
  8
0
  5
43E9A
 10
278.351
 20
301.235
 30
0.000000
  70
    32
  0
VERTEX
  8
0
  5
43E9B
 10
278.443
 20
301.583
 30
0.000000
  70
    32
  0
VERTEX
  8
0
  5
43E9C
 10
278.533
 20
301.931
 30
0.000000
  70
    32
  0
VERTEX
  8
0
  5
43E9D
 10
278.622
 20
302.280
 30
0.000000
  70
    32
  0
VERTEX
  8
0
  5
43E9E
 10
278.710
 20
302.630
 30
0.000000
  70
    32
  0
VERTEX
  8
0
  5
43E9F
 10
278.797
 20
302.981
 30
0.000000
  70
    32
  0
VERTEX
  8
0
  5
43EA0
 10
278.882
 20
303.331
 30
0.000000
  70
    32
  0
VERTEX
  8
0
  5
43EA1
 10
278.966
 20
303.683
 30
0.000000
  70
    32
  0
VERTEX
  8
0
  5
43EA2
 10
279.049
 20
304.035
 30
0.000000
  70
    32
  0
VERTEX
  8
0
  5
43EA3
 10
279.130
 20
304.388
 30
0.000000
  70
    32
  0
VERTEX
  8
0
  5
43EA4
 10
279.210
 20
304.741
 30
0.000000
  70
    32
  0
VERTEX
  8
0
  5
43EA5
 10
279.289
 20
305.095
 30
0.000000
  70
    32
  0
VERTEX
  8
0
  5
43EA6
 10
279.366
 20
305.450
 30
0.000000
  70
    32
  0
VERTEX
  8
0
  5
43EA7
 10
279.442
 20
305.805
 30
0.000000
  70
    32
  0
VERTEX
  8
0
  5
43EA8
 10
279.517
 20
306.160
 30
0.000000
  70
    32
  0
VERTEX
  8
0
  5
43EA9
 10
279.591
 20
306.517
 30
0.000000
  70
    32
  0
VERTEX
  8
0
  5
43EAA
 10
279.663
 20
306.873
 30
0.000000
  70
    32
  0
VERTEX
  8
0
  5
43EAB
 10
279.734
 20
307.230
 30
0.000000
  70
    32
  0
VERTEX
  8
0
  5
43EAC
 10
279.803
 20
307.588
 30
0.000000
  70
    32
  0
VERTEX
  8
0
  5
43EAD
 10
279.872
 20
307.946
 30
0.000000
  70
    32
  0
VERTEX
  8
0
  5
43EAE
 10
279.939
 20
308.305
 30
0.000000
  70
    32
  0
VERTEX
  8
0
  5
43EAF
 10
280.004
 20
308.664
 30
0.000000
  70
    32
  0
VERTEX
  8
0
  5
43EB0
 10
280.069
 20
309.024
 30
0.000000
  70
    32
  0
VERTEX
  8
0
  5
43EB1
 10
280.132
 20
309.384
 30
0.000000
  70
    32
  0
VERTEX
  8
0
  5
43EB2
 10
280.193
 20
309.744
 30
0.000000
  70
    32
  0
VERTEX
  8
0
  5
43EB3
 10
280.254
 20
310.105
 30
0.000000
  70
    32
  0
VERTEX
  8
0
  5
43EB4
 10
280.313
 20
310.466
 30
0.000000
  70
    32
  0
VERTEX
  8
0
  5
43EB5
 10
280.370
 20
310.828
 30
0.000000
  70
    32
  0
VERTEX
  8
0
  5
43EB6
 10
280.426
 20
311.190
 30
0.000000
  70
    32
  0
VERTEX
  8
0
  5
43EB7
 10
280.481
 20
311.553
 30
0.000000
  70
    32
  0
VERTEX
  8
0
  5
43EB8
 10
280.535
 20
311.916
 30
0.000000
  70
    32
  0
VERTEX
  8
0
  5
43EB9
 10
280.587
 20
312.279
 30
0.000000
  70
    32
  0
VERTEX
  8
0
  5
43EBA
 10
280.638
 20
312.643
 30
0.000000
  70
    32
  0
VERTEX
  8
0
  5
43EBB
 10
280.688
 20
313.007
 30
0.000000
  70
    32
  0
VERTEX
  8
0
  5
43EBC
 10
280.736
 20
313.372
 30
0.000000
  70
    32
  0
VERTEX
  8
0
  5
43EBD
 10
280.783
 20
313.736
 30
0.000000
  70
    32
  0
VERTEX
  8
0
  5
43EBE
 10
280.829
 20
314.102
 30
0.000000
  70
    32
  0
VERTEX
  8
0
  5
43EBF
 10
280.873
 20
314.467
 30
0.000000
  70
    32
  0
VERTEX
  8
0
  5
43EC0
 10
280.916
 20
314.833
 30
0.000000
  70
    32
  0
VERTEX
  8
0
  5
43EC1
 10
280.957
 20
315.199
 30
0.000000
  70
    32
  0
VERTEX
  8
0
  5
43EC2
 10
280.997
 20
315.565
 30
0.000000
  70
    32
  0
VERTEX
  8
0
  5
43EC3
 10
281.036
 20
315.932
 30
0.000000
  70
    32
  0
VERTEX
  8
0
  5
43EC4
 10
281.074
 20
316.299
 30
0.000000
  70
    32
  0
VERTEX
  8
0
  5
43EC5
 10
281.110
 20
316.666
 30
0.000000
  70
    32
  0
VERTEX
  8
0
  5
43EC6
 10
281.145
 20
317.033
 30
0.000000
  70
    32
  0
VERTEX
  8
0
  5
43EC7
 10
281.178
 20
317.401
 30
0.000000
  70
    32
  0
VERTEX
  8
0
  5
43EC8
 10
281.210
 20
317.769
 30
0.000000
  70
    32
  0
VERTEX
  8
0
  5
43EC9
 10
281.241
 20
318.137
 30
0.000000
  70
    32
  0
VERTEX
  8
0
  5
43ECA
 10
281.270
 20
318.506
 30
0.000000
  70
    32
  0
VERTEX
  8
0
  5
43ECB
 10
281.298
 20
318.874
 30
0.000000
  70
    32
  0
VERTEX
  8
0
  5
43ECC
 10
281.325
 20
319.243
 30
0.000000
  70
    32
  0
VERTEX
  8
0
  5
43ECD
 10
281.350
 20
319.612
 30
0.000000
  70
    32
  0
VERTEX
  8
0
  5
43ECE
 10
281.374
 20
319.981
 30
0.000000
  70
    32
  0
VERTEX
  8
0
  5
43ECF
 10
281.396
 20
320.350
 30
0.000000
  70
    32
  0
VERTEX
  8
0
  5
43ED0
 10
281.418
 20
320.720
 30
0.000000
  70
    32
  0
VERTEX
  8
0
  5
43ED1
 10
281.437
 20
321.089
 30
0.000000
  70
    32
  0
VERTEX
  8
0
  5
43ED2
 10
281.456
 20
321.459
 30
0.000000
  70
    32
  0
VERTEX
  8
0
  5
43ED3
 10
281.473
 20
321.829
 30
0.000000
  70
    32
  0
VERTEX
  8
0
  5
43ED4
 10
281.489
 20
322.199
 30
0.000000
  70
    32
  0
VERTEX
  8
0
  5
43ED5
 10
281.503
 20
322.569
 30
0.000000
  70
    32
  0
VERTEX
  8
0
  5
43ED6
 10
281.516
 20
322.939
 30
0.000000
  70
    32
  0
VERTEX
  8
0
  5
43ED7
 10
281.528
 20
323.309
 30
0.000000
  70
    32
  0
VERTEX
  8
0
  5
43ED8
 10
281.538
 20
323.680
 30
0.000000
  70
    32
  0
VERTEX
  8
0
  5
43ED9
 10
281.547
 20
324.050
 30
0.000000
  70
    32
  0
VERTEX
  8
0
  5
43EDA
 10
281.554
 20
324.421
 30
0.000000
  70
    32
  0
VERTEX
  8
0
  5
43EDB
 10
281.560
 20
324.791
 30
0.000000
  70
    32
  0
VERTEX
  8
0
  5
43EDC
 10
281.565
 20
325.162
 30
0.000000
  70
    32
  0
VERTEX
  8
0
  5
43EDD
 10
281.569
 20
325.532
 30
0.000000
  70
    32
  0
VERTEX
  8
0
  5
43EDE
 10
281.571
 20
325.903
 30
0.000000
  70
    32
  0
VERTEX
  8
0
  5
43EDF
 10
281.571
 20
326.274
 30
0.000000
  70
    32
  0
SEQEND
  8
0
  5
43EE0
  0
LINE
  5
43A27
  8
0
 10
178.57132322899079
 20
404.70817530267522
 30
0.0
 11
281.57132322899088
 21
404.70817530267522
 31
0.0
  0
LINE
  5
43A28
  8
0
 10
178.57132322899079
 20
412.40817530267498
 30
0.0
 11
281.57132322899088
 21
412.40817530267498
 31
0.0
  0
POLYLINE
  5
43A29
  8
0
 10
260.07132322899048
 20
379.14699574510678
 30
0.0
 66
     1
 70
     8
  0
VERTEX
  8
0
  5
43EE1
 10
260.071
 20
379.147
 30
0.000000
  70
    32
  0
VERTEX
  8
0
  5
43EE2
 10
260.034
 20
379.188
 30
0.000000
  70
    32
  0
VERTEX
  8
0
  5
43EE3
 10
259.997
 20
379.229
 30
0.000000
  70
    32
  0
VERTEX
  8
0
  5
43EE4
 10
259.959
 20
379.271
 30
0.000000
  70
    32
  0
VERTEX
  8
0
  5
43EE5
 10
259.922
 20
379.312
 30
0.000000
  70
    32
  0
VERTEX
  8
0
  5
43EE6
 10
259.884
 20
379.353
 30
0.000000
  70
    32
  0
VERTEX
  8
0
  5
43EE7
 10
259.847
 20
379.394
 30
0.000000
  70
    32
  0
VERTEX
  8
0
  5
43EE8
 10
259.810
 20
379.435
 30
0.000000
  70
    32
  0
VERTEX
  8
0
  5
43EE9
 10
259.772
 20
379.476
 30
0.000000
  70
    32
  0
VERTEX
  8
0
  5
43EEA
 10
259.734
 20
379.517
 30
0.000000
  70
    32
  0
VERTEX
  8
0
  5
43EEB
 10
259.697
 20
379.557
 30
0.000000
  70
    32
  0
VERTEX
  8
0
  5
43EEC
 10
259.659
 20
379.598
 30
0.000000
  70
    32
  0
VERTEX
  8
0
  5
43EED
 10
259.622
 20
379.639
 30
0.000000
  70
    32
  0
VERTEX
  8
0
  5
43EEE
 10
259.584
 20
379.679
 30
0.000000
  70
    32
  0
VERTEX
  8
0
  5
43EEF
 10
259.546
 20
379.720
 30
0.000000
  70
    32
  0
VERTEX
  8
0
  5
43EF0
 10
259.509
 20
379.761
 30
0.000000
  70
    32
  0
VERTEX
  8
0
  5
43EF1
 10
259.471
 20
379.801
 30
0.000000
  70
    32
  0
VERTEX
  8
0
  5
43EF2
 10
259.433
 20
379.841
 30
0.000000
  70
    32
  0
VERTEX
  8
0
  5
43EF3
 10
259.395
 20
379.882
 30
0.000000
  70
    32
  0
VERTEX
  8
0
  5
43EF4
 10
259.357
 20
379.922
 30
0.000000
  70
    32
  0
VERTEX
  8
0
  5
43EF5
 10
259.320
 20
379.962
 30
0.000000
  70
    32
  0
VERTEX
  8
0
  5
43EF6
 10
259.282
 20
380.003
 30
0.000000
  70
    32
  0
VERTEX
  8
0
  5
43EF7
 10
259.244
 20
380.043
 30
0.000000
  70
    32
  0
VERTEX
  8
0
  5
43EF8
 10
259.206
 20
380.083
 30
0.000000
  70
    32
  0
VERTEX
  8
0
  5
43EF9
 10
259.168
 20
380.123
 30
0.000000
  70
    32
  0
VERTEX
  8
0
  5
43EFA
 10
259.130
 20
380.163
 30
0.000000
  70
    32
  0
VERTEX
  8
0
  5
43EFB
 10
259.092
 20
380.203
 30
0.000000
  70
    32
  0
VERTEX
  8
0
  5
43EFC
 10
259.054
 20
380.243
 30
0.000000
  70
    32
  0
VERTEX
  8
0
  5
43EFD
 10
259.016
 20
380.283
 30
0.000000
  70
    32
  0
VERTEX
  8
0
  5
43EFE
 10
258.978
 20
380.323
 30
0.000000
  70
    32
  0
VERTEX
  8
0
  5
43EFF
 10
258.939
 20
380.362
 30
0.000000
  70
    32
  0
VERTEX
  8
0
  5
43F00
 10
258.901
 20
380.402
 30
0.000000
  70
    32
  0
VERTEX
  8
0
  5
43F01
 10
258.863
 20
380.442
 30
0.000000
  70
    32
  0
VERTEX
  8
0
  5
43F02
 10
258.825
 20
380.481
 30
0.000000
  70
    32
  0
VERTEX
  8
0
  5
43F03
 10
258.787
 20
380.521
 30
0.000000
  70
    32
  0
VERTEX
  8
0
  5
43F04
 10
258.748
 20
380.560
 30
0.000000
  70
    32
  0
VERTEX
  8
0
  5
43F05
 10
258.710
 20
380.600
 30
0.000000
  70
    32
  0
VERTEX
  8
0
  5
43F06
 10
258.672
 20
380.639
 30
0.000000
  70
    32
  0
VERTEX
  8
0
  5
43F07
 10
258.633
 20
380.679
 30
0.000000
  70
    32
  0
VERTEX
  8
0
  5
43F08
 10
258.595
 20
380.718
 30
0.000000
  70
    32
  0
VERTEX
  8
0
  5
43F09
 10
258.556
 20
380.757
 30
0.000000
  70
    32
  0
VERTEX
  8
0
  5
43F0A
 10
258.518
 20
380.796
 30
0.000000
  70
    32
  0
VERTEX
  8
0
  5
43F0B
 10
258.480
 20
380.835
 30
0.000000
  70
    32
  0
VERTEX
  8
0
  5
43F0C
 10
258.441
 20
380.874
 30
0.000000
  70
    32
  0
VERTEX
  8
0
  5
43F0D
 10
258.402
 20
380.914
 30
0.000000
  70
    32
  0
VERTEX
  8
0
  5
43F0E
 10
258.364
 20
380.952
 30
0.000000
  70
    32
  0
VERTEX
  8
0
  5
43F0F
 10
258.325
 20
380.991
 30
0.000000
  70
    32
  0
VERTEX
  8
0
  5
43F10
 10
258.287
 20
381.030
 30
0.000000
  70
    32
  0
VERTEX
  8
0
  5
43F11
 10
258.248
 20
381.069
 30
0.000000
  70
    32
  0
VERTEX
  8
0
  5
43F12
 10
258.209
 20
381.108
 30
0.000000
  70
    32
  0
VERTEX
  8
0
  5
43F13
 10
258.171
 20
381.147
 30
0.000000
  70
    32
  0
VERTEX
  8
0
  5
43F14
 10
258.132
 20
381.185
 30
0.000000
  70
    32
  0
VERTEX
  8
0
  5
43F15
 10
258.093
 20
381.224
 30
0.000000
  70
    32
  0
VERTEX
  8
0
  5
43F16
 10
258.054
 20
381.262
 30
0.000000
  70
    32
  0
VERTEX
  8
0
  5
43F17
 10
258.016
 20
381.301
 30
0.000000
  70
    32
  0
VERTEX
  8
0
  5
43F18
 10
257.977
 20
381.339
 30
0.000000
  70
    32
  0
VERTEX
  8
0
  5
43F19
 10
257.938
 20
381.378
 30
0.000000
  70
    32
  0
VERTEX
  8
0
  5
43F1A
 10
257.899
 20
381.416
 30
0.000000
  70
    32
  0
VERTEX
  8
0
  5
43F1B
 10
257.860
 20
381.454
 30
0.000000
  70
    32
  0
VERTEX
  8
0
  5
43F1C
 10
257.821
 20
381.492
 30
0.000000
  70
    32
  0
VERTEX
  8
0
  5
43F1D
 10
257.782
 20
381.531
 30
0.000000
  70
    32
  0
VERTEX
  8
0
  5
43F1E
 10
257.743
 20
381.569
 30
0.000000
  70
    32
  0
VERTEX
  8
0
  5
43F1F
 10
257.704
 20
381.607
 30
0.000000
  70
    32
  0
VERTEX
  8
0
  5
43F20
 10
257.665
 20
381.645
 30
0.000000
  70
    32
  0
VERTEX
  8
0
  5
43F21
 10
257.626
 20
381.683
 30
0.000000
  70
    32
  0
VERTEX
  8
0
  5
43F22
 10
257.587
 20
381.721
 30
0.000000
  70
    32
  0
VERTEX
  8
0
  5
43F23
 10
257.548
 20
381.758
 30
0.000000
  70
    32
  0
VERTEX
  8
0
  5
43F24
 10
257.509
 20
381.796
 30
0.000000
  70
    32
  0
VERTEX
  8
0
  5
43F25
 10
257.470
 20
381.834
 30
0.000000
  70
    32
  0
VERTEX
  8
0
  5
43F26
 10
257.430
 20
381.872
 30
0.000000
  70
    32
  0
VERTEX
  8
0
  5
43F27
 10
257.391
 20
381.909
 30
0.000000
  70
    32
  0
VERTEX
  8
0
  5
43F28
 10
257.352
 20
381.947
 30
0.000000
  70
    32
  0
VERTEX
  8
0
  5
43F29
 10
257.313
 20
381.984
 30
0.000000
  70
    32
  0
VERTEX
  8
0
  5
43F2A
 10
257.273
 20
382.022
 30
0.000000
  70
    32
  0
VERTEX
  8
0
  5
43F2B
 10
257.234
 20
382.059
 30
0.000000
  70
    32
  0
VERTEX
  8
0
  5
43F2C
 10
257.195
 20
382.097
 30
0.000000
  70
    32
  0
VERTEX
  8
0
  5
43F2D
 10
257.155
 20
382.134
 30
0.000000
  70
    32
  0
VERTEX
  8
0
  5
43F2E
 10
257.116
 20
382.171
 30
0.000000
  70
    32
  0
VERTEX
  8
0
  5
43F2F
 10
257.076
 20
382.208
 30
0.000000
  70
    32
  0
VERTEX
  8
0
  5
43F30
 10
257.037
 20
382.246
 30
0.000000
  70
    32
  0
VERTEX
  8
0
  5
43F31
 10
256.997
 20
382.283
 30
0.000000
  70
    32
  0
VERTEX
  8
0
  5
43F32
 10
256.958
 20
382.320
 30
0.000000
  70
    32
  0
VERTEX
  8
0
  5
43F33
 10
256.918
 20
382.357
 30
0.000000
  70
    32
  0
VERTEX
  8
0
  5
43F34
 10
256.879
 20
382.394
 30
0.000000
  70
    32
  0
VERTEX
  8
0
  5
43F35
 10
256.839
 20
382.430
 30
0.000000
  70
    32
  0
VERTEX
  8
0
  5
43F36
 10
256.799
 20
382.467
 30
0.000000
  70
    32
  0
VERTEX
  8
0
  5
43F37
 10
256.760
 20
382.504
 30
0.000000
  70
    32
  0
VERTEX
  8
0
  5
43F38
 10
256.720
 20
382.541
 30
0.000000
  70
    32
  0
VERTEX
  8
0
  5
43F39
 10
256.680
 20
382.577
 30
0.000000
  70
    32
  0
VERTEX
  8
0
  5
43F3A
 10
256.641
 20
382.614
 30
0.000000
  70
    32
  0
VERTEX
  8
0
  5
43F3B
 10
256.601
 20
382.650
 30
0.000000
  70
    32
  0
VERTEX
  8
0
  5
43F3C
 10
256.561
 20
382.687
 30
0.000000
  70
    32
  0
VERTEX
  8
0
  5
43F3D
 10
256.521
 20
382.723
 30
0.000000
  70
    32
  0
VERTEX
  8
0
  5
43F3E
 10
256.481
 20
382.760
 30
0.000000
  70
    32
  0
VERTEX
  8
0
  5
43F3F
 10
256.442
 20
382.796
 30
0.000000
  70
    32
  0
VERTEX
  8
0
  5
43F40
 10
256.402
 20
382.832
 30
0.000000
  70
    32
  0
VERTEX
  8
0
  5
43F41
 10
256.362
 20
382.869
 30
0.000000
  70
    32
  0
VERTEX
  8
0
  5
43F42
 10
256.322
 20
382.905
 30
0.000000
  70
    32
  0
VERTEX
  8
0
  5
43F43
 10
256.282
 20
382.941
 30
0.000000
  70
    32
  0
VERTEX
  8
0
  5
43F44
 10
256.242
 20
382.977
 30
0.000000
  70
    32
  0
VERTEX
  8
0
  5
43F45
 10
256.202
 20
383.013
 30
0.000000
  70
    32
  0
VERTEX
  8
0
  5
43F46
 10
256.162
 20
383.049
 30
0.000000
  70
    32
  0
VERTEX
  8
0
  5
43F47
 10
256.122
 20
383.085
 30
0.000000
  70
    32
  0
VERTEX
  8
0
  5
43F48
 10
256.082
 20
383.121
 30
0.000000
  70
    32
  0
VERTEX
  8
0
  5
43F49
 10
256.042
 20
383.156
 30
0.000000
  70
    32
  0
VERTEX
  8
0
  5
43F4A
 10
256.001
 20
383.192
 30
0.000000
  70
    32
  0
VERTEX
  8
0
  5
43F4B
 10
255.961
 20
383.228
 30
0.000000
  70
    32
  0
VERTEX
  8
0
  5
43F4C
 10
255.921
 20
383.263
 30
0.000000
  70
    32
  0
VERTEX
  8
0
  5
43F4D
 10
255.881
 20
383.299
 30
0.000000
  70
    32
  0
VERTEX
  8
0
  5
43F4E
 10
255.841
 20
383.334
 30
0.000000
  70
    32
  0
VERTEX
  8
0
  5
43F4F
 10
255.800
 20
383.370
 30
0.000000
  70
    32
  0
VERTEX
  8
0
  5
43F50
 10
255.760
 20
383.405
 30
0.000000
  70
    32
  0
VERTEX
  8
0
  5
43F51
 10
255.720
 20
383.440
 30
0.000000
  70
    32
  0
VERTEX
  8
0
  5
43F52
 10
255.679
 20
383.476
 30
0.000000
  70
    32
  0
VERTEX
  8
0
  5
43F53
 10
255.639
 20
383.511
 30
0.000000
  70
    32
  0
VERTEX
  8
0
  5
43F54
 10
255.599
 20
383.546
 30
0.000000
  70
    32
  0
VERTEX
  8
0
  5
43F55
 10
255.558
 20
383.581
 30
0.000000
  70
    32
  0
VERTEX
  8
0
  5
43F56
 10
255.518
 20
383.616
 30
0.000000
  70
    32
  0
VERTEX
  8
0
  5
43F57
 10
255.477
 20
383.651
 30
0.000000
  70
    32
  0
VERTEX
  8
0
  5
43F58
 10
255.437
 20
383.686
 30
0.000000
  70
    32
  0
VERTEX
  8
0
  5
43F59
 10
255.396
 20
383.721
 30
0.000000
  70
    32
  0
VERTEX
  8
0
  5
43F5A
 10
255.356
 20
383.756
 30
0.000000
  70
    32
  0
VERTEX
  8
0
  5
43F5B
 10
255.315
 20
383.791
 30
0.000000
  70
    32
  0
VERTEX
  8
0
  5
43F5C
 10
255.275
 20
383.825
 30
0.000000
  70
    32
  0
VERTEX
  8
0
  5
43F5D
 10
255.234
 20
383.860
 30
0.000000
  70
    32
  0
VERTEX
  8
0
  5
43F5E
 10
255.193
 20
383.895
 30
0.000000
  70
    32
  0
VERTEX
  8
0
  5
43F5F
 10
255.153
 20
383.929
 30
0.000000
  70
    32
  0
VERTEX
  8
0
  5
43F60
 10
255.112
 20
383.964
 30
0.000000
  70
    32
  0
VERTEX
  8
0
  5
43F61
 10
255.071
 20
383.998
 30
0.000000
  70
    32
  0
SEQEND
  8
0
  5
43F62
  0
POLYLINE
  5
43A2A
  8
0
 10
205.07132322899088
 20
383.99815891277564
 30
0.0
 66
     1
 70
     8
  0
VERTEX
  8
0
  5
43F63
 10
205.071
 20
383.998
 30
0.000000
  70
    32
  0
VERTEX
  8
0
  5
43F64
 10
205.031
 20
383.964
 30
0.000000
  70
    32
  0
VERTEX
  8
0
  5
43F65
 10
204.990
 20
383.929
 30
0.000000
  70
    32
  0
VERTEX
  8
0
  5
43F66
 10
204.949
 20
383.895
 30
0.000000
  70
    32
  0
VERTEX
  8
0
  5
43F67
 10
204.909
 20
383.860
 30
0.000000
  70
    32
  0
VERTEX
  8
0
  5
43F68
 10
204.868
 20
383.825
 30
0.000000
  70
    32
  0
VERTEX
  8
0
  5
43F69
 10
204.827
 20
383.791
 30
0.000000
  70
    32
  0
VERTEX
  8
0
  5
43F6A
 10
204.787
 20
383.756
 30
0.000000
  70
    32
  0
VERTEX
  8
0
  5
43F6B
 10
204.746
 20
383.721
 30
0.000000
  70
    32
  0
VERTEX
  8
0
  5
43F6C
 10
204.706
 20
383.686
 30
0.000000
  70
    32
  0
VERTEX
  8
0
  5
43F6D
 10
204.665
 20
383.651
 30
0.000000
  70
    32
  0
VERTEX
  8
0
  5
43F6E
 10
204.625
 20
383.616
 30
0.000000
  70
    32
  0
VERTEX
  8
0
  5
43F6F
 10
204.584
 20
383.581
 30
0.000000
  70
    32
  0
VERTEX
  8
0
  5
43F70
 10
204.544
 20
383.546
 30
0.000000
  70
    32
  0
VERTEX
  8
0
  5
43F71
 10
204.504
 20
383.511
 30
0.000000
  70
    32
  0
VERTEX
  8
0
  5
43F72
 10
204.463
 20
383.476
 30
0.000000
  70
    32
  0
VERTEX
  8
0
  5
43F73
 10
204.423
 20
383.440
 30
0.000000
  70
    32
  0
VERTEX
  8
0
  5
43F74
 10
204.383
 20
383.405
 30
0.000000
  70
    32
  0
VERTEX
  8
0
  5
43F75
 10
204.342
 20
383.370
 30
0.000000
  70
    32
  0
VERTEX
  8
0
  5
43F76
 10
204.302
 20
383.334
 30
0.000000
  70
    32
  0
VERTEX
  8
0
  5
43F77
 10
204.262
 20
383.299
 30
0.000000
  70
    32
  0
VERTEX
  8
0
  5
43F78
 10
204.222
 20
383.263
 30
0.000000
  70
    32
  0
VERTEX
  8
0
  5
43F79
 10
204.181
 20
383.228
 30
0.000000
  70
    32
  0
VERTEX
  8
0
  5
43F7A
 10
204.141
 20
383.192
 30
0.000000
  70
    32
  0
VERTEX
  8
0
  5
43F7B
 10
204.101
 20
383.156
 30
0.000000
  70
    32
  0
VERTEX
  8
0
  5
43F7C
 10
204.061
 20
383.121
 30
0.000000
  70
    32
  0
VERTEX
  8
0
  5
43F7D
 10
204.021
 20
383.085
 30
0.000000
  70
    32
  0
VERTEX
  8
0
  5
43F7E
 10
203.981
 20
383.049
 30
0.000000
  70
    32
  0
VERTEX
  8
0
  5
43F7F
 10
203.941
 20
383.013
 30
0.000000
  70
    32
  0
VERTEX
  8
0
  5
43F80
 10
203.901
 20
382.977
 30
0.000000
  70
    32
  0
VERTEX
  8
0
  5
43F81
 10
203.861
 20
382.941
 30
0.000000
  70
    32
  0
VERTEX
  8
0
  5
43F82
 10
203.821
 20
382.905
 30
0.000000
  70
    32
  0
VERTEX
  8
0
  5
43F83
 10
203.781
 20
382.869
 30
0.000000
  70
    32
  0
VERTEX
  8
0
  5
43F84
 10
203.741
 20
382.832
 30
0.000000
  70
    32
  0
VERTEX
  8
0
  5
43F85
 10
203.701
 20
382.796
 30
0.000000
  70
    32
  0
VERTEX
  8
0
  5
43F86
 10
203.661
 20
382.760
 30
0.000000
  70
    32
  0
VERTEX
  8
0
  5
43F87
 10
203.621
 20
382.723
 30
0.000000
  70
    32
  0
VERTEX
  8
0
  5
43F88
 10
203.582
 20
382.687
 30
0.000000
  70
    32
  0
VERTEX
  8
0
  5
43F89
 10
203.542
 20
382.650
 30
0.000000
  70
    32
  0
VERTEX
  8
0
  5
43F8A
 10
203.502
 20
382.614
 30
0.000000
  70
    32
  0
VERTEX
  8
0
  5
43F8B
 10
203.462
 20
382.577
 30
0.000000
  70
    32
  0
VERTEX
  8
0
  5
43F8C
 10
203.423
 20
382.541
 30
0.000000
  70
    32
  0
VERTEX
  8
0
  5
43F8D
 10
203.383
 20
382.504
 30
0.000000
  70
    32
  0
VERTEX
  8
0
  5
43F8E
 10
203.343
 20
382.467
 30
0.000000
  70
    32
  0
VERTEX
  8
0
  5
43F8F
 10
203.304
 20
382.430
 30
0.000000
  70
    32
  0
VERTEX
  8
0
  5
43F90
 10
203.264
 20
382.394
 30
0.000000
  70
    32
  0
VERTEX
  8
0
  5
43F91
 10
203.224
 20
382.357
 30
0.000000
  70
    32
  0
VERTEX
  8
0
  5
43F92
 10
203.185
 20
382.320
 30
0.000000
  70
    32
  0
VERTEX
  8
0
  5
43F93
 10
203.145
 20
382.283
 30
0.000000
  70
    32
  0
VERTEX
  8
0
  5
43F94
 10
203.106
 20
382.246
 30
0.000000
  70
    32
  0
VERTEX
  8
0
  5
43F95
 10
203.066
 20
382.208
 30
0.000000
  70
    32
  0
VERTEX
  8
0
  5
43F96
 10
203.027
 20
382.171
 30
0.000000
  70
    32
  0
VERTEX
  8
0
  5
43F97
 10
202.988
 20
382.134
 30
0.000000
  70
    32
  0
VERTEX
  8
0
  5
43F98
 10
202.948
 20
382.097
 30
0.000000
  70
    32
  0
VERTEX
  8
0
  5
43F99
 10
202.909
 20
382.059
 30
0.000000
  70
    32
  0
VERTEX
  8
0
  5
43F9A
 10
202.869
 20
382.022
 30
0.000000
  70
    32
  0
VERTEX
  8
0
  5
43F9B
 10
202.830
 20
381.984
 30
0.000000
  70
    32
  0
VERTEX
  8
0
  5
43F9C
 10
202.791
 20
381.947
 30
0.000000
  70
    32
  0
VERTEX
  8
0
  5
43F9D
 10
202.752
 20
381.909
 30
0.000000
  70
    32
  0
VERTEX
  8
0
  5
43F9E
 10
202.712
 20
381.872
 30
0.000000
  70
    32
  0
VERTEX
  8
0
  5
43F9F
 10
202.673
 20
381.834
 30
0.000000
  70
    32
  0
VERTEX
  8
0
  5
43FA0
 10
202.634
 20
381.796
 30
0.000000
  70
    32
  0
VERTEX
  8
0
  5
43FA1
 10
202.595
 20
381.758
 30
0.000000
  70
    32
  0
VERTEX
  8
0
  5
43FA2
 10
202.556
 20
381.721
 30
0.000000
  70
    32
  0
VERTEX
  8
0
  5
43FA3
 10
202.517
 20
381.683
 30
0.000000
  70
    32
  0
VERTEX
  8
0
  5
43FA4
 10
202.477
 20
381.645
 30
0.000000
  70
    32
  0
VERTEX
  8
0
  5
43FA5
 10
202.438
 20
381.607
 30
0.000000
  70
    32
  0
VERTEX
  8
0
  5
43FA6
 10
202.399
 20
381.569
 30
0.000000
  70
    32
  0
VERTEX
  8
0
  5
43FA7
 10
202.360
 20
381.531
 30
0.000000
  70
    32
  0
VERTEX
  8
0
  5
43FA8
 10
202.321
 20
381.492
 30
0.000000
  70
    32
  0
VERTEX
  8
0
  5
43FA9
 10
202.283
 20
381.454
 30
0.000000
  70
    32
  0
VERTEX
  8
0
  5
43FAA
 10
202.244
 20
381.416
 30
0.000000
  70
    32
  0
VERTEX
  8
0
  5
43FAB
 10
202.205
 20
381.378
 30
0.000000
  70
    32
  0
VERTEX
  8
0
  5
43FAC
 10
202.166
 20
381.339
 30
0.000000
  70
    32
  0
VERTEX
  8
0
  5
43FAD
 10
202.127
 20
381.301
 30
0.000000
  70
    32
  0
VERTEX
  8
0
  5
43FAE
 10
202.088
 20
381.262
 30
0.000000
  70
    32
  0
VERTEX
  8
0
  5
43FAF
 10
202.049
 20
381.224
 30
0.000000
  70
    32
  0
VERTEX
  8
0
  5
43FB0
 10
202.011
 20
381.185
 30
0.000000
  70
    32
  0
VERTEX
  8
0
  5
43FB1
 10
201.972
 20
381.147
 30
0.000000
  70
    32
  0
VERTEX
  8
0
  5
43FB2
 10
201.933
 20
381.108
 30
0.000000
  70
    32
  0
VERTEX
  8
0
  5
43FB3
 10
201.895
 20
381.069
 30
0.000000
  70
    32
  0
VERTEX
  8
0
  5
43FB4
 10
201.856
 20
381.030
 30
0.000000
  70
    32
  0
VERTEX
  8
0
  5
43FB5
 10
201.817
 20
380.991
 30
0.000000
  70
    32
  0
VERTEX
  8
0
  5
43FB6
 10
201.779
 20
380.952
 30
0.000000
  70
    32
  0
VERTEX
  8
0
  5
43FB7
 10
201.740
 20
380.914
 30
0.000000
  70
    32
  0
VERTEX
  8
0
  5
43FB8
 10
201.702
 20
380.874
 30
0.000000
  70
    32
  0
VERTEX
  8
0
  5
43FB9
 10
201.663
 20
380.835
 30
0.000000
  70
    32
  0
VERTEX
  8
0
  5
43FBA
 10
201.625
 20
380.796
 30
0.000000
  70
    32
  0
VERTEX
  8
0
  5
43FBB
 10
201.586
 20
380.757
 30
0.000000
  70
    32
  0
VERTEX
  8
0
  5
43FBC
 10
201.548
 20
380.718
 30
0.000000
  70
    32
  0
VERTEX
  8
0
  5
43FBD
 10
201.509
 20
380.679
 30
0.000000
  70
    32
  0
VERTEX
  8
0
  5
43FBE
 10
201.471
 20
380.639
 30
0.000000
  70
    32
  0
VERTEX
  8
0
  5
43FBF
 10
201.433
 20
380.600
 30
0.000000
  70
    32
  0
VERTEX
  8
0
  5
43FC0
 10
201.394
 20
380.560
 30
0.000000
  70
    32
  0
VERTEX
  8
0
  5
43FC1
 10
201.356
 20
380.521
 30
0.000000
  70
    32
  0
VERTEX
  8
0
  5
43FC2
 10
201.318
 20
380.481
 30
0.000000
  70
    32
  0
VERTEX
  8
0
  5
43FC3
 10
201.280
 20
380.442
 30
0.000000
  70
    32
  0
VERTEX
  8
0
  5
43FC4
 10
201.241
 20
380.402
 30
0.000000
  70
    32
  0
VERTEX
  8
0
  5
43FC5
 10
201.203
 20
380.362
 30
0.000000
  70
    32
  0
VERTEX
  8
0
  5
43FC6
 10
201.165
 20
380.323
 30
0.000000
  70
    32
  0
VERTEX
  8
0
  5
43FC7
 10
201.127
 20
380.283
 30
0.000000
  70
    32
  0
VERTEX
  8
0
  5
43FC8
 10
201.089
 20
380.243
 30
0.000000
  70
    32
  0
VERTEX
  8
0
  5
43FC9
 10
201.051
 20
380.203
 30
0.000000
  70
    32
  0
VERTEX
  8
0
  5
43FCA
 10
201.013
 20
380.163
 30
0.000000
  70
    32
  0
VERTEX
  8
0
  5
43FCB
 10
200.975
 20
380.123
 30
0.000000
  70
    32
  0
VERTEX
  8
0
  5
43FCC
 10
200.937
 20
380.083
 30
0.000000
  70
    32
  0
VERTEX
  8
0
  5
43FCD
 10
200.899
 20
380.043
 30
0.000000
  70
    32
  0
VERTEX
  8
0
  5
43FCE
 10
200.861
 20
380.003
 30
0.000000
  70
    32
  0
VERTEX
  8
0
  5
43FCF
 10
200.823
 20
379.962
 30
0.000000
  70
    32
  0
VERTEX
  8
0
  5
43FD0
 10
200.785
 20
379.922
 30
0.000000
  70
    32
  0
VERTEX
  8
0
  5
43FD1
 10
200.747
 20
379.882
 30
0.000000
  70
    32
  0
VERTEX
  8
0
  5
43FD2
 10
200.710
 20
379.841
 30
0.000000
  70
    32
  0
VERTEX
  8
0
  5
43FD3
 10
200.672
 20
379.801
 30
0.000000
  70
    32
  0
VERTEX
  8
0
  5
43FD4
 10
200.634
 20
379.761
 30
0.000000
  70
    32
  0
VERTEX
  8
0
  5
43FD5
 10
200.596
 20
379.720
 30
0.000000
  70
    32
  0
VERTEX
  8
0
  5
43FD6
 10
200.559
 20
379.679
 30
0.000000
  70
    32
  0
VERTEX
  8
0
  5
43FD7
 10
200.521
 20
379.639
 30
0.000000
  70
    32
  0
VERTEX
  8
0
  5
43FD8
 10
200.483
 20
379.598
 30
0.000000
  70
    32
  0
VERTEX
  8
0
  5
43FD9
 10
200.446
 20
379.557
 30
0.000000
  70
    32
  0
VERTEX
  8
0
  5
43FDA
 10
200.408
 20
379.517
 30
0.000000
  70
    32
  0
VERTEX
  8
0
  5
43FDB
 10
200.371
 20
379.476
 30
0.000000
  70
    32
  0
VERTEX
  8
0
  5
43FDC
 10
200.333
 20
379.435
 30
0.000000
  70
    32
  0
VERTEX
  8
0
  5
43FDD
 10
200.296
 20
379.394
 30
0.000000
  70
    32
  0
VERTEX
  8
0
  5
43FDE
 10
200.258
 20
379.353
 30
0.000000
  70
    32
  0
VERTEX
  8
0
  5
43FDF
 10
200.221
 20
379.312
 30
0.000000
  70
    32
  0
VERTEX
  8
0
  5
43FE0
 10
200.183
 20
379.271
 30
0.000000
  70
    32
  0
VERTEX
  8
0
  5
43FE1
 10
200.146
 20
379.229
 30
0.000000
  70
    32
  0
VERTEX
  8
0
  5
43FE2
 10
200.109
 20
379.188
 30
0.000000
  70
    32
  0
VERTEX
  8
0
  5
43FE3
 10
200.071
 20
379.147
 30
0.000000
  70
    32
  0
SEQEND
  8
0
  5
43FE4
  0
LINE
  5
43A2B
  8
0
 10
224.37132322899021
 20
375.40817530267532
 30
0.0
 11
224.37132322899021
 21
176.008175302675
 31
0.0
  0
LINE
  5
43A2C
  8
0
 10
226.77132322898979
 20
375.40817530267532
 30
0.0
 11
226.77132322898979
 21
176.008175302675
 31
0.0
  0
LINE
  5
43A2D
  8
0
 10
235.7713232289916
 20
375.40817530267532
 30
0.0
 11
235.7713232289916
 21
176.008175302675
 31
0.0
  0
LINE
  5
43A2E
  8
0
 10
233.371323228992
 20
375.40817530267532
 30
0.0
 11
233.371323228992
 21
176.008175302675
 31
0.0
  0
LINE
  5
43A2F
  8
0
 10
215.2912088281191
 20
364.88685040101723
 30
0.0
 11
215.2912088281191
 21
186.52950020433309
 31
0.0
  0
LINE
  5
43A30
  8
0
 10
244.85143762986439
 20
364.88685040101723
 30
0.0
 11
244.85143762986439
 21
186.52950020433309
 31
0.0
  0
LINE
  5
43A31
  8
0
 10
213.62454216145119
 20
362.96870249686532
 30
0.0
 11
213.62454216145119
 21
188.44764810848571
 31
0.0
  0
LINE
  5
43A32
  8
0
 10
246.51810429653051
 20
362.96870249686532
 30
0.0
 11
246.51810429653051
 21
188.44764810848571
 31
0.0
  0
LINE
  5
43A33
  8
0
 10
211.95787549478339
 20
358.1283510340723
 30
0.0
 11
211.95787549478339
 21
193.2879995712785
 31
0.0
  0
LINE
  5
43A34
  8
0
 10
248.18477096319839
 20
358.1283510340723
 30
0.0
 11
248.18477096319839
 21
193.2879995712785
 31
0.0
  0
LINE
  5
43A35
  8
0
 10
205.07132322899091
 20
335.20614747543141
 30
0.0
 11
205.07132322899091
 21
216.21020312991939
 31
0.0
  0
LINE
  5
43A36
  8
0
 10
255.07132322899091
 20
335.20614747543141
 30
0.0
 11
255.07132322899091
 21
216.21020312991939
 31
0.0
  0
LINE
  5
43A37
  8
0
 10
201.07132322899091
 20
287.02969542569491
 30
0.0
 11
201.07132322899091
 21
264.38665517965552
 31
0.0
  0
LINE
  5
43A38
  8
0
 10
259.07132322899088
 20
287.02969542569491
 30
0.0
 11
259.07132322899088
 21
264.38665517965552
 31
0.0
  0
LINE
  5
43A45
  8
0
 10
202.466688518376
 20
288.52604150108391
 30
0.0
 11
202.466688518376
 21
262.89030910426641
 31
0.0
  0
LINE
  5
43A46
  8
0
 10
257.6759579396076
 20
288.52604150108391
 30
0.0
 11
257.6759579396076
 21
262.89030910426641
 31
0.0
  0
LINE
  5
43A5E
  8
0
 10
549.60135706417441
 20
660.32385432191222
 30
0.0
 11
560.60135706417623
 21
660.32385432191211
 31
0.0
  0
LINE
  5
43A5F
  8
0
 10
549.60135706417441
 20
660.32385432191211
 30
0.0
 11
551.60135706417623
 21
660.32385432191211
 31
0.0
  0
POLYLINE
  5
43A60
  8
0
 66
     1
 10
0.0
 20
0.0
 30
0.0
 70
   128
  0
VERTEX
  5
43CC5
  8
0
 10
557.0861846214766
 20
659.79608682458627
 30
0.0
  0
VERTEX
  5
43CC6
  8
0
 10
552.33253015729395
 20
660.18235141524622
 30
0.0
  0
VERTEX
  5
43CC7
  8
0
 10
549.60135706417441
 20
660.05818222550204
 30
0.0
  0
SEQEND
  5
43CC8
  8
0
  0
ARC
  5
43A61
  8
0
 10
559.57089354433538
 20
652.17799836851418
 30
0.0
 40
8.0130549827060307
 50
82.611411520654755
 51
108.06420841818409
  0
LINE
  5
43A62
  8
0
 10
557.0861846214766
 20
659.79608682458627
 30
0.0
 11
557.0861846214766
 21
650.85162181923772
 31
0.0
  0
POLYLINE
  5
43A63
  8
0
 66
     1
 10
0.0
 20
0.0
 30
0.0
 70
   128
  0
VERTEX
  5
43CC9
  8
0
 10
557.0861846214766
 20
650.85162181923772
 30
0.0
  0
VERTEX
  5
43CCA
  8
0
 10
557.94594104341104
 20
650.65047958766945
 30
0.0
  0
VERTEX
  5
43CCB
  8
0
 10
559.528954606193
 20
650.52450705223669
 30
0.0
  0
SEQEND
  5
43CCC
  8
0
  0
POLYLINE
  5
43A64
  8
0
 66
     1
 10
0.0
 20
0.0
 30
0.0
 70
   128
  0
VERTEX
  5
43CCD
  8
0
 10
550.68243117946349
 20
650.53720525839185
 30
0.0
  0
VERTEX
  5
43CCE
  8
0
 10
552.25957999973161
 20
650.4639316541826
 30
0.0
  0
VERTEX
  5
43CCF
  8
0
 10
557.0861846214766
 20
650.85162181923772
 30
0.0
  0
SEQEND
  5
43CD0
  8
0
  0
POLYLINE
  5
43A65
  8
0
 66
     1
 10
0.0
 20
0.0
 30
0.0
 70
   128
  0
VERTEX
  5
43CD1
  8
0
 10
557.0861846214766
 20
576.95162181923763
 30
0.0
  0
VERTEX
  5
43CD2
  8
0
 10
552.33253015729395
 20
576.56535722857768
 30
0.0
  0
VERTEX
  5
43CD3
  8
0
 10
549.60135706417441
 20
576.68952641832175
 30
0.0
  0
SEQEND
  5
43CD4
  8
0
  0
LINE
  5
43A66
  8
0
 10
557.0861846214766
 20
583.92385432191202
 30
0.0
 11
557.0861846214766
 21
576.95162181923763
 31
0.0
  0
ARC
  5
43A67
  8
0
 10
559.57089354433538
 20
584.56971027531188
 30
0.0
 40
8.0130549827078994
 50
251.93579158182931
 51
277.38858847934529
  0
LINE
  5
43A68
  8
0
 10
560.60135706417623
 20
576.42385432191202
 30
0.0
 11
549.60135706417441
 21
576.42385432191202
 31
0.0
  0
LINE
  5
43A6A
  8
0
 10
549.60135706417441
 20
660.62385432191184
 30
0.0
 11
549.60135706417441
 21
653.62385432191149
 31
0.0
  0
ARC
  5
43A6B
  8
0
 10
555.10135706417623
 20
653.62385432191149
 30
0.0
 40
5.4999999999999707
 50
180.0
 51
0.0
  0
LINE
  5
43A6C
  8
0
 10
560.60135706417623
 20
653.62385432191149
 30
0.0
 11
560.60135706417623
 21
660.62385432191184
 31
0.0
  0
ARC
  5
43A6D
  8
0
 10
555.10135706417623
 20
660.62385432191184
 30
0.0
 40
5.4999999999999707
 50
0.0
 51
180.0
  0
LINE
  5
43A6E
  8
0
 10
560.60135706417623
 20
573.62385432191161
 30
0.0
 11
560.60135706417623
 21
580.62385432191184
 31
0.0
  0
ARC
  5
43A6F
  8
0
 10
555.10135706417623
 20
580.62385432191184
 30
0.0
 40
5.4999999999999707
 50
0.0
 51
180.0
  0
LINE
  5
43A70
  8
0
 10
549.60135706417441
 20
580.62385432191184
 30
0.0
 11
549.60135706417441
 21
573.62385432191161
 31
0.0
  0
ARC
  5
43A71
  8
0
 10
555.10135706417623
 20
573.62385432191161
 30
0.0
 40
5.4999999999999707
 50
180.0
 51
0.0
  0
LINE
  5
43A72
  8
0
 10
665.60135706417623
 20
653.62385432191149
 30
0.0
 11
665.60135706417623
 21
660.62385432191184
 31
0.0
  0
ARC
  5
43A73
  8
0
 10
660.10135706417623
 20
660.62385432191184
 30
0.0
 40
5.4999999999999707
 50
0.0
 51
180.0
  0
LINE
  5
43A74
  8
0
 10
654.60135706417429
 20
660.62385432191184
 30
0.0
 11
654.60135706417429
 21
653.62385432191149
 31
0.0
  0
ARC
  5
43A75
  8
0
 10
660.10135706417623
 20
653.62385432191149
 30
0.0
 40
5.4999999999999707
 50
180.0
 51
0.0
  0
LINE
  5
43A76
  8
0
 10
654.60135706417429
 20
580.62385432191184
 30
0.0
 11
654.60135706417429
 21
573.62385432191161
 31
0.0
  0
ARC
  5
43A77
  8
0
 10
660.10135706417623
 20
573.62385432191161
 30
0.0
 40
5.4999999999999707
 50
180.0
 51
0.0
  0
LINE
  5
43A78
  8
0
 10
665.60135706417623
 20
573.62385432191161
 30
0.0
 11
665.60135706417623
 21
580.62385432191184
 31
0.0
  0
ARC
  5
43A79
  8
0
 10
660.10135706417623
 20
580.62385432191184
 30
0.0
 40
5.4999999999999707
 50
0.0
 51
180.0
  0
LINE
  5
43A7A
  8
0
 10
666.60135706417259
 20
672.12385432191127
 30
0.0
 11
548.60135706417623
 21
672.12385432191127
 31
0.0
  0
LINE
  5
43A7B
  8
0
 10
677.60135706417623
 20
573.12385432191491
 30
0.0
 11
677.60135706417623
 21
661.12385432191161
 31
0.0
  0
ARC
  5
43A7C
  8
0
 10
666.60135706417259
 20
573.12385432191491
 30
0.0
 40
11.000000000003491
 50
270.00000000001302
 51
0.0
  0
LINE
  5
43A7D
  8
0
 10
548.60135706417623
 20
562.12385432191138
 30
0.0
 11
666.60135706417623
 21
562.12385432191138
 31
0.0
  0
ARC
  5
43A7E
  8
0
 10
548.60135706417623
 20
573.12385432191184
 30
0.0
 40
11.00000000000008
 50
180.0
 51
270.0
  0
LINE
  5
43A7F
  8
0
 10
537.60135706417623
 20
661.12385432191161
 30
0.0
 11
537.60135706417623
 21
573.12385432191127
 31
0.0
  0
ARC
  5
43A80
  8
0
 10
548.60135706417623
 20
661.12385432191161
 30
0.0
 40
11.00000000000008
 50
90.0
 51
180.0
  0
ARC
  5
43A82
  8
0
 10
666.60135706417259
 20
661.12385432190774
 30
0.0
 40
11.00000000000356
 50
0.0000000000195413
 51
90.0
  0
LINE
  5
43A90
  8
0
 10
559.50135706417575
 20
650.32385432191143
 30
0.0
 11
550.70135706417466
 21
650.32385432191143
 31
0.0
  0
LINE
  5
43A91
  8
0
 10
559.50135706417575
 20
583.92385432191145
 30
0.0
 11
550.70135706417466
 21
583.92385432191145
 31
0.0
  0
LINE
  5
43A92
  8
0
 10
537.60135706417623
 20
583.92385432191145
 30
0.0
 11
491.11801756256949
 21
583.92385432191145
 31
0.0
  0
LINE
  5
43A93
  8
0
 10
491.11801756256949
 20
583.92385432191145
 30
0.0
 11
491.11801756257
 21
650.32385432191165
 31
0.0
  0
LINE
  5
43A96
  8
0
 10
537.60135706417623
 20
650.32385432191143
 30
0.0
 11
491.11801756256949
 21
650.32385432191165
 31
0.0
  0
ARC
  5
43AD8
  8
0
 10
551.60135706417623
 20
275.7081753026751
 30
0.0
 40
83.253509064729869
 50
95.248269699712694
 51
43.250809974914183
  0
ARC
  5
43AD9
  8
0
 10
551.60135706417623
 20
275.7081753026751
 30
0.0
 40
88.093860527522935
 50
94.574402762315273
 51
43.870608692675049
  0
ARC
  5
43ADA
  8
0
 10
551.60135706417623
 20
275.7081753026751
 30
0.0
 40
49.999999999999957
 50
103.5736540833794
 51
35.618187592979353
  0
ARC
  5
43ADB
  8
0
 10
551.60135706417623
 20
275.97304596679209
 30
0.0
 40
60.251195068558872
 50
99.952176027708589
 51
38.750917847168488
  0
ARC
  5
43ADC
  8
0
 10
551.60135706417623
 20
275.7081753026751
 30
0.0
 40
79.999999999999972
 50
95.748135750358657
 51
42.791205996896402
  0
ARC
  5
43ADD
  8
0
 10
551.60135706417623
 20
275.7081753026751
 30
0.0
 40
100.0
 50
93.624307494013095
 51
45.136063808904602
  0
LINE
  5
43AE7
  8
0
 10
451.60135706417623
 20
620.12385432191331
 30
0.0
 11
451.60135706417623
 21
614.12385432191331
 31
0.0
  0
ARC
  5
43AE8
  8
0
 10
451.9013570641755
 20
620.12385432191331
 30
0.0
 40
0.3000000000000074
 50
90.0
 51
180.0
  0
LINE
  5
43AE9
  8
0
 10
451.9013570641755
 20
622.82385432191313
 30
0.0
 11
451.9013570641755
 21
620.42385432191338
 31
0.0
  0
ARC
  5
43AEA
  8
0
 10
451.9013570641755
 20
623.12385432191331
 30
0.0
 40
0.3000000000000114
 50
180.0
 51
270.0
  0
LINE
  5
43AEB
  8
0
 10
451.60135706417623
 20
627.63745672242965
 30
0.0
 11
451.60135706417623
 21
623.12385432191331
 31
0.0
  0
ARC
  5
43AEC
  8
0
 10
452.60135706417623
 20
627.63745672242965
 30
0.0
 40
1.0000000000000191
 50
109.0000000000432
 51
180.0
  0
LINE
  5
43AED
  8
0
 10
461.11801756256949
 20
631.62759878622683
 30
0.0
 11
452.2757889097183
 21
628.58297529802894
 31
0.0
  0
LINE
  5
43AEE
  8
0
 10
452.2757889097183
 20
605.66473334579757
 30
0.0
 11
461.11801756256949
 21
602.62010985760162
 31
0.0
  0
ARC
  5
43AEF
  8
0
 10
452.60135706417623
 20
606.61025192139675
 30
0.0
 40
1.000000000000014
 50
180.0
 51
250.9999999999568
  0
LINE
  5
43AF0
  8
0
 10
451.60135706417623
 20
611.1238543219132
 30
0.0
 11
451.60135706417623
 21
606.61025192139675
 31
0.0
  0
ARC
  5
43AF1
  8
0
 10
451.9013570641755
 20
611.1238543219132
 30
0.0
 40
0.3000000000000087
 50
90.0
 51
180.0
  0
LINE
  5
43AF2
  8
0
 10
451.9013570641755
 20
613.82385432191313
 30
0.0
 11
451.9013570641755
 21
611.42385432191338
 31
0.0
  0
ARC
  5
43AF3
  8
0
 10
451.9013570641755
 20
614.12385432191331
 30
0.0
 40
0.3000000000000114
 50
180.0
 51
270.0
  0
LINE
  5
43AF4
  8
0
 10
461.11801756256949
 20
620.42385432191338
 30
0.0
 11
451.9013570641755
 21
620.42385432191338
 31
0.0
  0
LINE
  5
43AF5
  8
0
 10
461.11801756256949
 20
622.82385432191313
 30
0.0
 11
451.9013570641755
 21
622.82385432191313
 31
0.0
  0
LINE
  5
43AF6
  8
0
 10
461.11801756256949
 20
611.42385432191338
 30
0.0
 11
451.9013570641755
 21
611.42385432191338
 31
0.0
  0
LINE
  5
43AF7
  8
0
 10
461.11801756256949
 20
613.82385432191313
 30
0.0
 11
451.9013570641755
 21
613.82385432191313
 31
0.0
  0
LINE
  5
43AF8
  8
0
 10
488.11801756256949
 20
602.12385432191275
 30
0.0
 11
488.11801756256949
 21
632.12385432191275
 31
0.0
  0
LINE
  5
43AF9
  8
0
 10
491.11801756256949
 20
592.12385432191286
 30
0.0
 11
468.11801756256949
 21
592.12385432191286
 31
0.0
  0
LINE
  5
43AFA
  8
0
 10
491.11801756256949
 20
642.12385432191286
 30
0.0
 11
468.11801756256949
 21
642.12385432191286
 31
0.0
  0
LINE
  5
43AFB
  8
0
 10
461.11801756256949
 20
602.12385432191275
 30
0.0
 11
461.11801756256949
 21
632.12385432191513
 31
0.0
  0
LINE
  5
43AFC
  8
0
 10
491.11801756256949
 20
602.12385432191275
 30
0.0
 11
488.11801756256949
 21
602.12385432191275
 31
0.0
  0
LINE
  5
43AFD
  8
0
 10
491.11801756256949
 20
632.12385432191275
 30
0.0
 11
488.11801756256949
 21
632.12385432191275
 31
0.0
  0
ARC
  5
43AFE
  8
0
 10
474.50065385394828
 20
604.04169972587795
 30
0.0
 40
13.519359640931841
 50
188.155443852106
 51
241.82859654494669
  0
ARC
  5
43AFF
  8
0
 10
474.50065385394828
 20
630.20600891794766
 30
0.0
 40
13.519359640931841
 50
118.17140345505329
 51
171.844556147894
  0
LINE
  5
43B00
  8
0
 10
468.11801756256949
 20
592.12385432191286
 30
0.0
 11
468.11801756256949
 21
642.12385432191286
 31
0.0
  0
LINE
  5
43B04
  8
0
 10
488.11801756257341
 20
389.635264436809
 30
0.0
 11
488.50949742114648
 21
386.46447271350939
 31
0.0
  0
LINE
  5
43B05
  8
0
 10
490.96022993384861
 20
389.98617644688062
 30
0.0
 11
488.11801756257341
 21
389.635264436809
 31
0.0
  0
LINE
  5
43B06
  8
0
 10
490.96022993384861
 20
389.98617644688022
 30
0.0
 11
491.18587480208703
 21
388.15856548567808
 31
0.0
  0
LINE
  5
43B07
  8
0
 10
491.18587480208703
 20
388.15856548567859
 30
0.0
 11
491.2673147173918
 21
388.15099073545338
 31
0.0
  0
LINE
  5
43B08
  8
0
 10
461.11801756257222
 20
389.47939130003903
 30
0.0
 11
468.09460236675108
 21
385.30494368981232
 31
0.0
  0
LINE
  5
43B09
  8
0
 10
462.4016550911237
 20
391.62468258452611
 30
0.0
 11
461.11801756257222
 21
389.47939130003903
 31
0.0
  0
LINE
  5
43B0A
  8
0
 10
468.09460236675108
 20
388.21830097849312
 30
0.0
 11
462.4016550911237
 21
391.62468258452611
 31
0.0
  0
LINE
  5
43B0B
  8
0
 10
491.7948422414342
 20
386.18223121333602
 30
0.0
 11
468.09460236675108
 21
388.21830097849312
 31
0.0
  0
LINE
  5
43B0C
  8
0
 10
468.09460236675108
 20
385.30494368981232
 30
0.0
 11
492.63802786440328
 21
383.03541962820458
 31
0.0
  0
LINE
  5
43B0D
  8
1
 10
607.60135706417623
 20
430.70817530267499
 30
0.0
 11
607.60135706417623
 21
378.47995417542029
 31
0.0
  0
LINE
  5
43B0E
  8
1
 10
436.60135706417611
 20
275.7081753026751
 30
0.0
 11
666.60135706417623
 21
275.7081753026751
 31
0.0
  0
LINE
  5
43B0F
  8
1
 10
551.60135706417623
 20
160.70817530267499
 30
0.0
 11
551.60135706417623
 21
390.70817530267499
 31
0.0
  0
LINE
  5
43B10
  8
1
 10
551.60135706417623
 20
552.65890165170572
 30
0.0
 11
551.60135706417623
 21
681.58880699212057
 31
0.0
  0
LINE
  5
43B11
  8
1
 10
436.60135706417611
 20
617.1238543219132
 30
0.0
 11
692.60135706417623
 21
617.12385432191331
 31
0.0
  0
LINE
  5
43B12
  8
1
 10
607.60135706417566
 20
547.12385432191343
 30
0.0
 11
607.60135706417623
 21
687.12385432191331
 31
0.0
  0
LINE
  5
43B13
  8
1
 10
651.60135706417623
 20
580.62385432191331
 30
0.0
 11
668.60135706417623
 21
580.62385432191331
 31
0.0
  0
LINE
  5
43B14
  8
1
 10
660.10135706417623
 20
565.1238543219132
 30
0.0
 11
660.10135706417623
 21
589.12385432191331
 31
0.0
  0
LINE
  5
43B15
  8
1
 10
651.60135706417623
 20
573.6238543219132
 30
0.0
 11
668.60135706417623
 21
573.6238543219132
 31
0.0
  0
LINE
  5
43B16
  8
1
 10
651.60135706417623
 20
653.62385432191331
 30
0.0
 11
668.60135706417623
 21
653.62385432191331
 31
0.0
  0
LINE
  5
43B17
  8
1
 10
660.10135706417623
 20
645.12385432191331
 30
0.0
 11
660.10135706417623
 21
669.12385432191331
 31
0.0
  0
LINE
  5
43B18
  8
1
 10
651.60135706417623
 20
660.62385432191331
 30
0.0
 11
668.60135706417623
 21
660.62385432191331
 31
0.0
  0
LINE
  5
43B19
  8
1
 10
546.60135706417623
 20
573.6238543219132
 30
0.0
 11
563.60135706417623
 21
573.6238543219132
 31
0.0
  0
LINE
  5
43B1A
  8
1
 10
555.10135706417623
 20
565.1238543219132
 30
0.0
 11
555.10135706417623
 21
589.12385432191331
 31
0.0
  0
LINE
  5
43B1B
  8
1
 10
546.60135706417623
 20
580.62385432191331
 30
0.0
 11
563.60135706417623
 21
580.62385432191331
 31
0.0
  0
LINE
  5
43B1C
  8
1
 10
546.60135706417623
 20
660.62385432191331
 30
0.0
 11
563.60135706417623
 21
660.62385432191331
 31
0.0
  0
LINE
  5
43B1D
  8
1
 10
555.10135706417623
 20
645.12385432191331
 30
0.0
 11
555.10135706417623
 21
669.12385432191331
 31
0.0
  0
LINE
  5
43B1E
  8
1
 10
546.60135706417623
 20
653.62385432191331
 30
0.0
 11
563.60135706417623
 21
653.62385432191331
 31
0.0
  0
LINE
  5
43B20
  8
1
 10
180.67132322899209
 20
275.70817530267527
 30
0.0
 11
279.47132322899142
 21
275.70817530267527
 31
0.0
  0
LINE
  5
43B21
  8
1
 10
230.07132322899179
 20
430.70817530267527
 30
0.0
 11
230.07132322899179
 21
160.7081753026753
 31
0.0
  0
LINE
  5
43B82
  8
0
 10
185.2713232289916
 20
269.70817530267527
 30
0.0
 11
185.2713232289916
 21
281.70817530267527
 31
0.0
  0
LINE
  5
43B83
  8
0
 10
183.2713232289916
 20
279.70817530267527
 30
0.0
 11
185.2713232289916
 21
281.70817530267527
 31
0.0
  0
LINE
  5
43B84
  8
0
 10
183.2713232289916
 20
271.70817530267527
 30
0.0
 11
185.2713232289916
 21
269.70817530267527
 31
0.0
  0
LINE
  5
43B85
  8
0
 10
186.871323228992
 20
269.70817530267527
 30
0.0
 11
185.2713232289916
 21
269.70817530267527
 31
0.0
  0
LINE
  5
43B86
  8
3
 10
186.8713232289922
 20
270.65517530267527
 30
0.0
 11
184.3243232289914
 21
270.65517530267527
 31
0.0
  0
LINE
  5
43B87
  8
3
 10
186.871323228992
 20
280.76117530267533
 30
0.0
 11
184.32432322899169
 21
280.76117530267533
 31
0.0
  0
LINE
  5
43B88
  8
0
 10
186.871323228992
 20
281.70817530267527
 30
0.0
 11
185.2713232289916
 21
281.70817530267527
 31
0.0
  0
LINE
  5
43B89
  8
0
 10
183.2713232289916
 20
271.70817530267527
 30
0.0
 11
183.2713232289916
 21
279.70817530267527
 31
0.0
  0
LINE
  5
43B92
  8
0
 10
917.93139089936176
 20
269.70817530267527
 30
0.0
 11
917.93139089936176
 21
281.70817530267527
 31
0.0
  0
LINE
  5
43B93
  8
0
 10
919.93139089936176
 20
279.70817530267527
 30
0.0
 11
917.93139089936176
 21
281.70817530267527
 31
0.0
  0
LINE
  5
43B94
  8
0
 10
919.93139089936176
 20
271.70817530267527
 30
0.0
 11
917.93139089936176
 21
269.70817530267527
 31
0.0
  0
LINE
  5
43B95
  8
0
 10
916.33139089936128
 20
269.70817530267527
 30
0.0
 11
917.93139089936176
 21
269.70817530267527
 31
0.0
  0
LINE
  5
43B96
  8
3
 10
916.33139089936128
 20
270.65517530267527
 30
0.0
 11
918.87839089936176
 21
270.65517530267527
 31
0.0
  0
LINE
  5
43B97
  8
3
 10
916.33139089936128
 20
280.76117530267533
 30
0.0
 11
918.87839089936176
 21
280.76117530267533
 31
0.0
  0
LINE
  5
43B98
  8
0
 10
916.33139089936128
 20
281.70817530267527
 30
0.0
 11
917.93139089936176
 21
281.70817530267527
 31
0.0
  0
LINE
  5
43B99
  8
0
 10
919.93139089936176
 20
271.70817530267527
 30
0.0
 11
919.93139089936176
 21
279.70817530267527
 31
0.0
  0
LINE
  5
43B9A
  8
0
 10
255.07132322899091
 20
383.03541962820458
 30
0.0
 11
205.07132322899091
 21
383.03541962820498
 31
0.0
  0
LINE
  5
43B9B
  8
0
 10
255.07132322899091
 20
391.62468258452611
 30
0.0
 11
255.07132322899091
 21
383.03541962820458
 31
0.0
  0
LINE
  5
43B9C
  8
0
 10
205.07132322899091
 20
391.62468258452611
 30
0.0
 11
205.07132322899091
 21
383.04958677678871
 31
0.0
  0
LINE
  5
43B9D
  8
0
 10
255.07132322899091
 20
391.62468258452611
 30
0.0
 11
205.07132322899091
 21
391.62468258452611
 31
0.0
  0
LINE
  5
43B9E
  8
0
 10
205.07132322899091
 20
389.47939130003903
 30
0.0
 11
255.07132322899091
 21
389.47939130003903
 31
0.0
  0
LINE
  5
43BA1
  8
0
 10
898.13139089936158
 20
383.67854617122703
 30
0.0
 11
898.13139089936158
 21
383.99815891277473
 31
0.0
  0
LINE
  5
43BA2
  8
0
 10
848.13139089936158
 20
383.67854617122703
 30
0.0
 11
848.13139089936158
 21
383.99815891277638
 31
0.0
  0
LINE
  5
43BA3
  8
1
 10
823.73139089936092
 20
275.70817530267527
 30
0.0
 11
922.5313908993603
 21
275.70817530267527
 31
0.0
  0
LINE
  5
43BA4
  8
1
 10
873.13139089936067
 20
430.70817530267527
 30
0.0
 11
873.13139089936067
 21
160.7081753026753
 31
0.0
  0
CIRCLE
  5
43BA5
  8
0
 10
607.60135706417623
 20
617.12385432191331
 30
0.0
 40
10.925000000000001
  0
CIRCLE
  5
43BA6
  8
0
 10
607.60135706417623
 20
617.12385432191331
 30
0.0
 40
15.57900689360917
  0
CIRCLE
  5
43BA7
  8
0
 10
607.60135706417623
 20
617.12385432191331
 30
0.0
 40
22.175000000000001
  0
CIRCLE
  5
43BA8
  8
0
 10
607.60135706417623
 20
617.12385432191331
 30
0.0
 40
25.802288713680468
  0
CIRCLE
  5
43BA9
  8
0
 10
607.60135706417623
 20
617.12385432191331
 30
0.0
 40
27.66854682270689
  0
CIRCLE
  5
43BAA
  8
0
 10
607.60135706417623
 20
617.12385432191331
 30
0.0
 40
29.174999999999269
  0
CIRCLE
  5
43BAB
  8
0
 10
607.60135706417623
 20
617.12385432191331
 30
0.0
 40
31.175000000000001
  0
LINE
  5
43BAF
  8
0
 10
549.75720137782139
 20
661.92385432191236
 30
0.0
 11
557.601357064176
 21
661.92385432191236
 31
0.0
  0
LINE
  5
43BB0
  8
0
 10
555.60135706417589
 20
663.92385432191236
 30
0.0
 11
557.601357064176
 21
661.92385432191236
 31
0.0
  0
LINE
  5
43BB4
  8
3
 10
556.65435706417634
 20
660.32385432191211
 30
0.0
 11
556.65435706417634
 21
662.87085432191225
 31
0.0
  0
LINE
  5
43BB5
  8
0
 10
557.601357064176
 20
660.32385432191211
 30
0.0
 11
557.601357064176
 21
661.92385432191236
 31
0.0
  0
LINE
  5
43BB6
  8
0
 10
550.70135706417682
 20
663.92385432191236
 30
0.0
 11
555.60135706417589
 21
663.92385432191236
 31
0.0
  0
ARC
  5
43C02
  8
0
 10
551.60135706417623
 20
275.7081753026751
 30
0.0
 40
14.048902179152639
 50
223.19860256332021
 51
316.80139743667979
  0
ARC
  5
43C03
  8
0
 10
551.60135706417623
 20
275.7081753026751
 30
0.0
 40
12.81786619840879
 50
231.17252613308429
 51
308.8274738669158
  0
ARC
  5
43C04
  8
0
 10
551.60135706417623
 20
275.7081753026751
 30
0.0
 40
11.321520123019569
 50
242.0398147148106
 51
297.96018528518943
  0
TEXT
  5
43C60
  8
0
 62
     3
 10
0.0
 20
0.0
 30
0.0
 40
10.0
  1
CAE3-200SBF
  7
STANDARD1
  0
ENDSEC
  0
EOF
