  0
SECTION
  2
HEADER
  9
$ACADVER
  1
AC1009
  9
$INSBASE
 10
0.0
 20
0.0
 30
0.0
  9
$EXTMIN
 10
0.0
 20
-2.960436562073669
 30
0.0
  9
$EXTMAX
 10
930.15151755388058
 20
685.11538129395831
 30
0.0
  9
$LIMMIN
 10
0.0
 20
0.0
  9
$LIMMAX
 10
375.0
 20
270.0
  9
$ORTHOMODE
 70
     1
  9
$REGENMODE
 70
     1
  9
$FILLMODE
 70
     1
  9
$QTEXTMODE
 70
     0
  9
$MIRRTEXT
 70
     1
  9
$DRAGMODE
 70
     2
  9
$LTSCALE
 40
10.0
  9
$OSMODE
 70
  3071
  9
$ATTMODE
 70
     1
  9
$TEXTSIZE
 40
5.0
  9
$TRACEWID
 40
0.05
  9
$TEXTSTYLE
  7
STANDARD
  9
$CLAYER
  8
0
  9
$CELTYPE
  6
BYLAYER
  9
$CECOLOR
 62
     6
  9
$DIMSCALE
 40
2.0
  9
$DIMASZ
 40
3.0
  9
$DIMEXO
 40
2.0
  9
$DIMDLI
 40
0.38
  9
$DIMRND
 40
0.0
  9
$DIMDLE
 40
0.0
  9
$DIMEXE
 40
2.0
  9
$DIMTP
 40
0.0
  9
$DIMTM
 40
0.0
  9
$DIMTXT
 40
3.2000000000000002
  9
$DIMCEN
 40
0.0
  9
$DIMTSZ
 40
0.0
  9
$DIMTOL
 70
     0
  9
$DIMLIM
 70
     0
  9
$DIMTIH
 70
     0
  9
$DIMTOH
 70
     0
  9
$DIMSE1
 70
     0
  9
$DIMSE2
 70
     0
  9
$DIMTAD
 70
     1
  9
$DIMZIN
 70
     8
  9
$DIMBLK
  1

  9
$DIMASO
 70
     0
  9
$DIMSHO
 70
     0
  9
$DIMPOST
  1

  9
$DIMAPOST
  1

  9
$DIMALT
 70
     0
  9
$DIMALTD
 70
     2
  9
$DIMALTF
 40
25.399999999999999
  9
$DIMLFAC
 40
1.0
  9
$DIMTOFL
 70
     0
  9
$DIMTVP
 40
1.6000000000000001
  9
$DIMTIX
 70
     1
  9
$DIMSOXD
 70
     0
  9
$DIMSAH
 70
     0
  9
$DIMBLK1
  1

  9
$DIMBLK2
  1

  9
$DIMSTYLE
  2
STANDARD
  9
$DIMCLRD
 70
     0
  9
$DIMCLRE
 70
     0
  9
$DIMCLRT
 70
     0
  9
$DIMTFAC
 40
1.0
  9
$DIMGAP
 40
1.1999999999999991
  9
$LUNITS
 70
     2
  9
$LUPREC
 70
     4
  9
$SKETCHINC
 40
0.1
  9
$FILLETRAD
 40
0.0
  9
$AUNITS
 70
     0
  9
$AUPREC
 70
     4
  9
$MENU
  1
ACAD
  9
$ELEVATION
 40
0.0
  9
$PELEVATION
 40
0.0
  9
$THICKNESS
 40
0.0
  9
$LIMCHECK
 70
     0
  9
$BLIPMODE
 70
     0
  9
$CHAMFERA
 40
0.0
  9
$CHAMFERB
 40
0.0
  9
$SKPOLY
 70
     0
  9
$TDCREATE
 40
2448055.7149187499
  9
$TDUPDATE
 40
2456598.5595167591
  9
$TDINDWG
 40
3.5518182060000001
  9
$TDUSRTIMER
 40
3.5518182060000001
  9
$USRTIMER
 70
     1
  9
$ANGBASE
 50
0.0
  9
$ANGDIR
 70
     0
  9
$PDMODE
 70
     0
  9
$PDSIZE
 40
0.0
  9
$PLINEWID
 40
0.0
  9
$COORDS
 70
     1
  9
$SPLFRAME
 70
     0
  9
$SPLINETYPE
 70
     6
  9
$SPLINESEGS
 70
     8
  9
$ATTDIA
 70
     0
  9
$ATTREQ
 70
     1
  9
$HANDLING
 70
     1
  9
$HANDSEED
  5
388A0
  9
$SURFTAB1
 70
     6
  9
$SURFTAB2
 70
     6
  9
$SURFTYPE
 70
     6
  9
$SURFU
 70
     6
  9
$SURFV
 70
     6
  9
$UCSNAME
  2

  9
$UCSORG
 10
0.0
 20
0.0
 30
0.0
  9
$UCSXDIR
 10
1.0
 20
0.0
 30
0.0
  9
$UCSYDIR
 10
0.0
 20
1.0
 30
0.0
  9
$PUCSNAME
  2

  9
$PUCSORG
 10
0.0
 20
0.0
 30
0.0
  9
$PUCSXDIR
 10
1.0
 20
0.0
 30
0.0
  9
$PUCSYDIR
 10
0.0
 20
1.0
 30
0.0
  9
$USERI1
 70
     0
  9
$USERI2
 70
     0
  9
$USERI3
 70
     0
  9
$USERI4
 70
     0
  9
$USERI5
 70
     0
  9
$USERR1
 40
0.0
  9
$USERR2
 40
0.0
  9
$USERR3
 40
0.0
  9
$USERR4
 40
0.0
  9
$USERR5
 40
0.0
  9
$WORLDVIEW
 70
     1
  9
$SHADEDGE
 70
     3
  9
$SHADEDIF
 70
    70
  9
$TILEMODE
 70
     1
  9
$MAXACTVP
 70
    16
  9
$PLIMCHECK
 70
     0
  9
$PEXTMIN
 10
1.0000000000000000E+020
 20
1.0000000000000000E+020
 30
1.0000000000000000E+020
  9
$PEXTMAX
 10
-1.0000000000000000E+020
 20
-1.0000000000000000E+020
 30
-1.0000000000000000E+020
  9
$PLIMMIN
 10
0.0
 20
0.0
  9
$PLIMMAX
 10
12.0
 20
9.0
  9
$UNITMODE
 70
     0
  9
$VISRETAIN
 70
     0
  9
$PLINEGEN
 70
     1
  9
$PSLTSCALE
 70
     0
  0
ENDSEC
  0
SECTION
  2
TABLES
  0
TABLE
  2
VPORT
 70
     1
  0
VPORT
  2
*ACTIVE
 70
     0
 10
0.0
 20
0.0
 11
1.0
 21
1.0
 12
484.14328293075567
 22
341.06799281055748
 13
0.0
 23
0.0
 14
5.0
 24
5.0
 15
10.0
 25
10.0
 16
0.0
 26
0.0
 36
1.0
 17
0.0
 27
0.0
 37
0.0
 40
694.3082249477161
 41
1.831871345029239
 42
50.0
 43
0.0
 44
0.0
 50
0.0
 51
0.0
 71
     0
 72
   500
 73
     1
 74
     1
 75
     0
 76
     0
 77
     0
 78
     2
  0
ENDTAB
  0
TABLE
  2
LTYPE
 70
     4
  0
LTYPE
  2
CONTINUOUS
 70
     0
  3
実線
 72
    65
 73
     0
 40
0.0
  0
LTYPE
  2
CENTER
 70
     0
  3
____ _ ____ _ ____ _ ____ _ ____ _ ____ _ ____
 72
    65
 73
     4
 40
2.0
 49
1.25
 49
-0.25
 49
0.25
 49
-0.25
  0
LTYPE
  2
HIDDEN
 70
     0
  3
_ _ _ _ _ _ _ _ _ _ _ _ _ _ _ _ _ _ _ _ _ _ _
 72
    65
 73
     2
 40
0.375
 49
0.25
 49
-0.125
  0
LTYPE
  2
PHANTOM2
 70
     0
  3
___ _ _ ___ _ _ ___ _ _ ___ _ _
 72
    65
 73
     6
 40
1.25
 49
0.625
 49
-0.125
 49
0.125
 49
-0.125
 49
0.125
 49
-0.125
  0
ENDTAB
  0
TABLE
  2
LAYER
 70
     5
  0
LAYER
  2
0
 70
     0
 62
     7
  6
CONTINUOUS
  0
LAYER
  2
1
 70
     0
 62
     1
  6
CENTER
  0
LAYER
  2
2
 70
     0
 62
     2
  6
HIDDEN
  0
LAYER
  2
DEFPOINTS
 70
     0
 62
     7
  6
CONTINUOUS
  0
LAYER
  2
3
 70
     0
 62
     3
  6
CONTINUOUS
  0
ENDTAB
  0
TABLE
  2
STYLE
 70
     3
  0
STYLE
  2
STANDARD
 70
     0
 40
0.0
 41
1.0
 50
0.0
 71
     0
 42
5.0
  3
simplex.shx
  4
bigfont.shx
  0
STYLE
  2
07500
 70
     0
 40
0.0
 41
0.75
 50
0.0
 71
     0
 42
0.2
  3
simplex.shx
  4
bigfont.shx
  0
STYLE
  2
STANDARD1
 70
     0
 40
0.0
 41
1.0
 50
0.0
 71
     0
 42
3.0
  3
txt
  4

  0
ENDTAB
  0
TABLE
  2
VIEW
 70
     2
  0
VIEW
  2
ALL
 70
     0
 40
270.0
 10
220.99159663865549
 20
135.0
 41
0.0
 11
0.0
 21
0.0
 31
1.0
 12
0.0
 22
0.0
 32
0.0
 42
0.0
 43
0.0
 44
0.0
 50
0.0
 71
     0
  0
VIEW
  2
OLE1
 70
     0
 40
168.2487151179721
 10
2892.3009567448912
 20
702.51600084347126
 41
162.5749581879237
 11
0.0
 21
0.0
 31
1.0
 12
0.0
 22
0.0
 32
0.0
 42
50.0
 43
0.0
 44
0.0
 50
0.0
 71
     0
  0
ENDTAB
  0
TABLE
  2
UCS
 70
     0
  0
ENDTAB
  0
TABLE
  2
APPID
 70
    48
  0
APPID
  2
ACAD
 70
     0
  0
APPID
  2
DCO15
 70
     0
  0
APPID
  2
GENIUS_GENOREF_13
 70
     0
  0
APPID
  2
GENIUS_GENOENT_13
 70
     0
  0
APPID
  2
GENIUS_GENBH_13
 70
     0
  0
APPID
  2
GENIUS_GENOBJ_13
 70
     0
  0
APPID
  2
GENIUS_GENODEF_13
 70
     0
  0
APPID
  2
GENIUS_GENOLIS_13
 70
     0
  0
APPID
  2
GENIUS_GENOBJ-NBEHI-BHF_13
 70
     0
  0
APPID
  2
GENIUS_GENOBJ-NBEHI-BHB_13
 70
     0
  0
APPID
  2
GENIUS_GENOBJ-F-PART_13
 70
     0
  0
APPID
  2
GENIUS_GEFSTDP_13
 70
     0
  0
APPID
  2
GENIUS_GENOBJ-N-RSSYM_13
 70
     0
  0
APPID
  2
GENIUS_GENSYMENT_13
 70
     0
  0
APPID
  2
GENIUS_GENOBJ-N-TIT_13
 70
     0
  0
APPID
  2
GENIUS_GENTITLE_13
 70
     0
  0
APPID
  2
GENIUS_GENZVEED_13
 70
     0
  0
APPID
  2
GENIUS_GENOBJ-N-LEADER_13
 70
     0
  0
APPID
  2
GENIUS_GENOBJ-N-FIL_13
 70
     0
  0
APPID
  2
GENIUS_GENOBJ-N-SEC_13
 70
     0
  0
APPID
  2
GENIUS_GENOBJ-N-CRS_13
 70
     0
  0
APPID
  2
GENIUS_GENOBJ-N-ZOO_13
 70
     0
  0
APPID
  2
GENIUS_GENZOO_13
 70
     0
  0
APPID
  2
GENIUS_GENOBJ-F-TOL_13
 70
     0
  0
APPID
  2
GENIUS_GENFIL_13
 70
     0
  0
APPID
  2
GENIUS_GENOBJ-N-CHA_13
 70
     0
  0
APPID
  2
_CALL_MAC$
 70
     0
  0
APPID
  2
ASM_BASE
 70
     0
  0
APPID
  2
ASM_EXPLO_VER_2_00
 70
     0
  0
APPID
  2
ASM_CADM_VER_12_00
 70
     0
  0
APPID
  2
ASM_BASEFORO
 70
     0
  0
APPID
  2
ASM_BASETRAVI
 70
     0
  0
APPID
  2
ASM_BASETRAVI1
 70
     0
  0
APPID
  2
ASM_GRUPPI
 70
     0
  0
APPID
  2
ASM_CADM_ALBERO
 70
     0
  0
APPID
  2
ASM_GOLE
 70
     0
  0
APPID
  2
ACAD_MLEADERVER
 70
     0
  0
APPID
  2
ACAD_DSTYLE_DIMJAG
 70
     0
  0
APPID
  2
ACAD_DSTYLE_DIMTALN
 70
     0
  0
APPID
  2
ACAD_EXEMPT_FROM_CAD_STANDARDS
 70
     0
  0
APPID
  2
ACAD_DSTYLE_DIMRADIAL_EXTENSION
 70
     0
  0
APPID
  2
ACAD_PSEXT
 70
     0
  0
APPID
  2
ACAD_DSTYLE_DIMBREAK
 70
     0
  0
APPID
  2
ACAECLAYERSTANDARD
 70
     0
  0
APPID
  2
ACCMTRANSPARENCY
 70
     0
  0
APPID
  2
GRADIENTCOLOR1ACI
 70
     0
  0
APPID
  2
GRADIENTCOLOR2ACI
 70
     0
  0
APPID
  2
ACAD_NAV_VCDISPLAY
 70
     0
  0
ENDTAB
  0
TABLE
  2
DIMSTYLE
 70
     1
  0
DIMSTYLE
  2
STANDARD
 70
     0
  3

  4

  5

  6

  7

 40
1.0
 41
0.18
 42
0.0625
 43
0.38
 44
0.18
 45
0.0
 46
0.0
 47
0.0
 48
0.0
140
0.18
141
0.09
142
0.0
143
25.399999999999999
144
1.0
145
0.0
146
1.0
147
0.09
 71
     0
 72
     0
 73
     1
 74
     1
 75
     0
 76
     0
 77
     0
 78
     0
170
     0
171
     2
172
     0
173
     0
174
     0
175
     0
176
     0
177
     0
178
     0
  0
ENDTAB
  0
ENDSEC
  0
SECTION
  2
BLOCKS
  0
BLOCK
  8
0
  2
$MODEL_SPACE
 70
     0
 10
0.0
 20
0.0
 30
0.0
  3
$MODEL_SPACE
  1

  0
ENDBLK
  5
36
  8
0
  0
BLOCK
 67
     1
  8
0
  2
$PAPER_SPACE
 70
     0
 10
0.0
 20
0.0
 30
0.0
  3
$PAPER_SPACE
  1

  0
ENDBLK
  5
34
 67
     1
  8
0
  0
ENDSEC
  0
SECTION
  2
ENTITIES
  0
LINE
  5
35F4E
  8
0
 10
259.57132322899179
 20
393.20817530267499
 30
0.0
 11
200.57132322899179
 21
393.20817530267499
 31
0.0
  0
LINE
  5
35F4F
  8
0
 10
264.07132322899179
 20
371.7081753026751
 30
0.0
 11
259.57132322899179
 21
371.7081753026751
 31
0.0
  0
LINE
  5
35F50
  8
0
 10
200.57132322899179
 20
371.7081753026751
 30
0.0
 11
196.07132322899179
 21
371.7081753026751
 31
0.0
  0
LINE
  5
35F52
  8
0
 10
264.07132322899179
 20
397.90817530267492
 30
0.0
 11
264.07132322899179
 21
284.22448931527651
 31
0.0
  0
LINE
  5
35F53
  8
0
 10
196.07132322899179
 20
397.90817530267492
 30
0.0
 11
264.07132322899179
 21
397.90817530267492
 31
0.0
  0
LINE
  5
35F54
  8
0
 10
196.07132322899179
 20
284.22448931527651
 30
0.0
 11
196.07132322899179
 21
397.90817530267492
 31
0.0
  0
LINE
  5
35F55
  8
0
 10
182.57132322899179
 20
331.79147820410248
 30
0.0
 11
182.57132322899179
 21
399.90817530267492
 31
0.0
  0
LINE
  5
35F56
  8
0
 10
277.57132322899179
 20
399.90817530267492
 30
0.0
 11
277.57132322899179
 21
331.79147820410248
 31
0.0
  0
LINE
  5
35F57
  8
0
 10
217.32132322899179
 20
408.40817530267481
 30
0.0
 11
217.32132322899179
 21
411.70817530267499
 31
0.0
  0
LINE
  5
35F58
  8
0
 10
242.82132322899179
 20
411.70817530267499
 30
0.0
 11
242.82132322899179
 21
408.40817530267481
 31
0.0
  0
ARC
  5
35F59
  8
0
 10
270.42132322899221
 20
405.40817530267481
 30
0.0
 40
3.000000000000028
 50
0.0
 51
90.0
  0
ARC
  5
35F5A
  8
0
 10
189.7213232289923
 20
405.40817530267481
 30
0.0
 40
3.000000000000036
 50
90.0
 51
180.0
  0
LINE
  5
35F5B
  8
0
 10
186.72132322899139
 20
404.90817530267481
 30
0.0
 11
186.72132322899139
 21
405.40817530267481
 31
0.0
  0
LINE
  5
35F5C
  8
0
 10
273.42132322899209
 20
405.40817530267481
 30
0.0
 11
273.42132322899209
 21
404.90817530267481
 31
0.0
  0
ARC
  5
35F5D
  8
0
 10
277.07132322899179
 20
400.90817530267481
 30
0.0
 40
4.000000000000056
 50
0.0
 51
90.0
  0
ARC
  5
35F5E
  8
0
 10
183.07132322899179
 20
400.90817530267481
 30
0.0
 40
4.0000000000000488
 50
90.0
 51
180.0
  0
LINE
  5
35F5F
  8
0
 10
179.07132322899179
 20
399.90817530267492
 30
0.0
 11
179.07132322899179
 21
400.90817530267481
 31
0.0
  0
LINE
  5
35F60
  8
0
 10
281.07132322899179
 20
400.90817530267481
 30
0.0
 11
281.07132322899179
 21
399.90817530267492
 31
0.0
  0
LINE
  5
35F61
  8
0
 10
264.07132322899179
 20
265.70817530267499
 30
0.0
 11
264.07132322899179
 21
284.22448931527651
 31
0.0
  0
LINE
  5
35F62
  8
0
 10
264.07132322899179
 20
265.70817530267499
 30
0.0
 11
259.57132322899179
 21
265.70817530267499
 31
0.0
  0
LINE
  5
35F63
  8
0
 10
200.57132322899179
 20
265.70817530267499
 30
0.0
 11
196.07132322899179
 21
265.70817530267499
 31
0.0
  0
POLYLINE
  5
35F7D
  8
0
 66
     1
 10
0.0
 20
0.0
 30
0.0
 70
     8
  0
VERTEX
  5
35F7E
  8
0
 10
216.26979285110249
 20
393.20817530267459
 30
0.0
 70
    32
  0
VERTEX
  5
35F7F
  8
0
 10
215.2970503443812
 20
392.74594003850461
 30
0.0
 70
    32
  0
VERTEX
  5
35F80
  8
0
 10
214.06703894732249
 20
392.10394011624072
 30
0.0
 70
    32
  0
VERTEX
  5
35F81
  8
0
 10
212.85056877256281
 20
391.41090982986861
 30
0.0
 70
    32
  0
VERTEX
  5
35F82
  8
0
 10
211.6486690753172
 20
390.66743555219961
 30
0.0
 70
    32
  0
VERTEX
  5
35F83
  8
0
 10
211.05350145066041
 20
390.27697684293162
 30
0.0
 70
    32
  0
VERTEX
  5
35F84
  8
0
 10
210.46235678272299
 20
389.87414633669738
 30
0.0
 70
    32
  0
VERTEX
  5
35F85
  8
0
 10
209.29263563341561
 20
389.03171338523731
 30
0.0
 70
    32
  0
VERTEX
  5
35F86
  8
0
 10
208.14049532826539
 20
388.14084948020081
 30
0.0
 70
    32
  0
VERTEX
  5
35F87
  8
0
 10
207.00691069299771
 20
387.20230838139099
 30
0.0
 70
    32
  0
VERTEX
  5
35F88
  8
0
 10
205.89284085338471
 20
386.21688418827853
 30
0.0
 70
    32
  0
VERTEX
  5
35F89
  8
0
 10
204.79922842373441
 20
385.1854106681098
 30
0.0
 70
    32
  0
VERTEX
  5
35F8A
  8
0
 10
204.260383593195
 20
384.65267663637502
 30
0.0
 70
    32
  0
VERTEX
  5
35F8B
  8
0
 10
203.72699870934409
 20
384.10876055046168
 30
0.0
 70
    32
  0
VERTEX
  5
35F8C
  8
0
 10
202.67705892359939
 20
382.98784478882141
 30
0.0
 70
    32
  0
VERTEX
  5
35F8D
  8
0
 10
201.6502974203795
 20
381.82361178983052
 30
0.0
 70
    32
  0
VERTEX
  5
35F8E
  8
0
 10
200.6475829424235
 20
380.61704661083792
 30
0.0
 70
    32
  0
VERTEX
  5
35F8F
  8
0
 10
200.57132322899179
 20
380.51972522760161
 30
0.0
 70
    32
  0
SEQEND
  5
35F90
  8
0
  0
POLYLINE
  5
35F91
  8
0
 66
     1
 10
0.0
 20
0.0
 30
0.0
 70
     8
  0
VERTEX
  5
35F92
  8
0
 10
259.57132322899179
 20
380.51972522760161
 30
0.0
 70
    32
  0
VERTEX
  5
35F93
  8
0
 10
259.4950635155601
 20
380.61704661083792
 30
0.0
 70
    32
  0
VERTEX
  5
35F94
  8
0
 10
258.49234903760407
 20
381.82361178983052
 30
0.0
 70
    32
  0
VERTEX
  5
35F95
  8
0
 10
257.46558753438421
 20
382.98784478882141
 30
0.0
 70
    32
  0
VERTEX
  5
35F96
  8
0
 10
256.4156477486394
 20
384.10876055046168
 30
0.0
 70
    32
  0
VERTEX
  5
35F97
  8
0
 10
255.8822628647886
 20
384.65267663637502
 30
0.0
 70
    32
  0
VERTEX
  5
35F98
  8
0
 10
255.3434180342492
 20
385.1854106681098
 30
0.0
 70
    32
  0
VERTEX
  5
35F99
  8
0
 10
254.24980560459881
 20
386.21688418827853
 30
0.0
 70
    32
  0
VERTEX
  5
35F9A
  8
0
 10
253.13573576498581
 20
387.20230838139099
 30
0.0
 70
    32
  0
VERTEX
  5
35F9B
  8
0
 10
252.0021511297173
 20
388.14084948020081
 30
0.0
 70
    32
  0
VERTEX
  5
35F9C
  8
0
 10
250.85001082456799
 20
389.03171338523731
 30
0.0
 70
    32
  0
VERTEX
  5
35F9D
  8
0
 10
249.68028967526061
 20
389.87414633669738
 30
0.0
 70
    32
  0
VERTEX
  5
35F9E
  8
0
 10
249.08914500732311
 20
390.27697684293162
 30
0.0
 70
    32
  0
VERTEX
  5
35F9F
  8
0
 10
248.49397738266629
 20
390.66743555219961
 30
0.0
 70
    32
  0
VERTEX
  5
35FA0
  8
0
 10
247.29207768542071
 20
391.41090982986861
 30
0.0
 70
    32
  0
VERTEX
  5
35FA1
  8
0
 10
246.075607510661
 20
392.10394011624072
 30
0.0
 70
    32
  0
VERTEX
  5
35FA2
  8
0
 10
244.8455961136024
 20
392.74594003850461
 30
0.0
 70
    32
  0
VERTEX
  5
35FA3
  8
0
 10
243.87285360688111
 20
393.20817530267459
 30
0.0
 70
    32
  0
SEQEND
  5
35FA4
  8
0
  0
LINE
  5
35FBE
  8
0
 10
259.57132322899179
 20
265.70817530267499
 30
0.0
 11
259.57132322899179
 21
393.20817530267499
 31
0.0
  0
LINE
  5
35FBF
  8
0
 10
196.07132322899179
 20
284.22448931527651
 30
0.0
 11
196.07132322899179
 21
265.70817530267499
 31
0.0
  0
LINE
  5
35FC0
  8
0
 10
200.57132322899179
 20
393.20817530267499
 30
0.0
 11
200.57132322899179
 21
265.70817530267499
 31
0.0
  0
POLYLINE
  5
35FC1
  8
0
 66
     1
 10
0.0
 20
0.0
 30
0.0
 70
     8
  0
VERTEX
  5
35FC2
  8
0
 10
182.57132322899179
 20
331.79147820410248
 30
0.0
 70
    32
  0
VERTEX
  5
35FC3
  8
0
 10
182.58227409540899
 20
330.32889365047367
 30
0.0
 70
    32
  0
VERTEX
  5
35FC4
  8
0
 10
182.66985073312199
 20
327.40642175951962
 30
0.0
 70
    32
  0
VERTEX
  5
35FC5
  8
0
 10
182.8448425046299
 20
324.49203654342273
 30
0.0
 70
    32
  0
VERTEX
  5
35FC6
  8
0
 10
182.96502450155089
 20
323.03955683775621
 30
0.0
 70
    32
  0
VERTEX
  5
35FC7
  8
0
 10
183.10692669993571
 20
321.59111254774331
 30
0.0
 70
    32
  0
VERTEX
  5
35FC8
  8
0
 10
183.45561999808251
 20
318.70899949361637
 30
0.0
 70
    32
  0
VERTEX
  5
35FC9
  8
0
 10
183.89027935846929
 20
315.85101241209441
 30
0.0
 70
    32
  0
VERTEX
  5
35FCA
  8
0
 10
184.4101032067137
 20
313.02242184246512
 30
0.0
 70
    32
  0
VERTEX
  5
35FCB
  8
0
 10
185.01413291286369
 20
310.22844411262082
 30
0.0
 70
    32
  0
VERTEX
  5
35FCC
  8
0
 10
185.70125455925421
 20
307.47423171939772
 30
0.0
 70
    32
  0
VERTEX
  5
35FCD
  8
0
 10
186.07558479900311
 20
306.11362788440971
 30
0.0
 70
    32
  0
VERTEX
  5
35FCE
  8
0
 10
186.47020099472951
 20
304.76486382663143
 30
0.0
 70
    32
  0
VERTEX
  5
35FCF
  8
0
 10
187.31955417145221
 20
302.105336898448
 30
0.0
 70
    32
  0
VERTEX
  5
35FD0
  8
0
 10
188.24774775998861
 20
299.50055548506589
 30
0.0
 70
    32
  0
VERTEX
  5
35FD1
  8
0
 10
189.25307003784559
 20
296.95532317809779
 30
0.0
 70
    32
  0
VERTEX
  5
35FD2
  8
0
 10
190.33366704612939
 20
294.47433375204031
 30
0.0
 70
    32
  0
VERTEX
  5
35FD3
  8
0
 10
191.48754600851859
 20
292.06216250827492
 30
0.0
 70
    32
  0
VERTEX
  5
35FD4
  8
0
 10
192.09130642125359
 20
290.8832790102897
 30
0.0
 70
    32
  0
VERTEX
  5
35FD5
  8
0
 10
192.71257900622459
 20
289.7232578375565
 30
0.0
 70
    32
  0
VERTEX
  5
35FD6
  8
0
 10
194.0065069021839
 20
287.46193301654012
 30
0.0
 70
    32
  0
VERTEX
  5
35FD7
  8
0
 10
195.36694350723059
 20
285.28235825347792
 30
0.0
 70
    32
  0
VERTEX
  5
35FD8
  8
0
 10
196.07132322899179
 20
284.22448931527651
 30
0.0
 70
    32
  0
SEQEND
  5
35FD9
  8
0
  0
POLYLINE
  5
35FDA
  8
0
 66
     1
 10
0.0
 20
0.0
 30
0.0
 70
     8
  0
VERTEX
  5
35FDB
  8
0
 10
264.07132322899179
 20
284.22448931527651
 30
0.0
 70
    32
  0
VERTEX
  5
35FDC
  8
0
 10
264.77570295075287
 20
285.28235825347792
 30
0.0
 70
    32
  0
VERTEX
  5
35FDD
  8
0
 10
266.13613955579967
 20
287.46193301654012
 30
0.0
 70
    32
  0
VERTEX
  5
35FDE
  8
0
 10
267.43006745175899
 20
289.7232578375565
 30
0.0
 70
    32
  0
VERTEX
  5
35FDF
  8
0
 10
268.05134003672993
 20
290.8832790102897
 30
0.0
 70
    32
  0
VERTEX
  5
35FE0
  8
0
 10
268.65510044946501
 20
292.06216250827492
 30
0.0
 70
    32
  0
VERTEX
  5
35FE1
  8
0
 10
269.80897941185412
 20
294.47433375204031
 30
0.0
 70
    32
  0
VERTEX
  5
35FE2
  8
0
 10
270.88957642013793
 20
296.95532317809779
 30
0.0
 70
    32
  0
VERTEX
  5
35FE3
  8
0
 10
271.8948986979949
 20
299.50055548506589
 30
0.0
 70
    32
  0
VERTEX
  5
35FE4
  8
0
 10
272.82309228653139
 20
302.105336898448
 30
0.0
 70
    32
  0
VERTEX
  5
35FE5
  8
0
 10
273.67244546325401
 20
304.76486382663143
 30
0.0
 70
    32
  0
VERTEX
  5
35FE6
  8
0
 10
274.06706165898049
 20
306.11362788440971
 30
0.0
 70
    32
  0
VERTEX
  5
35FE7
  8
0
 10
274.44139189872931
 20
307.47423171939772
 30
0.0
 70
    32
  0
VERTEX
  5
35FE8
  8
0
 10
275.1285135451198
 20
310.22844411262082
 30
0.0
 70
    32
  0
VERTEX
  5
35FE9
  8
0
 10
275.73254325126982
 20
313.02242184246512
 30
0.0
 70
    32
  0
VERTEX
  5
35FEA
  8
0
 10
276.25236709951417
 20
315.85101241209441
 30
0.0
 70
    32
  0
VERTEX
  5
35FEB
  8
0
 10
276.68702645990112
 20
318.70899949361637
 30
0.0
 70
    32
  0
VERTEX
  5
35FEC
  8
0
 10
277.03571975804789
 20
321.59111254774331
 30
0.0
 70
    32
  0
VERTEX
  5
35FED
  8
0
 10
277.17762195643257
 20
323.03955683775621
 30
0.0
 70
    32
  0
VERTEX
  5
35FEE
  8
0
 10
277.29780395335371
 20
324.49203654342273
 30
0.0
 70
    32
  0
VERTEX
  5
35FEF
  8
0
 10
277.4727957248615
 20
327.40642175951962
 30
0.0
 70
    32
  0
VERTEX
  5
35FF0
  8
0
 10
277.56037236257453
 20
330.32889365047367
 30
0.0
 70
    32
  0
VERTEX
  5
35FF1
  8
0
 10
277.57132322899179
 20
331.79147820410248
 30
0.0
 70
    32
  0
SEQEND
  5
35FF2
  8
0
  0
LINE
  5
35FF3
  8
0
 10
242.82132322899179
 20
411.70817530267499
 30
0.0
 11
217.32132322899179
 21
411.70817530267499
 31
0.0
  0
LINE
  5
35FF4
  8
0
 10
270.42132322899221
 20
408.40817530267481
 30
0.0
 11
189.72132322899139
 21
408.40817530267481
 31
0.0
  0
LINE
  5
35FF5
  8
0
 10
277.07132322899179
 20
404.90817530267481
 30
0.0
 11
183.07132322899179
 21
404.90817530267481
 31
0.0
  0
LINE
  5
35FF6
  8
0
 10
281.07132322899179
 20
399.90817530267492
 30
0.0
 11
179.07132322899179
 21
399.90817530267492
 31
0.0
  0
POLYLINE
  5
35FF7
  8
2
 66
     1
 10
0.0
 20
0.0
 30
0.0
 70
     8
  0
VERTEX
  5
35FF8
  8
2
 10
269.11190351957612
 20
281.96650863600831
 30
0.0
 70
    32
  0
VERTEX
  5
35FF9
  8
2
 10
269.1927481728344
 20
281.40433015789358
 30
0.0
 70
    32
  0
VERTEX
  5
35FFA
  8
2
 10
269.30735851158721
 20
280.3485402651695
 30
0.0
 70
    32
  0
VERTEX
  5
35FFB
  8
2
 10
269.36413309537153
 20
279.3397797212574
 30
0.0
 70
    32
  0
VERTEX
  5
35FFC
  8
2
 10
269.37132322899191
 20
278.83734196934159
 30
0.0
 70
    32
  0
SEQEND
  5
35FFD
  8
2
  0
POLYLINE
  5
35FFE
  8
2
 66
     1
 10
0.0
 20
0.0
 30
0.0
 70
     8
  0
VERTEX
  5
35FFF
  8
2
 10
264.67132322899221
 20
278.83734196934159
 30
0.0
 70
    32
  0
VERTEX
  5
36000
  8
2
 10
264.67851336261168
 20
279.3397797212574
 30
0.0
 70
    32
  0
VERTEX
  5
36001
  8
2
 10
264.735287946396
 20
280.3485402651695
 30
0.0
 70
    32
  0
VERTEX
  5
36002
  8
2
 10
264.84989828514881
 20
281.40433015789358
 30
0.0
 70
    32
  0
VERTEX
  5
36003
  8
2
 10
264.93074293840709
 20
281.96650863600831
 30
0.0
 70
    32
  0
SEQEND
  5
36004
  8
2
  0
POLYLINE
  5
36005
  8
2
 66
     1
 10
0.0
 20
0.0
 30
0.0
 70
     8
  0
VERTEX
  5
36006
  8
2
 10
264.93074293840709
 20
269.44984196934178
 30
0.0
 70
    32
  0
VERTEX
  5
36007
  8
2
 10
264.84989828514881
 20
270.01202044745651
 30
0.0
 70
    32
  0
VERTEX
  5
36008
  8
2
 10
264.735287946396
 20
271.06781034018059
 30
0.0
 70
    32
  0
VERTEX
  5
36009
  8
2
 10
264.67851336261168
 20
272.07657088409269
 30
0.0
 70
    32
  0
VERTEX
  5
3600A
  8
2
 10
264.67132322899221
 20
272.57900863600838
 30
0.0
 70
    32
  0
SEQEND
  5
3600B
  8
2
  0
POLYLINE
  5
3600C
  8
2
 66
     1
 10
0.0
 20
0.0
 30
0.0
 70
     8
  0
VERTEX
  5
3600D
  8
2
 10
196.07132322899179
 20
278.83734196934159
 30
0.0
 70
    32
  0
VERTEX
  5
3600E
  8
2
 10
196.0641330953722
 20
278.3349042174263
 30
0.0
 70
    32
  0
VERTEX
  5
3600F
  8
2
 10
196.0073585115878
 20
277.3261436735138
 30
0.0
 70
    32
  0
VERTEX
  5
36010
  8
2
 10
195.89274817283419
 20
276.27035378078972
 30
0.0
 70
    32
  0
VERTEX
  5
36011
  8
2
 10
195.81190351957591
 20
275.7081753026751
 30
0.0
 70
    32
  0
SEQEND
  5
36012
  8
2
  0
POLYLINE
  5
36013
  8
2
 66
     1
 10
0.0
 20
0.0
 30
0.0
 70
     8
  0
VERTEX
  5
36014
  8
2
 10
190.83074293840761
 20
275.7081753026751
 30
0.0
 70
    32
  0
VERTEX
  5
36015
  8
2
 10
190.7498982851493
 20
276.27035378078972
 30
0.0
 70
    32
  0
VERTEX
  5
36016
  8
2
 10
190.63528794639569
 20
277.3261436735138
 30
0.0
 70
    32
  0
VERTEX
  5
36017
  8
2
 10
190.5785133626114
 20
278.3349042174263
 30
0.0
 70
    32
  0
VERTEX
  5
36018
  8
2
 10
190.57132322899179
 20
278.83734196934159
 30
0.0
 70
    32
  0
SEQEND
  5
36019
  8
2
  0
POLYLINE
  5
3601A
  8
2
 66
     1
 10
0.0
 20
0.0
 30
0.0
 70
     8
  0
VERTEX
  5
3601B
  8
2
 10
196.07132322899179
 20
272.57900863600838
 30
0.0
 70
    32
  0
VERTEX
  5
3601C
  8
2
 10
196.0641330953722
 20
272.07657088409269
 30
0.0
 70
    32
  0
VERTEX
  5
3601D
  8
2
 10
196.0073585115878
 20
271.06781034018059
 30
0.0
 70
    32
  0
VERTEX
  5
3601E
  8
2
 10
195.89274817283419
 20
270.01202044745651
 30
0.0
 70
    32
  0
VERTEX
  5
3601F
  8
2
 10
195.81190351957591
 20
269.44984196934178
 30
0.0
 70
    32
  0
SEQEND
  5
36020
  8
2
  0
POLYLINE
  5
36021
  8
2
 66
     1
 10
0.0
 20
0.0
 30
0.0
 70
     8
  0
VERTEX
  5
36022
  8
2
 10
190.57132322899179
 20
272.57900863600838
 30
0.0
 70
    32
  0
VERTEX
  5
36023
  8
2
 10
190.5785133626114
 20
273.08144638792368
 30
0.0
 70
    32
  0
VERTEX
  5
36024
  8
2
 10
190.63528794639569
 20
274.09020693183629
 30
0.0
 70
    32
  0
VERTEX
  5
36025
  8
2
 10
190.7498982851493
 20
275.14599682456043
 30
0.0
 70
    32
  0
VERTEX
  5
36026
  8
2
 10
190.83074293840761
 20
275.7081753026751
 30
0.0
 70
    32
  0
SEQEND
  5
36027
  8
2
  0
LINE
  5
36028
  8
0
 10
264.07132322899179
 20
281.5231753026751
 30
0.0
 11
264.67132322899221
 21
281.5231753026751
 31
0.0
  0
LINE
  5
36029
  8
0
 10
264.67132322899221
 20
269.89317530267499
 30
0.0
 11
264.07132322899179
 21
269.89317530267499
 31
0.0
  0
LINE
  5
3602A
  8
0
 10
186.83832322899161
 20
279.7081753026751
 30
0.0
 11
188.07132322899179
 21
279.7081753026751
 31
0.0
  0
LINE
  5
3602B
  8
0
 10
188.07132322899179
 20
271.7081753026751
 30
0.0
 11
186.83832322899161
 21
271.7081753026751
 31
0.0
  0
LINE
  5
3602C
  8
0
 10
186.0713232289917
 20
278.94117530267522
 30
0.0
 11
186.83832322899161
 21
279.7081753026751
 31
0.0
  0
LINE
  5
3602D
  8
0
 10
186.83832322899161
 20
271.7081753026751
 30
0.0
 11
186.0713232289917
 21
272.47517530267493
 31
0.0
  0
LINE
  5
3602E
  8
0
 10
188.07132322899179
 20
281.5231753026751
 30
0.0
 11
190.57132322899179
 21
281.5231753026751
 31
0.0
  0
LINE
  5
3602F
  8
0
 10
190.57132322899179
 20
269.89317530267499
 30
0.0
 11
188.07132322899179
 21
269.89317530267499
 31
0.0
  0
LINE
  5
36030
  8
0
 10
200.57132322899179
 20
285.7081753026751
 30
0.0
 11
205.07132322899179
 21
285.7081753026751
 31
0.0
  0
LINE
  5
36031
  8
0
 10
255.07132322899179
 20
285.7081753026751
 30
0.0
 11
259.57132322899179
 21
285.7081753026751
 31
0.0
  0
LINE
  5
36032
  8
0
 10
259.57132322899179
 20
265.70817530267499
 30
0.0
 11
255.07132322899179
 21
265.70817530267499
 31
0.0
  0
LINE
  5
36033
  8
0
 10
205.07132322899179
 20
265.70817530267499
 30
0.0
 11
200.57132322899179
 21
265.70817530267499
 31
0.0
  0
LINE
  5
36034
  8
0
 10
186.83832322899161
 20
271.7081753026751
 30
0.0
 11
186.83832322899161
 21
279.7081753026751
 31
0.0
  0
LINE
  5
36035
  8
0
 10
186.0713232289917
 20
272.47517530267493
 30
0.0
 11
186.0713232289917
 21
278.94117530267522
 31
0.0
  0
LINE
  5
36036
  8
0
 10
269.37132322899191
 20
269.44984196934178
 30
0.0
 11
269.37132322899191
 21
281.96650863600831
 31
0.0
  0
LINE
  5
36037
  8
0
 10
264.67132322899221
 20
269.44984196934178
 30
0.0
 11
264.67132322899221
 21
281.96650863600831
 31
0.0
  0
LINE
  5
36038
  8
0
 10
269.37132322899191
 20
269.44984196934178
 30
0.0
 11
264.67132322899221
 21
269.44984196934178
 31
0.0
  0
POLYLINE
  5
36039
  8
0
 66
     1
 10
0.0
 20
0.0
 30
0.0
 70
     8
  0
VERTEX
  5
3603A
  8
0
 10
264.67132322899221
 20
278.83734196934159
 30
0.0
 70
    32
  0
VERTEX
  5
3603B
  8
0
 10
264.67851336261168
 20
278.3349042174263
 30
0.0
 70
    32
  0
VERTEX
  5
3603C
  8
0
 10
264.735287946396
 20
277.3261436735138
 30
0.0
 70
    32
  0
VERTEX
  5
3603D
  8
0
 10
264.84989828514881
 20
276.27035378078972
 30
0.0
 70
    32
  0
VERTEX
  5
3603E
  8
0
 10
264.93074293840709
 20
275.7081753026751
 30
0.0
 70
    32
  0
SEQEND
  5
3603F
  8
0
  0
POLYLINE
  5
36040
  8
0
 66
     1
 10
0.0
 20
0.0
 30
0.0
 70
     8
  0
VERTEX
  5
36041
  8
0
 10
269.11190351957612
 20
275.7081753026751
 30
0.0
 70
    32
  0
VERTEX
  5
36042
  8
0
 10
269.1927481728344
 20
276.27035378078972
 30
0.0
 70
    32
  0
VERTEX
  5
36043
  8
0
 10
269.30735851158721
 20
277.3261436735138
 30
0.0
 70
    32
  0
VERTEX
  5
36044
  8
0
 10
269.36413309537153
 20
278.3349042174263
 30
0.0
 70
    32
  0
VERTEX
  5
36045
  8
0
 10
269.37132322899191
 20
278.83734196934159
 30
0.0
 70
    32
  0
SEQEND
  5
36046
  8
0
  0
POLYLINE
  5
36047
  8
0
 66
     1
 10
0.0
 20
0.0
 30
0.0
 70
     8
  0
VERTEX
  5
36048
  8
0
 10
269.37132322899191
 20
278.83734196934159
 30
0.0
 70
    32
  0
VERTEX
  5
36049
  8
0
 10
269.36413309537153
 20
279.3397797212574
 30
0.0
 70
    32
  0
VERTEX
  5
3604A
  8
0
 10
269.30735851158721
 20
280.3485402651695
 30
0.0
 70
    32
  0
VERTEX
  5
3604B
  8
0
 10
269.1927481728344
 20
281.40433015789358
 30
0.0
 70
    32
  0
VERTEX
  5
3604C
  8
0
 10
269.11190351957612
 20
281.96650863600831
 30
0.0
 70
    32
  0
SEQEND
  5
3604D
  8
0
  0
POLYLINE
  5
3604E
  8
0
 66
     1
 10
0.0
 20
0.0
 30
0.0
 70
     8
  0
VERTEX
  5
3604F
  8
0
 10
264.93074293840709
 20
281.96650863600831
 30
0.0
 70
    32
  0
VERTEX
  5
36050
  8
0
 10
264.84989828514881
 20
281.40433015789358
 30
0.0
 70
    32
  0
VERTEX
  5
36051
  8
0
 10
264.735287946396
 20
280.3485402651695
 30
0.0
 70
    32
  0
VERTEX
  5
36052
  8
0
 10
264.67851336261168
 20
279.3397797212574
 30
0.0
 70
    32
  0
VERTEX
  5
36053
  8
0
 10
264.67132322899221
 20
278.83734196934159
 30
0.0
 70
    32
  0
SEQEND
  5
36054
  8
0
  0
POLYLINE
  5
36055
  8
0
 66
     1
 10
0.0
 20
0.0
 30
0.0
 70
     8
  0
VERTEX
  5
36056
  8
0
 10
264.67132322899221
 20
272.57900863600838
 30
0.0
 70
    32
  0
VERTEX
  5
36057
  8
0
 10
264.67851336261168
 20
272.07657088409269
 30
0.0
 70
    32
  0
VERTEX
  5
36058
  8
0
 10
264.735287946396
 20
271.06781034018059
 30
0.0
 70
    32
  0
VERTEX
  5
36059
  8
0
 10
264.84989828514881
 20
270.01202044745651
 30
0.0
 70
    32
  0
VERTEX
  5
3605A
  8
0
 10
264.93074293840709
 20
269.44984196934178
 30
0.0
 70
    32
  0
SEQEND
  5
3605B
  8
0
  0
POLYLINE
  5
3605C
  8
0
 66
     1
 10
0.0
 20
0.0
 30
0.0
 70
     8
  0
VERTEX
  5
3605D
  8
0
 10
269.11190351957612
 20
269.44984196934178
 30
0.0
 70
    32
  0
VERTEX
  5
3605E
  8
0
 10
269.1927481728344
 20
270.01202044745651
 30
0.0
 70
    32
  0
VERTEX
  5
3605F
  8
0
 10
269.30735851158721
 20
271.06781034018059
 30
0.0
 70
    32
  0
VERTEX
  5
36060
  8
0
 10
269.36413309537153
 20
272.07657088409269
 30
0.0
 70
    32
  0
VERTEX
  5
36061
  8
0
 10
269.37132322899191
 20
272.57900863600838
 30
0.0
 70
    32
  0
SEQEND
  5
36062
  8
0
  0
POLYLINE
  5
36063
  8
0
 66
     1
 10
0.0
 20
0.0
 30
0.0
 70
     8
  0
VERTEX
  5
36064
  8
0
 10
269.37132322899191
 20
272.57900863600838
 30
0.0
 70
    32
  0
VERTEX
  5
36065
  8
0
 10
269.36413309537153
 20
273.08144638792368
 30
0.0
 70
    32
  0
VERTEX
  5
36066
  8
0
 10
269.30735851158721
 20
274.09020693183629
 30
0.0
 70
    32
  0
VERTEX
  5
36067
  8
0
 10
269.1927481728344
 20
275.14599682456043
 30
0.0
 70
    32
  0
VERTEX
  5
36068
  8
0
 10
269.11190351957612
 20
275.7081753026751
 30
0.0
 70
    32
  0
SEQEND
  5
36069
  8
0
  0
LINE
  5
3606A
  8
0
 10
269.11190351957612
 20
275.7081753026751
 30
0.0
 11
264.93074293840709
 21
275.7081753026751
 31
0.0
  0
POLYLINE
  5
3606B
  8
0
 66
     1
 10
0.0
 20
0.0
 30
0.0
 70
     8
  0
VERTEX
  5
3606C
  8
0
 10
264.93074293840709
 20
275.7081753026751
 30
0.0
 70
    32
  0
VERTEX
  5
3606D
  8
0
 10
264.84989828514881
 20
275.14599682456043
 30
0.0
 70
    32
  0
VERTEX
  5
3606E
  8
0
 10
264.735287946396
 20
274.09020693183629
 30
0.0
 70
    32
  0
VERTEX
  5
3606F
  8
0
 10
264.67851336261168
 20
273.08144638792368
 30
0.0
 70
    32
  0
VERTEX
  5
36070
  8
0
 10
264.67132322899221
 20
272.57900863600838
 30
0.0
 70
    32
  0
SEQEND
  5
36071
  8
0
  0
LINE
  5
36072
  8
0
 10
264.67132322899221
 20
281.96650863600831
 30
0.0
 11
269.37132322899191
 21
281.96650863600831
 31
0.0
  0
LINE
  5
36073
  8
0
 10
188.07132322899179
 20
269.89317530267499
 30
0.0
 11
188.07132322899179
 21
281.5231753026751
 31
0.0
  0
LINE
  5
36074
  8
0
 10
190.57132322899179
 20
269.44984196934178
 30
0.0
 11
190.57132322899179
 21
281.96650863600831
 31
0.0
  0
LINE
  5
36075
  8
0
 10
196.07132322899179
 20
269.44984196934178
 30
0.0
 11
190.57132322899179
 21
269.44984196934178
 31
0.0
  0
POLYLINE
  5
36076
  8
0
 66
     1
 10
0.0
 20
0.0
 30
0.0
 70
     8
  0
VERTEX
  5
36077
  8
0
 10
190.57132322899179
 20
278.83734196934159
 30
0.0
 70
    32
  0
VERTEX
  5
36078
  8
0
 10
190.5785133626114
 20
278.3349042174263
 30
0.0
 70
    32
  0
VERTEX
  5
36079
  8
0
 10
190.63528794639569
 20
277.3261436735138
 30
0.0
 70
    32
  0
VERTEX
  5
3607A
  8
0
 10
190.7498982851493
 20
276.27035378078972
 30
0.0
 70
    32
  0
VERTEX
  5
3607B
  8
0
 10
190.83074293840761
 20
275.7081753026751
 30
0.0
 70
    32
  0
SEQEND
  5
3607C
  8
0
  0
POLYLINE
  5
3607D
  8
0
 66
     1
 10
0.0
 20
0.0
 30
0.0
 70
     8
  0
VERTEX
  5
3607E
  8
0
 10
195.81190351957591
 20
275.7081753026751
 30
0.0
 70
    32
  0
VERTEX
  5
3607F
  8
0
 10
195.89274817283149
 20
276.2703537807688
 30
0.0
 70
    32
  0
VERTEX
  5
36080
  8
0
 10
196.0073585115824
 20
277.32614367345423
 30
0.0
 70
    32
  0
VERTEX
  5
36081
  8
0
 10
196.0641330953695
 20
278.33490421732898
 30
0.0
 70
    32
  0
VERTEX
  5
36082
  8
0
 10
196.07132322899179
 20
278.83734196922433
 30
0.0
 70
    32
  0
SEQEND
  5
36083
  8
0
  0
POLYLINE
  5
36084
  8
0
 66
     1
 10
0.0
 20
0.0
 30
0.0
 70
     8
  0
VERTEX
  5
36085
  8
0
 10
196.07132322899179
 20
278.83734196934159
 30
0.0
 70
    32
  0
VERTEX
  5
36086
  8
0
 10
196.0641330953722
 20
279.3397797212574
 30
0.0
 70
    32
  0
VERTEX
  5
36087
  8
0
 10
196.0073585115878
 20
280.3485402651695
 30
0.0
 70
    32
  0
VERTEX
  5
36088
  8
0
 10
195.89274817283419
 20
281.40433015789358
 30
0.0
 70
    32
  0
VERTEX
  5
36089
  8
0
 10
195.81190351957591
 20
281.96650863600831
 30
0.0
 70
    32
  0
SEQEND
  5
3608A
  8
0
  0
POLYLINE
  5
3608B
  8
0
 66
     1
 10
0.0
 20
0.0
 30
0.0
 70
     8
  0
VERTEX
  5
3608C
  8
0
 10
190.83074293840761
 20
281.96650863600831
 30
0.0
 70
    32
  0
VERTEX
  5
3608D
  8
0
 10
190.7498982851493
 20
281.40433015789358
 30
0.0
 70
    32
  0
VERTEX
  5
3608E
  8
0
 10
190.63528794639569
 20
280.3485402651695
 30
0.0
 70
    32
  0
VERTEX
  5
3608F
  8
0
 10
190.5785133626114
 20
279.3397797212574
 30
0.0
 70
    32
  0
VERTEX
  5
36090
  8
0
 10
190.57132322899179
 20
278.83734196934159
 30
0.0
 70
    32
  0
SEQEND
  5
36091
  8
0
  0
POLYLINE
  5
36092
  8
0
 66
     1
 10
0.0
 20
0.0
 30
0.0
 70
     8
  0
VERTEX
  5
36093
  8
0
 10
190.57132322899179
 20
272.57900863600838
 30
0.0
 70
    32
  0
VERTEX
  5
36094
  8
0
 10
190.5785133626114
 20
272.07657088409269
 30
0.0
 70
    32
  0
VERTEX
  5
36095
  8
0
 10
190.63528794639569
 20
271.06781034018059
 30
0.0
 70
    32
  0
VERTEX
  5
36096
  8
0
 10
190.7498982851493
 20
270.01202044745651
 30
0.0
 70
    32
  0
VERTEX
  5
36097
  8
0
 10
190.83074293840761
 20
269.44984196934178
 30
0.0
 70
    32
  0
SEQEND
  5
36098
  8
0
  0
POLYLINE
  5
36099
  8
0
 66
     1
 10
0.0
 20
0.0
 30
0.0
 70
     8
  0
VERTEX
  5
3609A
  8
0
 10
195.81190351957591
 20
269.44984196934178
 30
0.0
 70
    32
  0
VERTEX
  5
3609B
  8
0
 10
195.89274817283061
 20
270.01202044742649
 30
0.0
 70
    32
  0
VERTEX
  5
3609C
  8
0
 10
196.00735851158061
 20
271.067810340096
 30
0.0
 70
    32
  0
VERTEX
  5
3609D
  8
0
 10
196.06413309536759
 20
272.0765708839549
 30
0.0
 70
    32
  0
VERTEX
  5
3609E
  8
0
 10
196.07132322899179
 20
272.579008635842
 30
0.0
 70
    32
  0
SEQEND
  5
3609F
  8
0
  0
POLYLINE
  5
360A0
  8
0
 66
     1
 10
0.0
 20
0.0
 30
0.0
 70
     8
  0
VERTEX
  5
360A1
  8
0
 10
196.07132322899179
 20
272.57900863600838
 30
0.0
 70
    32
  0
VERTEX
  5
360A2
  8
0
 10
196.0641330953722
 20
273.08144638792368
 30
0.0
 70
    32
  0
VERTEX
  5
360A3
  8
0
 10
196.0073585115878
 20
274.09020693183629
 30
0.0
 70
    32
  0
VERTEX
  5
360A4
  8
0
 10
195.89274817283419
 20
275.14599682456043
 30
0.0
 70
    32
  0
VERTEX
  5
360A5
  8
0
 10
195.81190351957591
 20
275.7081753026751
 30
0.0
 70
    32
  0
SEQEND
  5
360A6
  8
0
  0
LINE
  5
360A7
  8
0
 10
195.81190351957591
 20
275.7081753026751
 30
0.0
 11
190.83074293840761
 21
275.7081753026751
 31
0.0
  0
POLYLINE
  5
360A8
  8
0
 66
     1
 10
0.0
 20
0.0
 30
0.0
 70
     8
  0
VERTEX
  5
360A9
  8
0
 10
190.83074293840761
 20
275.7081753026751
 30
0.0
 70
    32
  0
VERTEX
  5
360AA
  8
0
 10
190.7498982851493
 20
275.14599682456043
 30
0.0
 70
    32
  0
VERTEX
  5
360AB
  8
0
 10
190.63528794639569
 20
274.09020693183629
 30
0.0
 70
    32
  0
VERTEX
  5
360AC
  8
0
 10
190.5785133626114
 20
273.08144638792368
 30
0.0
 70
    32
  0
VERTEX
  5
360AD
  8
0
 10
190.57132322899179
 20
272.57900863600838
 30
0.0
 70
    32
  0
SEQEND
  5
360AE
  8
0
  0
LINE
  5
360AF
  8
0
 10
190.57132322899179
 20
281.96650863600831
 30
0.0
 11
196.07132322899179
 21
281.96650863600831
 31
0.0
  0
LINE
  5
360B0
  8
0
 10
259.57132322899179
 20
265.70817530267499
 30
0.0
 11
259.57132322899179
 21
269.98824482270902
 31
0.0
  0
LINE
  5
360B1
  8
0
 10
200.57132322899179
 20
265.70817530267499
 30
0.0
 11
200.57132322899179
 21
269.98824482270902
 31
0.0
  0
LINE
  5
360B2
  8
0
 10
227.07132322899179
 20
375.7081753026751
 30
0.0
 11
233.07132322899179
 21
375.7081753026751
 31
0.0
  0
LINE
  5
360B3
  8
0
 10
233.07132322899179
 20
175.70817530267499
 30
0.0
 11
227.07132322899179
 21
175.70817530267499
 31
0.0
  0
ARC
  5
360B4
  8
0
 10
227.07132322899179
 20
176.0081753026752
 30
0.0
 40
0.3000000000000114
 50
180.0
 51
270.0
  0
ARC
  5
360B5
  8
0
 10
227.07132322899179
 20
375.40817530267492
 30
0.0
 40
0.3000000000000074
 50
90.0
 51
180.0
  0
LINE
  5
360B6
  8
0
 10
224.371323228992
 20
375.40817530267492
 30
0.0
 11
226.7713232289916
 21
375.40817530267492
 31
0.0
  0
LINE
  5
360B7
  8
0
 10
226.7713232289916
 20
176.0081753026752
 30
0.0
 11
224.371323228992
 21
176.0081753026752
 31
0.0
  0
ARC
  5
360B8
  8
0
 10
224.07132322899179
 20
176.0081753026752
 30
0.0
 40
0.3000000000000034
 50
270.0
 51
0.0
  0
ARC
  5
360B9
  8
0
 10
224.07132322899179
 20
375.40817530267492
 30
0.0
 40
0.3000000000000114
 50
0.0
 51
90.0
  0
LINE
  5
360BA
  8
0
 10
219.55772082847579
 20
375.7081753026751
 30
0.0
 11
224.07132322899179
 21
375.7081753026751
 31
0.0
  0
LINE
  5
360BB
  8
0
 10
224.07132322899179
 20
175.70817530267499
 30
0.0
 11
219.55772082847579
 21
175.70817530267499
 31
0.0
  0
ARC
  5
360BC
  8
0
 10
219.55772082847579
 20
176.70817530267499
 30
0.0
 40
1.0000000000000131
 50
198.99999999997101
 51
270.0
  0
ARC
  5
360BD
  8
0
 10
219.55772082847579
 20
374.70817530267499
 30
0.0
 40
1.0000000000000151
 50
90.0
 51
161.00000000002879
  0
LINE
  5
360BE
  8
0
 10
215.45465310132019
 20
365.86355486438828
 30
0.0
 11
218.61220225287619
 21
375.033743457132
 31
0.0
  0
LINE
  5
360BF
  8
0
 10
218.61220225287619
 20
176.38260714821811
 30
0.0
 11
215.45465310132019
 21
185.5527957409617
 31
0.0
  0
ARC
  5
360C0
  8
0
 10
218.29120882811819
 20
186.52950020433309
 30
0.0
 40
2.9999999999998721
 50
179.99999914622629
 51
198.99999999997101
  0
ARC
  5
360C1
  8
0
 10
218.29120882811819
 20
364.886850401017
 30
0.0
 40
2.999999999999869
 50
161.00000000002879
 51
180.0
  0
ARC
  5
360C2
  8
0
 10
214.45787549478521
 20
188.44764810848571
 30
0.0
 40
0.8333333333333374
 50
180.0
 51
0.0000008537736463
  0
ARC
  5
360C3
  8
0
 10
214.45787549478521
 20
362.96870249686441
 30
0.0
 40
0.8333333333333322
 50
0.0000008537736463
 51
180.0
  0
ARC
  5
360C4
  8
0
 10
212.79120882811819
 20
193.28799957127831
 30
0.0
 40
0.8333333333333322
 50
180.0
 51
0.0
  0
ARC
  5
360C5
  8
0
 10
212.79120882811819
 20
358.12835103407178
 30
0.0
 40
0.8333333333333322
 50
0.0
 51
180.0
  0
LINE
  5
360C6
  8
0
 10
205.23476750219379
 20
336.18285193880229
 30
0.0
 11
211.95787549478521
 21
355.70817530267499
 31
0.0
  0
LINE
  5
360C7
  8
0
 10
211.95787549478521
 20
195.70817530267499
 30
0.0
 11
205.23476750219379
 21
215.2334986665478
 31
0.0
  0
ARC
  5
360C8
  8
0
 10
208.07132322899179
 20
216.21020312991911
 30
0.0
 40
2.9999999999999178
 50
180.0
 51
198.99999999997101
  0
ARC
  5
360C9
  8
0
 10
208.07132322899179
 20
335.20614747543101
 30
0.0
 40
2.9999999999999138
 50
161.00000000002879
 51
180.0
  0
ARC
  5
360CA
  8
0
 10
252.07132322899179
 20
216.21020312991911
 30
0.0
 40
2.9999999999995981
 50
341.00000000002888
 51
0.0
  0
ARC
  5
360CB
  8
0
 10
252.07132322899179
 20
335.20614747543101
 30
0.0
 40
2.9999999999995981
 50
0.0
 51
18.99999999997106
  0
LINE
  5
360CC
  8
0
 10
248.18477096319839
 20
355.70817530267499
 30
0.0
 11
254.90787895578981
 21
336.18285193880229
 31
0.0
  0
LINE
  5
360CD
  8
0
 10
254.90787895578981
 20
215.2334986665478
 30
0.0
 11
248.18477096319839
 21
195.70817530267499
 31
0.0
  0
ARC
  5
360CE
  8
0
 10
247.35143762986539
 20
193.28799957127831
 30
0.0
 40
0.8333333333333357
 50
180.0
 51
0.0
  0
ARC
  5
360CF
  8
0
 10
247.35143762986539
 20
358.12835103407178
 30
0.0
 40
0.8333333333333357
 50
0.0
 51
180.0
  0
ARC
  5
360D0
  8
0
 10
245.68477096319839
 20
188.44764810848571
 30
0.0
 40
0.8333333333333322
 50
180.0
 51
0.0
  0
ARC
  5
360D1
  8
0
 10
245.68477096319839
 20
362.96870249686441
 30
0.0
 40
0.8333333333333303
 50
0.0000008537736463
 51
179.99999914622629
  0
ARC
  5
360D2
  8
0
 10
241.85143762986539
 20
186.52950020433309
 30
0.0
 40
3.0000000000000382
 50
341.00000000002888
 51
0.0
  0
ARC
  5
360D3
  8
0
 10
241.85143762986539
 20
364.886850401017
 30
0.0
 40
2.9999999999998739
 50
0.0
 51
18.99999999997106
  0
LINE
  5
360D4
  8
0
 10
241.53044420510739
 20
375.033743457132
 30
0.0
 11
244.68799335666341
 21
365.86355486438828
 31
0.0
  0
LINE
  5
360D5
  8
0
 10
244.68799335666341
 20
185.5527957409617
 30
0.0
 11
241.53044420510739
 21
176.38260714821811
 31
0.0
  0
ARC
  5
360D6
  8
0
 10
240.58492562950781
 20
176.70817530267499
 30
0.0
 40
1.0000000000000131
 50
270.0
 51
341.00000000002888
  0
ARC
  5
360D7
  8
0
 10
240.58492562950781
 20
374.70817530267499
 30
0.0
 40
1.0000000000000131
 50
18.99999999997106
 51
90.0
  0
LINE
  5
360D8
  8
0
 10
236.07132322899179
 20
375.7081753026751
 30
0.0
 11
240.58492562950781
 21
375.7081753026751
 31
0.0
  0
LINE
  5
360D9
  8
0
 10
240.58492562950781
 20
175.70817530267499
 30
0.0
 11
236.07132322899179
 21
175.70817530267499
 31
0.0
  0
ARC
  5
360DA
  8
0
 10
236.07132322899179
 20
176.0081753026752
 30
0.0
 40
0.3000000000000114
 50
180.0
 51
270.0
  0
ARC
  5
360DB
  8
0
 10
236.07132322899179
 20
375.40817530267492
 30
0.0
 40
0.3000000000000078
 50
90.0
 51
180.0
  0
LINE
  5
360DC
  8
0
 10
233.371323228992
 20
375.40817530267492
 30
0.0
 11
235.7713232289916
 21
375.40817530267492
 31
0.0
  0
LINE
  5
360DD
  8
0
 10
235.7713232289916
 20
176.0081753026752
 30
0.0
 11
233.371323228992
 21
176.0081753026752
 31
0.0
  0
ARC
  5
360DE
  8
0
 10
233.07132322899179
 20
176.0081753026752
 30
0.0
 40
0.3000000000000038
 50
270.0
 51
0.0
  0
ARC
  5
360DF
  8
0
 10
233.07132322899179
 20
375.40817530267492
 30
0.0
 40
0.3000000000000114
 50
0.0
 51
90.0
  0
LINE
  5
360E0
  8
0
 10
226.7713232289916
 20
176.0081753026752
 30
0.0
 11
226.7713232289916
 21
375.40817530267492
 31
0.0
  0
LINE
  5
360E1
  8
0
 10
224.371323228992
 20
176.0081753026752
 30
0.0
 11
224.371323228992
 21
375.40817530267492
 31
0.0
  0
LINE
  5
360E2
  8
0
 10
215.29120882811819
 20
186.52950020433309
 30
0.0
 11
215.29120882811819
 21
364.886850401017
 31
0.0
  0
LINE
  5
360E3
  8
0
 10
213.62454216145221
 20
188.44764810848531
 30
0.0
 11
213.62454216145221
 21
362.96870249686481
 31
0.0
  0
LINE
  5
360E4
  8
0
 10
211.95787549478521
 20
193.28799957127831
 30
0.0
 11
211.95787549478521
 21
358.12835103407178
 31
0.0
  0
LINE
  5
360E5
  8
0
 10
205.07132322899179
 20
216.21020312991911
 30
0.0
 11
205.07132322899179
 21
335.20614747543101
 31
0.0
  0
LINE
  5
360E6
  8
0
 10
255.07132322899179
 20
216.21020312991911
 30
0.0
 11
255.07132322899179
 21
335.20614747543101
 31
0.0
  0
LINE
  5
360E7
  8
0
 10
248.18477096319839
 20
193.28799957127831
 30
0.0
 11
248.18477096319839
 21
358.12835103407178
 31
0.0
  0
LINE
  5
360E8
  8
0
 10
246.51810429653139
 20
188.44764810848531
 30
0.0
 11
246.51810429653139
 21
362.96870249686481
 31
0.0
  0
LINE
  5
360E9
  8
0
 10
244.8514376298653
 20
186.52950020433309
 30
0.0
 11
244.8514376298653
 21
364.886850401017
 31
0.0
  0
LINE
  5
360EA
  8
0
 10
235.7713232289916
 20
176.0081753026752
 30
0.0
 11
235.7713232289916
 21
375.40817530267492
 31
0.0
  0
LINE
  5
360EB
  8
0
 10
233.371323228992
 20
176.0081753026752
 30
0.0
 11
233.371323228992
 21
375.40817530267492
 31
0.0
  0
LINE
  5
360EC
  8
1
 10
282.83399221200489
 20
275.7081753026751
 30
0.0
 11
177.30865424597869
 21
275.7081753026751
 31
0.0
  0
LINE
  5
360ED
  8
1
 10
230.07132322899179
 20
158.71664833062999
 30
0.0
 11
230.07132322899179
 21
428.69970227471998
 31
0.0
  0
LINE
  5
360EE
  8
3
 10
186.0713232289917
 20
278.94117530267522
 30
0.0
 11
188.07132322899179
 21
278.94117530267522
 31
0.0
  0
LINE
  5
360EF
  8
3
 10
186.0713232289917
 20
272.47517530267493
 30
0.0
 11
188.07132322899179
 21
272.47517530267493
 31
0.0
  0
LINE
  5
364B9
  8
2
 10
654.98110264979732
 20
370.7420436160246
 30
0.0
 11
654.98110264979732
 21
397.70817530267499
 31
0.0
  0
LINE
  5
364BB
  8
2
 10
619.98110264979675
 20
397.70817530267499
 30
0.0
 11
619.98110264979675
 21
411.70817530267499
 31
0.0
  0
LINE
  5
364BC
  8
2
 10
599.98110264979675
 20
411.70817530267499
 30
0.0
 11
599.98110264979675
 21
397.70817530267499
 31
0.0
  0
LINE
  5
364BD
  8
2
 10
564.98110264979675
 20
397.70817530267499
 30
0.0
 11
654.98110264979732
 21
397.70817530267499
 31
0.0
  0
LINE
  5
364C7
  8
0
 10
657.48110264979732
 20
373.60376699244529
 30
0.0
 11
657.48110264979732
 21
399.90817530267492
 31
0.0
  0
LINE
  5
364C8
  8
0
 10
562.48110264979675
 20
399.90817530267492
 30
0.0
 11
562.48110264979675
 21
397.90817530267492
 31
0.0
  0
LINE
  5
364C9
  8
0
 10
622.73110264979721
 20
408.40817530267481
 30
0.0
 11
622.73110264979721
 21
411.70817530267499
 31
0.0
  0
LINE
  5
364CA
  8
0
 10
597.23110264979675
 20
411.70817530267499
 30
0.0
 11
597.23110264979675
 21
408.40817530267481
 31
0.0
  0
ARC
  5
364CB
  8
0
 10
569.63110264979684
 20
405.40817530267481
 30
0.0
 40
3.000000000000028
 50
90.0
 51
180.0
  0
ARC
  5
364CC
  8
0
 10
650.33110264979769
 20
405.40817530267481
 30
0.0
 40
3.0000000000000422
 50
0.0
 51
90.0
  0
LINE
  5
364CD
  8
0
 10
653.33110264979757
 20
404.90817530267481
 30
0.0
 11
653.33110264979757
 21
405.40817530267481
 31
0.0
  0
LINE
  5
364CE
  8
0
 10
566.63110264979684
 20
405.40817530267481
 30
0.0
 11
566.63110264979684
 21
404.90817530267481
 31
0.0
  0
ARC
  5
364CF
  8
0
 10
562.98110264979675
 20
400.90817530267481
 30
0.0
 40
4.0000000000000417
 50
90.0
 51
180.0
  0
ARC
  5
364D0
  8
0
 10
656.98110264979732
 20
400.90817530267481
 30
0.0
 40
4.0000000000000284
 50
0.0
 51
90.0
  0
LINE
  5
364D1
  8
0
 10
660.98110264979732
 20
399.90817530267492
 30
0.0
 11
660.98110264979732
 21
400.90817530267481
 31
0.0
  0
LINE
  5
364D2
  8
0
 10
558.98110264979675
 20
400.90817530267481
 30
0.0
 11
558.98110264979675
 21
399.90817530267492
 31
0.0
  0
LINE
  5
364D3
  8
0
 10
576.81108606855287
 20
397.90817530267492
 30
0.0
 11
553.98110264979675
 21
397.90817530267492
 31
0.0
  0
LINE
  5
364D4
  8
0
 10
576.81108606855287
 20
397.90817530267492
 30
0.0
 11
576.81108606855287
 21
281.26165810172728
 31
0.0
  0
LINE
  5
364D5
  8
0
 10
553.98110264979675
 20
397.90817530267492
 30
0.0
 11
553.98110264979675
 21
394.2081753026751
 31
0.0
  0
LINE
  5
364D6
  8
0
 10
566.21209427848669
 20
269.12910507287779
 30
0.0
 11
657.48110264979732
 21
373.60376699244529
 31
0.0
  0
ARC
  5
364D7
  8
0
 10
558.68110264979669
 20
275.7081753026751
 30
0.0
 40
9.9999999999999751
 50
270.0
 51
318.8595548625039
  0
LINE
  5
364D8
  8
0
 10
549.28110264979705
 20
265.70817530267499
 30
0.0
 11
558.68110264979669
 21
265.70817530267499
 31
0.0
  0
ARC
  5
364D9
  8
0
 10
549.28110264979705
 20
275.7081753026751
 30
0.0
 40
9.9999999999999982
 50
172.8916677521639
 51
270.0
  0
LINE
  5
364DA
  8
0
 10
553.98110264979675
 20
394.2081753026751
 30
0.0
 11
539.35796312351704
 21
276.94563315730369
 31
0.0
  0
LINE
  5
364E1
  8
0
 10
597.23110264979675
 20
411.70817530267499
 30
0.0
 11
622.73110264979721
 21
411.70817530267499
 31
0.0
  0
LINE
  5
364E2
  8
0
 10
569.63110264979684
 20
408.40817530267481
 30
0.0
 11
650.33110264979769
 21
408.40817530267481
 31
0.0
  0
LINE
  5
364E4
  8
0
 10
562.98110264979675
 20
404.90817530267481
 30
0.0
 11
656.98110264979732
 21
404.90817530267481
 31
0.0
  0
LINE
  5
364E6
  8
0
 10
558.98110264979675
 20
399.90817530267492
 30
0.0
 11
660.98110264979732
 21
399.90817530267492
 31
0.0
  0
LINE
  5
3651C
  8
2
 10
920.51113648498085
 20
319.23102284045132
 30
0.0
 11
920.51113648498085
 21
397.70817530267499
 31
0.0
  0
LINE
  5
3651D
  8
2
 10
830.51113648498085
 20
397.70817530267499
 30
0.0
 11
830.51113648498085
 21
319.23102284045132
 31
0.0
  0
LINE
  5
36522
  8
2
 10
885.51113648498085
 20
397.70817530267499
 30
0.0
 11
885.51113648498085
 21
411.70817530267499
 31
0.0
  0
LINE
  5
36523
  8
2
 10
865.51113648498085
 20
411.70817530267499
 30
0.0
 11
865.51113648498085
 21
397.70817530267499
 31
0.0
  0
LINE
  5
36527
  8
2
 10
830.51113648498085
 20
397.70817530267499
 30
0.0
 11
920.51113648498085
 21
397.70817530267499
 31
0.0
  0
LINE
  5
3652F
  8
0
 10
923.01113648498085
 20
319.23102284045132
 30
0.0
 11
923.01113648498085
 21
399.90817530267492
 31
0.0
  0
LINE
  5
36530
  8
0
 10
828.01113648498085
 20
399.90817530267492
 30
0.0
 11
828.01113648498085
 21
319.23102284045132
 31
0.0
  0
LINE
  5
36531
  8
0
 10
888.26113648498074
 20
408.40817530267481
 30
0.0
 11
888.26113648498074
 21
411.70817530267499
 31
0.0
  0
LINE
  5
36532
  8
0
 10
862.76113648498085
 20
411.70817530267499
 30
0.0
 11
862.76113648498085
 21
408.40817530267481
 31
0.0
  0
ARC
  5
36533
  8
0
 10
835.1611364849814
 20
405.40817530267481
 30
0.0
 40
3.000000000000028
 50
90.0
 51
180.0
  0
ARC
  5
36534
  8
0
 10
915.86113648498019
 20
405.40817530267481
 30
0.0
 40
3.0000000000000351
 50
0.0
 51
90.0
  0
LINE
  5
36535
  8
0
 10
918.86113648498122
 20
404.90817530267481
 30
0.0
 11
918.86113648498122
 21
405.40817530267481
 31
0.0
  0
LINE
  5
36536
  8
0
 10
832.16113648498037
 20
405.40817530267481
 30
0.0
 11
832.16113648498037
 21
404.90817530267481
 31
0.0
  0
ARC
  5
36537
  8
0
 10
828.51113648498074
 20
400.90817530267481
 30
0.0
 40
4.000000000000056
 50
90.0
 51
180.0
  0
ARC
  5
36538
  8
0
 10
922.51113648498085
 20
400.90817530267481
 30
0.0
 40
4.0000000000000488
 50
0.0
 51
90.0
  0
LINE
  5
36539
  8
0
 10
926.51113648498085
 20
399.90817530267492
 30
0.0
 11
926.51113648498085
 21
400.90817530267481
 31
0.0
  0
LINE
  5
3653A
  8
0
 10
824.51113648498085
 20
400.90817530267481
 30
0.0
 11
824.51113648498085
 21
399.90817530267492
 31
0.0
  0
LINE
  5
3653B
  8
0
 10
841.51113648498085
 20
265.70817530267499
 30
0.0
 11
841.51113648498085
 21
281.26165810172728
 31
0.0
  0
POLYLINE
  5
3653C
  8
0
 66
     1
 10
0.0
 20
0.0
 30
0.0
  0
VERTEX
  5
38644
  8
0
 10
841.51113648498085
 20
281.26165810172728
 30
0.0
  0
VERTEX
  5
38645
  8
0
 10
840.80675676321982
 20
282.10608009476567
 30
0.0
  0
VERTEX
  5
38646
  8
0
 10
839.44632015817285
 20
283.84588055485892
 30
0.0
  0
VERTEX
  5
38647
  8
0
 10
838.15239226221365
 20
285.65093630733833
 30
0.0
  0
VERTEX
  5
38648
  8
0
 10
837.53111967724271
 20
286.57689920810338
 30
0.0
  0
VERTEX
  5
38649
  8
0
 10
836.92735926450769
 20
287.5179185697466
 30
0.0
  0
VERTEX
  5
3864A
  8
0
 10
835.7734803021184
 20
289.44338435823369
 30
0.0
  0
VERTEX
  5
3864B
  8
0
 10
834.6928832938338
 20
291.42378283691551
 30
0.0
  0
VERTEX
  5
3864C
  8
0
 10
833.68756101597774
 20
293.45546186612461
 30
0.0
  0
VERTEX
  5
3864D
  8
0
 10
832.75936742744125
 20
295.53467473748202
 30
0.0
  0
VERTEX
  5
3864E
  8
0
 10
831.91001425071875
 20
297.65758708336671
 30
0.0
  0
VERTEX
  5
3864F
  8
0
 10
831.51539805499203
 20
298.73421008710511
 30
0.0
  0
VERTEX
  5
38650
  8
0
 10
831.14106781524345
 20
299.82028394804053
 30
0.0
  0
VERTEX
  5
38651
  8
0
 10
830.45394616885267
 20
302.01877700738891
 30
0.0
  0
VERTEX
  5
38652
  8
0
 10
829.84991646270282
 20
304.24901192396692
 30
0.0
  0
VERTEX
  5
38653
  8
0
 10
829.33009261445829
 20
306.50687582377759
 30
0.0
  0
VERTEX
  5
38654
  8
0
 10
828.89543325407146
 20
308.78820488100479
 30
0.0
  0
VERTEX
  5
38655
  8
0
 10
828.54673995592475
 20
311.08879199670668
 30
0.0
  0
VERTEX
  5
38656
  8
0
 10
828.40483775754001
 20
312.24498268348219
 30
0.0
  0
VERTEX
  5
38657
  8
0
 10
828.28465576061888
 20
313.40439455731263
 30
0.0
  0
VERTEX
  5
38658
  8
0
 10
828.10966398911125
 20
315.73074225860961
 30
0.0
  0
VERTEX
  5
38659
  8
0
 10
828.02208735139811
 20
318.0635449808006
 30
0.0
  0
VERTEX
  5
3865A
  8
0
 10
828.01113648498085
 20
319.23102284045132
 30
0.0
  0
SEQEND
  5
3865B
  8
0
  0
POLYLINE
  5
3653D
  8
0
 66
     1
 10
0.0
 20
0.0
 30
0.0
  0
VERTEX
  5
3865C
  8
0
 10
828.01113648498085
 20
319.23102284045132
 30
0.0
  0
VERTEX
  5
3865D
  8
0
 10
828.01616046844345
 20
320.02181446643363
 30
0.0
  0
VERTEX
  5
3865E
  8
0
 10
828.05634595984236
 20
321.60272862973352
 30
0.0
  0
VERTEX
  5
3865F
  8
0
 10
828.13668294170384
 20
323.18163609315479
 30
0.0
  0
VERTEX
  5
38660
  8
0
 10
828.19188832562304
 20
323.96991974224687
 30
0.0
  0
VERTEX
  5
38661
  8
0
 10
828.2571034409192
 20
324.75720094335293
 30
0.0
  0
VERTEX
  5
38662
  8
0
 10
828.41750556972499
 20
326.32809009516632
 30
0.0
  0
VERTEX
  5
38663
  8
0
 10
828.61775361190575
 20
327.8929744195425
 30
0.0
  0
VERTEX
  5
38664
  8
0
 10
828.85767813762595
 20
329.45052986811152
 30
0.0
  0
VERTEX
  5
38665
  8
0
 10
829.13707614678424
 20
330.99943859346422
 30
0.0
  0
VERTEX
  5
38666
  8
0
 10
829.45571124077014
 20
332.5383900641832
 30
0.0
  0
VERTEX
  5
38667
  8
0
 10
829.62965973624966
 20
333.3037245614741
 30
0.0
  0
VERTEX
  5
38668
  8
0
 10
829.81331382248391
 20
334.06608217368239
 30
0.0
  0
VERTEX
  5
38669
  8
0
 10
830.20958132444036
 20
335.58122234191802
 30
0.0
  0
VERTEX
  5
3866A
  8
0
 10
830.64417846476954
 20
337.082528609044
 30
0.0
  0
VERTEX
  5
3866B
  8
0
 10
831.11673753090406
 20
338.56873072007329
 30
0.0
  0
VERTEX
  5
3866C
  8
0
 10
831.62685869069446
 20
340.0385711996455
 30
0.0
  0
VERTEX
  5
3866D
  8
0
 10
832.17411033071221
 20
341.49080641597129
 30
0.0
  0
VERTEX
  5
3866E
  8
0
 10
832.46151660073974
 20
342.20993746003887
 30
0.0
  0
VERTEX
  5
3866F
  8
0
 10
832.75802942143491
 20
342.92420763307382
 30
0.0
  0
VERTEX
  5
38670
  8
0
 10
833.37812190901525
 20
344.337562050418
 30
0.0
  0
VERTEX
  5
38671
  8
0
 10
834.03386313330145
 20
345.72967382906432
 30
0.0
  0
VERTEX
  5
38672
  8
0
 10
834.37492980521984
 20
346.4173949164483
 30
0.0
  0
VERTEX
  5
38673
  8
0
 10
834.72469827175155
 20
347.09936510346603
 30
0.0
  0
VERTEX
  5
38674
  8
0
 10
835.4500428088686
 20
348.44547697806001
 30
0.0
  0
VERTEX
  5
38675
  8
0
 10
836.20928303075925
 20
349.76687050781129
 30
0.0
  0
VERTEX
  5
38676
  8
0
 10
836.60141438125345
 20
350.41794766577959
 30
0.0
  0
VERTEX
  5
38677
  8
0
 10
837.0017765443954
 20
351.06242766187142
 30
0.0
  0
VERTEX
  5
38678
  8
0
 10
837.82685282114744
 20
352.33105226954513
 30
0.0
  0
VERTEX
  5
38679
  8
0
 10
838.68381376411173
 20
353.57167094776059
 30
0.0
  0
VERTEX
  5
3867A
  8
0
 10
839.57193429877486
 20
354.78323400925819
 30
0.0
  0
VERTEX
  5
3867B
  8
0
 10
840.49046298649955
 20
355.96471635073021
 30
0.0
  0
VERTEX
  5
3867C
  8
0
 10
841.43862266031465
 20
357.11511832016282
 30
0.0
  0
VERTEX
  5
3867D
  8
0
 10
841.92356437861963
 20
357.67835894204791
 30
0.0
  0
VERTEX
  5
3867E
  8
0
 10
842.41561108247515
 20
358.23346656263811
 30
0.0
  0
VERTEX
  5
3867F
  8
0
 10
843.42060162323753
 20
359.3188148438922
 30
0.0
  0
VERTEX
  5
38680
  8
0
 10
844.4527439602698
 20
360.37024485092212
 30
0.0
  0
VERTEX
  5
38681
  8
0
 10
845.51116479811208
 20
361.38686696897281
 30
0.0
  0
VERTEX
  5
38682
  8
0
 10
846.59496860706611
 20
362.36782103423678
 30
0.0
  0
VERTEX
  5
38683
  8
0
 10
847.70323838090917
 20
363.31227706164049
 30
0.0
  0
VERTEX
  5
38684
  8
0
 10
848.2662557583061
 20
363.77056736615992
 30
0.0
  0
VERTEX
  5
38685
  8
0
 10
848.83503641276445
 20
364.21943594709501
 30
0.0
  0
VERTEX
  5
38686
  8
0
 10
849.98940508850671
 20
365.08853014361603
 30
0.0
  0
VERTEX
  5
38687
  8
0
 10
851.16536769698723
 20
365.91882431074691
 30
0.0
  0
VERTEX
  5
38688
  8
0
 10
852.36192925643718
 20
366.70961593672882
 30
0.0
  0
VERTEX
  5
38689
  8
0
 10
853.57807735631638
 20
367.46023593289829
 30
0.0
  0
VERTEX
  5
3868A
  8
0
 10
854.81278301391922
 20
368.1700491997986
 30
0.0
  0
VERTEX
  5
3868B
  8
0
 10
855.43676905229756
 20
368.50946426795508
 30
0.0
  0
VERTEX
  5
3868C
  8
0
 10
856.0650015449919
 20
368.83845516454221
 30
0.0
  0
VERTEX
  5
3868D
  8
0
 10
857.33367344763883
 20
369.46488828895139
 30
0.0
  0
VERTEX
  5
3868E
  8
0
 10
858.61772529877453
 20
370.04881854806348
 30
0.0
  0
VERTEX
  5
3868F
  8
0
 10
859.91607066233701
 20
370.58975187858232
 30
0.0
  0
VERTEX
  5
38690
  8
0
 10
861.22761100852767
 20
371.0872305969047
 30
0.0
  0
VERTEX
  5
38691
  8
0
 10
862.55123664327675
 20
371.54083378637011
 30
0.0
  0
VERTEX
  5
38692
  8
0
 10
863.217231842611
 20
371.7510606630704
 30
0.0
  0
VERTEX
  5
38693
  8
0
 10
863.88582764714999
 20
371.9501776533935
 30
0.0
  0
VERTEX
  5
38694
  8
0
 10
865.23025482292076
 20
372.31491585219692
 30
0.0
  0
VERTEX
  5
38695
  8
0
 10
866.58338065097541
 20
372.63473977785043
 30
0.0
  0
VERTEX
  5
38696
  8
0
 10
867.94406025177341
 20
372.90937882738262
 30
0.0
  0
VERTEX
  5
38697
  8
0
 10
869.31114235452867
 20
373.13860062873891
 30
0.0
  0
VERTEX
  5
38698
  8
0
 10
870.68347027129755
 20
373.32221123739151
 30
0.0
  0
VERTEX
  5
38699
  8
0
 10
871.37123870446715
 20
373.39686228536721
 30
0.0
  0
VERTEX
  5
3869A
  8
0
 10
872.0598828756564
 20
373.4600553004334
 30
0.0
  0
VERTEX
  5
3869B
  8
0
 10
873.43921558512739
 20
373.55201618802681
 30
0.0
  0
VERTEX
  5
3869C
  8
0
 10
874.82030134653087
 20
373.59801609207898
 30
0.0
  0
VERTEX
  5
3869D
  8
0
 10
875.51113648498085
 20
373.6037669924458
 30
0.0
  0
VERTEX
  5
3869E
  8
0
 10
876.20197162343072
 20
373.59801609207898
 30
0.0
  0
VERTEX
  5
3869F
  8
0
 10
877.58305738483432
 20
373.55201618802681
 30
0.0
  0
VERTEX
  5
386A0
  8
0
 10
878.96239009430519
 20
373.4600553004334
 30
0.0
  0
VERTEX
  5
386A1
  8
0
 10
879.65103426549467
 20
373.39686228536721
 30
0.0
  0
VERTEX
  5
386A2
  8
0
 10
880.33880269866404
 20
373.32221123739151
 30
0.0
  0
VERTEX
  5
386A3
  8
0
 10
881.71113061543292
 20
373.13860062873891
 30
0.0
  0
VERTEX
  5
386A4
  8
0
 10
883.0782127181883
 20
372.90937882738262
 30
0.0
  0
VERTEX
  5
386A5
  8
0
 10
884.43889231898618
 20
372.63473977785043
 30
0.0
  0
VERTEX
  5
386A6
  8
0
 10
885.79201814704084
 20
372.31491585219692
 30
0.0
  0
VERTEX
  5
386A7
  8
0
 10
887.1364453228116
 20
371.9501776533935
 30
0.0
  0
VERTEX
  5
386A8
  8
0
 10
887.80504112735071
 20
371.7510606630704
 30
0.0
  0
VERTEX
  5
386A9
  8
0
 10
888.47103632668495
 20
371.54083378637011
 30
0.0
  0
VERTEX
  5
386AA
  8
0
 10
889.79466196143414
 20
371.0872305969047
 30
0.0
  0
VERTEX
  5
386AB
  8
0
 10
891.1062023076247
 20
370.58975187858232
 30
0.0
  0
VERTEX
  5
386AC
  8
0
 10
892.40454767118706
 20
370.04881854806348
 30
0.0
  0
VERTEX
  5
386AD
  8
0
 10
893.68859952232276
 20
369.46488828895139
 30
0.0
  0
VERTEX
  5
386AE
  8
0
 10
894.95727142496969
 20
368.83845516454221
 30
0.0
  0
VERTEX
  5
386AF
  8
0
 10
895.58550391766403
 20
368.50946426795508
 30
0.0
  0
VERTEX
  5
386B0
  8
0
 10
896.20948995604238
 20
368.1700491997986
 30
0.0
  0
VERTEX
  5
386B1
  8
0
 10
897.44419561364521
 20
367.46023593289829
 30
0.0
  0
VERTEX
  5
386B2
  8
0
 10
898.66034371352453
 20
366.70961593672882
 30
0.0
  0
VERTEX
  5
386B3
  8
0
 10
899.85690527297447
 20
365.91882431074691
 30
0.0
  0
VERTEX
  5
386B4
  8
0
 10
901.03286788145476
 20
365.08853014361603
 30
0.0
  0
VERTEX
  5
386B5
  8
0
 10
902.18723655719714
 20
364.21943594709501
 30
0.0
  0
VERTEX
  5
386B6
  8
0
 10
902.75601721165549
 20
363.77056736615992
 30
0.0
  0
VERTEX
  5
386B7
  8
0
 10
903.31903458905344
 20
363.31227706164049
 30
0.0
  0
VERTEX
  5
386B8
  8
0
 10
904.42730436289548
 20
362.36782103423678
 30
0.0
  0
VERTEX
  5
386B9
  8
0
 10
905.51110817184963
 20
361.38686696897281
 30
0.0
  0
VERTEX
  5
386BA
  8
0
 10
906.56952900969179
 20
360.37024485092212
 30
0.0
  0
VERTEX
  5
386BB
  8
0
 10
907.6016713467252
 20
359.3188148438922
 30
0.0
  0
VERTEX
  5
386BC
  8
0
 10
908.60666188748644
 20
358.23346656263811
 30
0.0
  0
VERTEX
  5
386BD
  8
0
 10
909.09870859134196
 20
357.67835894204791
 30
0.0
  0
VERTEX
  5
386BE
  8
0
 10
909.58365030964706
 20
357.11511832016282
 30
0.0
  0
VERTEX
  5
386BF
  8
0
 10
910.53180998346215
 20
355.96471635073021
 30
0.0
  0
VERTEX
  5
386C0
  8
0
 10
911.45033867118661
 20
354.78323400925819
 30
0.0
  0
VERTEX
  5
386C1
  8
0
 10
912.33845920585009
 20
353.57167094776059
 30
0.0
  0
VERTEX
  5
386C2
  8
0
 10
913.19542014881415
 20
352.33105226954513
 30
0.0
  0
VERTEX
  5
386C3
  8
0
 10
914.02049642556619
 20
351.06242766187142
 30
0.0
  0
VERTEX
  5
386C4
  8
0
 10
914.42085858870814
 20
350.41794766577959
 30
0.0
  0
VERTEX
  5
386C5
  8
0
 10
914.81298993920245
 20
349.76687050781129
 30
0.0
  0
VERTEX
  5
386C6
  8
0
 10
915.57223016109299
 20
348.44547697806001
 30
0.0
  0
VERTEX
  5
386C7
  8
0
 10
916.29757469821016
 20
347.09936510346603
 30
0.0
  0
VERTEX
  5
386C8
  8
0
 10
916.64734316474176
 20
346.41739491644881
 30
0.0
  0
VERTEX
  5
386C9
  8
0
 10
916.98840983666014
 20
345.72967382906432
 30
0.0
  0
VERTEX
  5
386CA
  8
0
 10
917.64415106094657
 20
344.337562050418
 30
0.0
  0
VERTEX
  5
386CB
  8
0
 10
918.26424354852679
 20
342.92420763307382
 30
0.0
  0
VERTEX
  5
386CC
  8
0
 10
918.56075636922185
 20
342.20993746003887
 30
0.0
  0
VERTEX
  5
386CD
  8
0
 10
918.84816263924938
 20
341.49080641597129
 30
0.0
  0
VERTEX
  5
386CE
  8
0
 10
919.39541427926736
 20
340.0385711996455
 30
0.0
  0
VERTEX
  5
386CF
  8
0
 10
919.90553543905753
 20
338.5687307200738
 30
0.0
  0
VERTEX
  5
386D0
  8
0
 10
920.37809450519205
 20
337.082528609044
 30
0.0
  0
VERTEX
  5
386D1
  8
0
 10
920.81269164552123
 20
335.58122234191802
 30
0.0
  0
VERTEX
  5
386D2
  8
0
 10
921.20895914747769
 20
334.06608217368239
 30
0.0
  0
VERTEX
  5
386D3
  8
0
 10
921.39261323371193
 20
333.3037245614741
 30
0.0
  0
VERTEX
  5
386D4
  8
0
 10
921.56656172919156
 20
332.5383900641832
 30
0.0
  0
VERTEX
  5
386D5
  8
0
 10
921.88519682317735
 20
330.99943859346422
 30
0.0
  0
VERTEX
  5
386D6
  8
0
 10
922.16459483233575
 20
329.45052986811152
 30
0.0
  0
VERTEX
  5
386D7
  8
0
 10
922.40451935805595
 20
327.8929744195425
 30
0.0
  0
VERTEX
  5
386D8
  8
0
 10
922.6047674002366
 20
326.32809009516632
 30
0.0
  0
VERTEX
  5
386D9
  8
0
 10
922.7651695290424
 20
324.75720094335293
 30
0.0
  0
VERTEX
  5
386DA
  8
0
 10
922.83038464433855
 20
323.96991974224687
 30
0.0
  0
VERTEX
  5
386DB
  8
0
 10
922.88559002825775
 20
323.18163609315479
 30
0.0
  0
VERTEX
  5
386DC
  8
0
 10
922.96592701011923
 20
321.60272862973352
 30
0.0
  0
VERTEX
  5
386DD
  8
0
 10
923.00611250151815
 20
320.02181446643363
 30
0.0
  0
VERTEX
  5
386DE
  8
0
 10
923.01113648498085
 20
319.23102284045132
 30
0.0
  0
SEQEND
  5
386DF
  8
0
  0
POLYLINE
  5
3653E
  8
0
 66
     1
 10
0.0
 20
0.0
 30
0.0
  0
VERTEX
  5
386E0
  8
0
 10
923.01113648498085
 20
319.23102284045132
 30
0.0
  0
VERTEX
  5
386E1
  8
0
 10
923.00018561856348
 20
318.0635449808006
 30
0.0
  0
VERTEX
  5
386E2
  8
0
 10
922.91260898085056
 20
315.73074225860961
 30
0.0
  0
VERTEX
  5
386E3
  8
0
 10
922.73761720934272
 20
313.40439455731263
 30
0.0
  0
VERTEX
  5
386E4
  8
0
 10
922.61743521242158
 20
312.24498268348219
 30
0.0
  0
VERTEX
  5
386E5
  8
0
 10
922.47553301403696
 20
311.08879199670668
 30
0.0
  0
VERTEX
  5
386E6
  8
0
 10
922.12683971589013
 20
308.78820488100479
 30
0.0
  0
VERTEX
  5
386E7
  8
0
 10
921.6921803555033
 20
306.50687582377759
 30
0.0
  0
VERTEX
  5
386E8
  8
0
 10
921.17235650725877
 20
304.24901192396692
 30
0.0
  0
VERTEX
  5
386E9
  8
0
 10
920.56832680110892
 20
302.01877700738891
 30
0.0
  0
VERTEX
  5
386EA
  8
0
 10
919.88120515471837
 20
299.82028394804053
 30
0.0
  0
VERTEX
  5
386EB
  8
0
 10
919.50687491496956
 20
298.73421008710511
 30
0.0
  0
VERTEX
  5
386EC
  8
0
 10
919.11225871924307
 20
297.65758708336671
 30
0.0
  0
VERTEX
  5
386ED
  8
0
 10
918.26290554252034
 20
295.53467473748202
 30
0.0
  0
VERTEX
  5
386EE
  8
0
 10
917.33471195398386
 20
293.45546186612461
 30
0.0
  0
VERTEX
  5
386EF
  8
0
 10
916.32938967612699
 20
291.42378283691551
 30
0.0
  0
VERTEX
  5
386F0
  8
0
 10
915.24879266784319
 20
289.44338435823369
 30
0.0
  0
VERTEX
  5
386F1
  8
0
 10
914.09491370545413
 20
287.5179185697466
 30
0.0
  0
VERTEX
  5
386F2
  8
0
 10
913.49115329271888
 20
286.57689920810338
 30
0.0
  0
VERTEX
  5
386F3
  8
0
 10
912.86988070774805
 20
285.65093630733833
 30
0.0
  0
VERTEX
  5
386F4
  8
0
 10
911.57595281178874
 20
283.84588055485892
 30
0.0
  0
VERTEX
  5
386F5
  8
0
 10
910.215516206742
 20
282.10608009476567
 30
0.0
  0
VERTEX
  5
386F6
  8
0
 10
909.51113648498085
 20
281.26165810172728
 30
0.0
  0
SEQEND
  5
386F7
  8
0
  0
LINE
  5
3653F
  8
0
 10
909.51113648498085
 20
281.26165810172728
 30
0.0
 11
909.51113648498085
 21
265.70817530267499
 31
0.0
  0
POLYLINE
  5
36541
  8
0
 66
     1
 10
0.0
 20
0.0
 30
0.0
  0
VERTEX
  5
386F8
  8
0
 10
846.01113648498085
 20
280.33263269613639
 30
0.0
  0
VERTEX
  5
386F9
  8
0
 10
845.21165690962152
 20
281.14637144470498
 30
0.0
  0
VERTEX
  5
386FA
  8
0
 10
843.66451530987888
 20
282.83795264945542
 30
0.0
  0
VERTEX
  5
386FB
  8
0
 10
842.18936177593048
 20
284.61179899363702
 30
0.0
  0
VERTEX
  5
386FC
  8
0
 10
841.47982913881685
 20
285.52832557702959
 30
0.0
  0
VERTEX
  5
386FD
  8
0
 10
840.78953083576755
 20
286.4639007656196
 30
0.0
  0
VERTEX
  5
386FE
  8
0
 10
839.46818675354086
 20
288.39007136037799
 30
0.0
  0
VERTEX
  5
386FF
  8
0
 10
838.22831637687614
 20
290.38595674315451
 30
0.0
  0
VERTEX
  5
38700
  8
0
 10
837.07272238520636
 20
292.44704529158798
 30
0.0
  0
VERTEX
  5
38701
  8
0
 10
836.00401695443168
 20
294.56867799405973
 30
0.0
  0
VERTEX
  5
38702
  8
0
 10
835.02461585219135
 20
296.7460589812149
 30
0.0
  0
VERTEX
  5
38703
  8
0
 10
834.56910429311199
 20
297.8541216122581
 30
0.0
  0
VERTEX
  5
38704
  8
0
 10
834.13673297711557
 20
298.97426636683758
 30
0.0
  0
VERTEX
  5
38705
  8
0
 10
833.34237535439195
 20
301.24826337358809
 30
0.0
  0
VERTEX
  5
38706
  8
0
 10
832.64333859896135
 20
303.56290971844459
 30
0.0
  0
VERTEX
  5
38707
  8
0
 10
832.04120285659872
 20
305.91297323211529
 30
0.0
  0
VERTEX
  5
38708
  8
0
 10
831.53732923205996
 20
308.29314168615571
 30
0.0
  0
VERTEX
  5
38709
  8
0
 10
831.13285671234644
 20
310.6980348010598
 30
0.0
  0
VERTEX
  5
3870A
  8
0
 10
830.96819042092011
 20
311.90805615153567
 30
0.0
  0
VERTEX
  5
3870B
  8
0
 10
830.8286995920779
 20
313.12221640817188
 30
0.0
  0
VERTEX
  5
3870C
  8
0
 10
830.62554540675865
 20
315.56020673794143
 30
0.0
  0
VERTEX
  5
3870D
  8
0
 10
830.52385337863507
 20
318.00649480672882
 30
0.0
  0
VERTEX
  5
3870E
  8
0
 10
830.51113648498085
 20
319.23102284045132
 30
0.0
  0
SEQEND
  5
3870F
  8
0
  0
POLYLINE
  5
36542
  8
0
 66
     1
 10
0.0
 20
0.0
 30
0.0
  0
VERTEX
  5
38710
  8
0
 10
830.51113648498085
 20
319.23102284045132
 30
0.0
  0
VERTEX
  5
38711
  8
0
 10
830.51589604826131
 20
319.98019385453972
 30
0.0
  0
VERTEX
  5
38712
  8
0
 10
830.5539665137976
 20
321.4779020092451
 30
0.0
  0
VERTEX
  5
38713
  8
0
 10
830.6300752334555
 20
322.97370907985493
 30
0.0
  0
VERTEX
  5
38714
  8
0
 10
830.68237507085269
 20
323.72050411583677
 30
0.0
  0
VERTEX
  5
38715
  8
0
 10
830.74415781165953
 20
324.46634946425269
 30
0.0
  0
VERTEX
  5
38716
  8
0
 10
830.89611772315936
 20
325.95456023965522
 30
0.0
  0
VERTEX
  5
38717
  8
0
 10
831.08582639469932
 20
327.43708223116892
 30
0.0
  0
VERTEX
  5
38718
  8
0
 10
831.31312331380275
 20
328.91266107718178
 30
0.0
  0
VERTEX
  5
38719
  8
0
 10
831.57781616458385
 20
330.3800482906741
 30
0.0
  0
VERTEX
  5
3871A
  8
0
 10
831.8796809904652
 20
331.83800231556597
 30
0.0
  0
VERTEX
  5
3871B
  8
0
 10
832.04447430197251
 20
332.56305604984158
 30
0.0
  0
VERTEX
  5
3871C
  8
0
 10
832.21846238366834
 20
333.28528957719618
 30
0.0
  0
VERTEX
  5
3871D
  8
0
 10
832.59387370131014
 20
334.72068552605151
 30
0.0
  0
VERTEX
  5
3871E
  8
0
 10
833.00559730793896
 20
336.14297567385478
 30
0.0
  0
VERTEX
  5
3871F
  8
0
 10
833.4532848442758
 20
337.55095662114582
 30
0.0
  0
VERTEX
  5
38720
  8
0
 10
833.93655752197265
 20
338.9434370754775
 30
0.0
  0
VERTEX
  5
38721
  8
0
 10
834.45500644409549
 20
340.31923885936521
 30
0.0
  0
VERTEX
  5
38722
  8
0
 10
834.72728606833152
 20
341.0005209011133
 30
0.0
  0
VERTEX
  5
38723
  8
0
 10
835.00819295109522
 20
341.67719790714642
 30
0.0
  0
VERTEX
  5
38724
  8
0
 10
835.59564899196073
 20
343.01616524989367
 30
0.0
  0
VERTEX
  5
38725
  8
0
 10
836.21687752023172
 20
344.33500798755858
 30
0.0
  0
VERTEX
  5
38726
  8
0
 10
836.53999331468094
 20
344.98653322823787
 30
0.0
  0
VERTEX
  5
38727
  8
0
 10
836.87135291455343
 20
345.63261024751768
 30
0.0
  0
VERTEX
  5
38728
  8
0
 10
837.55852142340052
 20
346.90787412871219
 30
0.0
  0
VERTEX
  5
38729
  8
0
 10
838.27780163361228
 20
348.15972063058189
 30
0.0
  0
VERTEX
  5
3872A
  8
0
 10
838.64929449197643
 20
348.77653056970939
 30
0.0
  0
VERTEX
  5
3872B
  8
0
 10
839.02858496232136
 20
349.38709056600692
 30
0.0
  0
VERTEX
  5
3872C
  8
0
 10
839.81023617187554
 20
350.58894545748763
 30
0.0
  0
VERTEX
  5
3872D
  8
0
 10
840.62209390731448
 20
351.76426841579678
 30
0.0
  0
VERTEX
  5
3872E
  8
0
 10
841.46347125594355
 20
352.91206500037327
 30
0.0
  0
VERTEX
  5
3872F
  8
0
 10
842.33365632852565
 20
354.03136406071559
 30
0.0
  0
VERTEX
  5
38730
  8
0
 10
843.23191286161273
 20
355.12121855807248
 30
0.0
  0
VERTEX
  5
38731
  8
0
 10
843.69133133158618
 20
355.6548149367004
 30
0.0
  0
VERTEX
  5
38732
  8
0
 10
844.15748084050108
 20
356.18070636673338
 30
0.0
  0
VERTEX
  5
38733
  8
0
 10
845.10957714227595
 20
357.20893105423738
 30
0.0
  0
VERTEX
  5
38734
  8
0
 10
846.08739619841253
 20
358.20502263984457
 30
0.0
  0
VERTEX
  5
38735
  8
0
 10
847.09011067636845
 20
359.16813833062952
 30
0.0
  0
VERTEX
  5
38736
  8
0
 10
848.11687217958831
 20
360.09746323456369
 30
0.0
  0
VERTEX
  5
38737
  8
0
 10
849.16681196533307
 20
360.99221104999918
 30
0.0
  0
VERTEX
  5
38738
  8
0
 10
849.70019684918395
 20
361.42638081217501
 30
0.0
  0
VERTEX
  5
38739
  8
0
 10
850.23904167972353
 20
361.85162473095579
 30
0.0
  0
VERTEX
  5
3873A
  8
0
 10
851.33265410937372
 20
362.67497712765999
 30
0.0
  0
VERTEX
  5
3873B
  8
0
 10
852.44672394898669
 20
363.46157160178382
 30
0.0
  0
VERTEX
  5
3873C
  8
0
 10
853.58030858425525
 20
364.21074261587228
 30
0.0
  0
VERTEX
  5
3873D
  8
0
 10
854.73244888940462
 20
364.92185629645343
 30
0.0
  0
VERTEX
  5
3873E
  8
0
 10
855.90217003871203
 20
365.5943109703594
 30
0.0
  0
VERTEX
  5
3873F
  8
0
 10
856.49331470664947
 20
365.91586208756053
 30
0.0
  0
VERTEX
  5
38740
  8
0
 10
857.0884823313063
 20
366.22753767380033
 30
0.0
  0
VERTEX
  5
38741
  8
0
 10
858.2903820285519
 20
366.8210006337672
 30
0.0
  0
VERTEX
  5
38742
  8
0
 10
859.50685220331161
 20
367.37419772134717
 30
0.0
  0
VERTEX
  5
38743
  8
0
 10
860.73686360037016
 20
367.88666087657521
 30
0.0
  0
VERTEX
  5
38744
  8
0
 10
861.97937550728875
 20
368.35795650445971
 30
0.0
  0
VERTEX
  5
38745
  8
0
 10
863.23333663494486
 20
368.78768584184809
 30
0.0
  0
VERTEX
  5
38746
  8
0
 10
863.86427945536707
 20
368.98684814609078
 30
0.0
  0
VERTEX
  5
38747
  8
0
 10
864.49768600703635
 20
369.17548529481792
 30
0.0
  0
VERTEX
  5
38748
  8
0
 10
865.77135385776626
 20
369.52102674631578
 30
0.0
  0
VERTEX
  5
38749
  8
0
 10
867.05326253697604
 20
369.82401783377691
 30
0.0
  0
VERTEX
  5
3874A
  8
0
 10
868.34232742194206
 20
370.08420219649128
 30
0.0
  0
VERTEX
  5
3874B
  8
0
 10
869.63745783507875
 20
370.30135969251342
 30
0.0
  0
VERTEX
  5
3874C
  8
0
 10
870.93755796675487
 20
370.47530658492087
 30
0.0
  0
VERTEX
  5
3874D
  8
0
 10
871.58912806133594
 20
370.54602863037138
 30
0.0
  0
VERTEX
  5
3874E
  8
0
 10
872.24152780246368
 20
370.60589569727648
 30
0.0
  0
VERTEX
  5
3874F
  8
0
 10
873.54826405354095
 20
370.6930165381541
 30
0.0
  0
VERTEX
  5
38750
  8
0
 10
874.85666109066005
 20
370.7365953946246
 30
0.0
  0
VERTEX
  5
38751
  8
0
 10
875.51113648498085
 20
370.742043616025
 30
0.0
  0
VERTEX
  5
38752
  8
0
 10
876.16561187930165
 20
370.7365953946246
 30
0.0
  0
VERTEX
  5
38753
  8
0
 10
877.47400891642064
 20
370.6930165381541
 30
0.0
  0
VERTEX
  5
38754
  8
0
 10
878.78074516749803
 20
370.60589569727648
 30
0.0
  0
VERTEX
  5
38755
  8
0
 10
879.43314490862565
 20
370.54602863037138
 30
0.0
  0
VERTEX
  5
38756
  8
0
 10
880.08471500320672
 20
370.47530658492087
 30
0.0
  0
VERTEX
  5
38757
  8
0
 10
881.38481513488296
 20
370.30135969251342
 30
0.0
  0
VERTEX
  5
38758
  8
0
 10
882.67994554801953
 20
370.08420219649128
 30
0.0
  0
VERTEX
  5
38759
  8
0
 10
883.96901043298567
 20
369.82401783377691
 30
0.0
  0
VERTEX
  5
3875A
  8
0
 10
885.25091911219533
 20
369.52102674631578
 30
0.0
  0
VERTEX
  5
3875B
  8
0
 10
886.52458696292513
 20
369.17548529481792
 30
0.0
  0
VERTEX
  5
3875C
  8
0
 10
887.15799351459475
 20
368.98684814609078
 30
0.0
  0
VERTEX
  5
3875D
  8
0
 10
887.78893633501696
 20
368.78768584184809
 30
0.0
  0
VERTEX
  5
3875E
  8
0
 10
889.04289746267295
 20
368.35795650445971
 30
0.0
  0
VERTEX
  5
3875F
  8
0
 10
890.28540936959143
 20
367.88666087657521
 30
0.0
  0
VERTEX
  5
38760
  8
0
 10
891.51542076665021
 20
367.37419772134717
 30
0.0
  0
VERTEX
  5
38761
  8
0
 10
892.73189094140969
 20
366.8210006337672
 30
0.0
  0
VERTEX
  5
38762
  8
0
 10
893.9337906386553
 20
366.22753767380033
 30
0.0
  0
VERTEX
  5
38763
  8
0
 10
894.52895826331223
 20
365.91586208756053
 30
0.0
  0
VERTEX
  5
38764
  8
0
 10
895.12010293124956
 20
365.5943109703594
 30
0.0
  0
VERTEX
  5
38765
  8
0
 10
896.28982408055697
 20
364.92185629645343
 30
0.0
  0
VERTEX
  5
38766
  8
0
 10
897.44196438570725
 20
364.21074261587228
 30
0.0
  0
VERTEX
  5
38767
  8
0
 10
898.5755490209749
 20
363.46157160178382
 30
0.0
  0
VERTEX
  5
38768
  8
0
 10
899.68961886058776
 20
362.67497712765999
 30
0.0
  0
VERTEX
  5
38769
  8
0
 10
900.78323129023829
 20
361.85162473095579
 30
0.0
  0
VERTEX
  5
3876A
  8
0
 10
901.32207612077764
 20
361.42638081217501
 30
0.0
  0
VERTEX
  5
3876B
  8
0
 10
901.85546100462852
 20
360.99221104999918
 30
0.0
  0
VERTEX
  5
3876C
  8
0
 10
902.90540079037328
 20
360.09746323456369
 30
0.0
  0
VERTEX
  5
3876D
  8
0
 10
903.93216229359314
 20
359.16813833062952
 30
0.0
  0
VERTEX
  5
3876E
  8
0
 10
904.93487677154906
 20
358.20502263984508
 30
0.0
  0
VERTEX
  5
3876F
  8
0
 10
905.91269582768564
 20
357.20893105423738
 30
0.0
  0
VERTEX
  5
38770
  8
0
 10
906.86479212946051
 20
356.18070636673338
 30
0.0
  0
VERTEX
  5
38771
  8
0
 10
907.33094163837541
 20
355.6548149367004
 30
0.0
  0
VERTEX
  5
38772
  8
0
 10
907.79036010834886
 20
355.12121855807248
 30
0.0
  0
VERTEX
  5
38773
  8
0
 10
908.68861664143606
 20
354.03136406071559
 30
0.0
  0
VERTEX
  5
38774
  8
0
 10
909.55880171401805
 20
352.91206500037327
 30
0.0
  0
VERTEX
  5
38775
  8
0
 10
910.40017906264711
 20
351.76426841579678
 30
0.0
  0
VERTEX
  5
38776
  8
0
 10
911.21203679808605
 20
350.58894545748763
 30
0.0
  0
VERTEX
  5
38777
  8
0
 10
911.99368800764023
 20
349.38709056600692
 30
0.0
  0
VERTEX
  5
38778
  8
0
 10
912.37297847798516
 20
348.77653056970939
 30
0.0
  0
VERTEX
  5
38779
  8
0
 10
912.74447133634931
 20
348.15972063058189
 30
0.0
  0
VERTEX
  5
3877A
  8
0
 10
913.46375154656107
 20
346.90787412871219
 30
0.0
  0
VERTEX
  5
3877B
  8
0
 10
914.15092005540816
 20
345.63261024751768
 30
0.0
  0
VERTEX
  5
3877C
  8
0
 10
914.48227965528065
 20
344.98653322823787
 30
0.0
  0
VERTEX
  5
3877D
  8
0
 10
914.80539544972987
 20
344.33500798755858
 30
0.0
  0
VERTEX
  5
3877E
  8
0
 10
915.42662397800075
 20
343.01616524989367
 30
0.0
  0
VERTEX
  5
3877F
  8
0
 10
916.01408001886648
 20
341.67719790714642
 30
0.0
  0
VERTEX
  5
38780
  8
0
 10
916.29498690163007
 20
341.0005209011133
 30
0.0
  0
VERTEX
  5
38781
  8
0
 10
916.56726652586633
 20
340.31923885936521
 30
0.0
  0
VERTEX
  5
38782
  8
0
 10
917.08571544798895
 20
338.9434370754775
 30
0.0
  0
VERTEX
  5
38783
  8
0
 10
917.56898812568568
 20
337.55095662114582
 30
0.0
  0
VERTEX
  5
38784
  8
0
 10
918.01667566202286
 20
336.14297567385478
 30
0.0
  0
VERTEX
  5
38785
  8
0
 10
918.42839926865145
 20
334.72068552605151
 30
0.0
  0
VERTEX
  5
38786
  8
0
 10
918.80381058629325
 20
333.28528957719618
 30
0.0
  0
VERTEX
  5
38787
  8
0
 10
918.97779866798919
 20
332.56305604984158
 30
0.0
  0
VERTEX
  5
38788
  8
0
 10
919.14259197949639
 20
331.83800231556597
 30
0.0
  0
VERTEX
  5
38789
  8
0
 10
919.44445680537774
 20
330.3800482906741
 30
0.0
  0
VERTEX
  5
3878A
  8
0
 10
919.70914965615884
 20
328.91266107718178
 30
0.0
  0
VERTEX
  5
3878B
  8
0
 10
919.93644657526227
 20
327.43708223116892
 30
0.0
  0
VERTEX
  5
3878C
  8
0
 10
920.12615524680223
 20
325.95456023965522
 30
0.0
  0
VERTEX
  5
3878D
  8
0
 10
920.27811515830206
 20
324.46634946425269
 30
0.0
  0
VERTEX
  5
3878E
  8
0
 10
920.33989789910902
 20
323.72050411583677
 30
0.0
  0
VERTEX
  5
3878F
  8
0
 10
920.3921977365062
 20
322.97370907985493
 30
0.0
  0
VERTEX
  5
38790
  8
0
 10
920.46830645616399
 20
321.4779020092451
 30
0.0
  0
VERTEX
  5
38791
  8
0
 10
920.50637692170028
 20
319.98019385453972
 30
0.0
  0
VERTEX
  5
38792
  8
0
 10
920.51113648498085
 20
319.23102284045132
 30
0.0
  0
SEQEND
  5
38793
  8
0
  0
POLYLINE
  5
36543
  8
0
 66
     1
 10
0.0
 20
0.0
 30
0.0
  0
VERTEX
  5
38794
  8
0
 10
920.51113648498085
 20
319.23102284045132
 30
0.0
  0
VERTEX
  5
38795
  8
0
 10
920.49841959132675
 20
318.00649480672882
 30
0.0
  0
VERTEX
  5
38796
  8
0
 10
920.39672756320306
 20
315.56020673794143
 30
0.0
  0
VERTEX
  5
38797
  8
0
 10
920.19357337788369
 20
313.12221640817188
 30
0.0
  0
VERTEX
  5
38798
  8
0
 10
920.05408254904148
 20
311.90805615153567
 30
0.0
  0
VERTEX
  5
38799
  8
0
 10
919.88941625761515
 20
310.6980348010598
 30
0.0
  0
VERTEX
  5
3879A
  8
0
 10
919.48494373790163
 20
308.29314168615571
 30
0.0
  0
VERTEX
  5
3879B
  8
0
 10
918.98107011336276
 20
305.91297323211529
 30
0.0
  0
VERTEX
  5
3879C
  8
0
 10
918.37893437100047
 20
303.56290971844459
 30
0.0
  0
VERTEX
  5
3879D
  8
0
 10
917.67989761556964
 20
301.24826337358809
 30
0.0
  0
VERTEX
  5
3879E
  8
0
 10
916.88553999284602
 20
298.97426636683758
 30
0.0
  0
VERTEX
  5
3879F
  8
0
 10
916.4531686768496
 20
297.8541216122581
 30
0.0
  0
VERTEX
  5
387A0
  8
0
 10
915.99765711777036
 20
296.7460589812149
 30
0.0
  0
VERTEX
  5
387A1
  8
0
 10
915.01825601552991
 20
294.56867799405973
 30
0.0
  0
VERTEX
  5
387A2
  8
0
 10
913.94955058475546
 20
292.44704529158798
 30
0.0
  0
VERTEX
  5
387A3
  8
0
 10
912.79395659308545
 20
290.38595674315502
 30
0.0
  0
VERTEX
  5
387A4
  8
0
 10
911.55408621642073
 20
288.39007136037799
 30
0.0
  0
VERTEX
  5
387A5
  8
0
 10
910.23274213419518
 20
286.4639007656196
 30
0.0
  0
VERTEX
  5
387A6
  8
0
 10
909.54244383114474
 20
285.52832557702959
 30
0.0
  0
VERTEX
  5
387A7
  8
0
 10
908.83291119403111
 20
284.61179899363742
 30
0.0
  0
VERTEX
  5
387A8
  8
0
 10
907.35775766008271
 20
282.83795264945542
 30
0.0
  0
VERTEX
  5
387A9
  8
0
 10
905.81061606034007
 20
281.14637144470498
 30
0.0
  0
VERTEX
  5
387AA
  8
0
 10
905.01113648498085
 20
280.33263269613639
 30
0.0
  0
SEQEND
  5
387AB
  8
0
  0
LINE
  5
36545
  8
0
 10
905.01113648498085
 20
265.70817530267499
 30
0.0
 11
909.51113648498085
 21
265.70817530267499
 31
0.0
  0
LINE
  5
36546
  8
0
 10
841.51113648498085
 20
265.70817530267499
 30
0.0
 11
846.01113648498085
 21
265.70817530267499
 31
0.0
  0
LINE
  5
36547
  8
0
 10
905.01113648498085
 20
358.12922090796337
 30
0.0
 11
905.01113648498085
 21
265.70817530267499
 31
0.0
  0
LINE
  5
36548
  8
0
 10
846.01113648498085
 20
265.70817530267499
 30
0.0
 11
846.01113648498085
 21
358.12922090796337
 31
0.0
  0
LINE
  5
36549
  8
0
 10
862.76113648498085
 20
411.70817530267499
 30
0.0
 11
888.26113648498074
 21
411.70817530267499
 31
0.0
  0
LINE
  5
3654A
  8
0
 10
835.16113648498049
 20
408.40817530267481
 30
0.0
 11
915.86113648498133
 21
408.40817530267481
 31
0.0
  0
LINE
  5
3654C
  8
0
 10
828.51113648498074
 20
404.90817530267481
 30
0.0
 11
922.51113648498085
 21
404.90817530267481
 31
0.0
  0
LINE
  5
3654E
  8
0
 10
824.51113648498085
 20
399.90817530267492
 30
0.0
 11
926.51113648498085
 21
399.90817530267492
 31
0.0
  0
LINE
  5
36561
  8
0
 10
841.28984863688765
 20
281.5231753026751
 30
0.0
 11
840.91113648498037
 21
281.5231753026751
 31
0.0
  0
LINE
  5
36562
  8
0
 10
840.91113648498037
 20
269.89317530267499
 30
0.0
 11
841.51113648498085
 21
269.89317530267499
 31
0.0
  0
LINE
  5
36563
  8
0
 10
918.74413648498103
 20
279.7081753026751
 30
0.0
 11
917.51113648498085
 21
279.7081753026751
 31
0.0
  0
LINE
  5
36564
  8
0
 10
917.51113648498085
 20
271.7081753026751
 30
0.0
 11
918.74413648498103
 21
271.7081753026751
 31
0.0
  0
LINE
  5
36565
  8
0
 10
919.51113648498074
 20
278.94117530267522
 30
0.0
 11
918.74413648498103
 21
279.7081753026751
 31
0.0
  0
LINE
  5
36566
  8
0
 10
918.74413648498103
 20
271.7081753026751
 30
0.0
 11
919.51113648498074
 21
272.47517530267493
 31
0.0
  0
LINE
  5
36567
  8
0
 10
917.51113648498085
 20
281.5231753026751
 30
0.0
 11
915.01113648498085
 21
281.5231753026751
 31
0.0
  0
LINE
  5
36568
  8
0
 10
915.01113648498085
 20
269.89317530267499
 30
0.0
 11
917.51113648498085
 21
269.89317530267499
 31
0.0
  0
LINE
  5
36569
  8
0
 10
905.01113648498085
 20
285.7081753026751
 30
0.0
 11
900.51113648498085
 21
285.7081753026751
 31
0.0
  0
LINE
  5
3656A
  8
0
 10
850.51113648498085
 20
285.7081753026751
 30
0.0
 11
846.01113648498085
 21
285.7081753026751
 31
0.0
  0
LINE
  5
3656B
  8
0
 10
846.01113648498085
 20
265.70817530267499
 30
0.0
 11
850.51113648498085
 21
265.70817530267499
 31
0.0
  0
LINE
  5
3656C
  8
0
 10
900.51113648498085
 20
265.70817530267499
 30
0.0
 11
905.01113648498085
 21
265.70817530267499
 31
0.0
  0
LINE
  5
3656D
  8
0
 10
918.74413648498103
 20
271.7081753026751
 30
0.0
 11
918.74413648498103
 21
279.7081753026751
 31
0.0
  0
LINE
  5
3656E
  8
0
 10
919.51113648498074
 20
272.47517530267493
 30
0.0
 11
919.51113648498074
 21
278.94117530267522
 31
0.0
  0
LINE
  5
3656F
  8
0
 10
836.21113648498056
 20
269.44984196934178
 30
0.0
 11
836.21113648498056
 21
281.96650863600831
 31
0.0
  0
LINE
  5
36570
  8
0
 10
840.91113648498037
 20
269.44984196934178
 30
0.0
 11
840.91113648498037
 21
281.96650863600831
 31
0.0
  0
LINE
  5
36571
  8
0
 10
836.21113648498056
 20
269.44984196934178
 30
0.0
 11
840.91113648498037
 21
269.44984196934178
 31
0.0
  0
POLYLINE
  5
36572
  8
0
 66
     1
 10
0.0
 20
0.0
 30
0.0
  0
VERTEX
  5
387AC
  8
0
 10
840.91113648498037
 20
278.83734196934159
 30
0.0
  0
VERTEX
  5
387AD
  8
0
 10
840.9039463513609
 20
278.3349042174263
 30
0.0
  0
VERTEX
  5
387AE
  8
0
 10
840.84717176757658
 20
277.3261436735138
 30
0.0
  0
VERTEX
  5
387AF
  8
0
 10
840.73256142882383
 20
276.27035378078972
 30
0.0
  0
VERTEX
  5
387B0
  8
0
 10
840.65171677556555
 20
275.7081753026751
 30
0.0
  0
SEQEND
  5
387B1
  8
0
  0
POLYLINE
  5
36573
  8
0
 66
     1
 10
0.0
 20
0.0
 30
0.0
  0
VERTEX
  5
387B2
  8
0
 10
836.47055619439652
 20
275.7081753026751
 30
0.0
  0
VERTEX
  5
387B3
  8
0
 10
836.38971154113835
 20
276.27035378078972
 30
0.0
  0
VERTEX
  5
387B4
  8
0
 10
836.27510120238549
 20
277.3261436735138
 30
0.0
  0
VERTEX
  5
387B5
  8
0
 10
836.21832661860105
 20
278.3349042174263
 30
0.0
  0
VERTEX
  5
387B6
  8
0
 10
836.21113648498056
 20
278.83734196934159
 30
0.0
  0
SEQEND
  5
387B7
  8
0
  0
POLYLINE
  5
36574
  8
0
 66
     1
 10
0.0
 20
0.0
 30
0.0
  0
VERTEX
  5
387B8
  8
0
 10
836.21113648498056
 20
278.83734196934159
 30
0.0
  0
VERTEX
  5
387B9
  8
0
 10
836.21832661860105
 20
279.3397797212574
 30
0.0
  0
VERTEX
  5
387BA
  8
0
 10
836.27510120238549
 20
280.3485402651695
 30
0.0
  0
VERTEX
  5
387BB
  8
0
 10
836.38971154113835
 20
281.40433015789358
 30
0.0
  0
VERTEX
  5
387BC
  8
0
 10
836.47055619439652
 20
281.96650863600831
 30
0.0
  0
SEQEND
  5
387BD
  8
0
  0
POLYLINE
  5
36575
  8
0
 66
     1
 10
0.0
 20
0.0
 30
0.0
  0
VERTEX
  5
387BE
  8
0
 10
840.65171677556555
 20
281.96650863600831
 30
0.0
  0
VERTEX
  5
387BF
  8
0
 10
840.73256142882383
 20
281.40433015789358
 30
0.0
  0
VERTEX
  5
387C0
  8
0
 10
840.84717176757658
 20
280.3485402651695
 30
0.0
  0
VERTEX
  5
387C1
  8
0
 10
840.9039463513609
 20
279.3397797212574
 30
0.0
  0
VERTEX
  5
387C2
  8
0
 10
840.91113648498037
 20
278.83734196934159
 30
0.0
  0
SEQEND
  5
387C3
  8
0
  0
POLYLINE
  5
36576
  8
0
 66
     1
 10
0.0
 20
0.0
 30
0.0
  0
VERTEX
  5
387C4
  8
0
 10
840.91113648498037
 20
272.57900863600838
 30
0.0
  0
VERTEX
  5
387C5
  8
0
 10
840.9039463513609
 20
272.07657088409269
 30
0.0
  0
VERTEX
  5
387C6
  8
0
 10
840.84717176757658
 20
271.06781034018059
 30
0.0
  0
VERTEX
  5
387C7
  8
0
 10
840.73256142882383
 20
270.01202044745651
 30
0.0
  0
VERTEX
  5
387C8
  8
0
 10
840.65171677556555
 20
269.44984196934178
 30
0.0
  0
SEQEND
  5
387C9
  8
0
  0
POLYLINE
  5
36577
  8
0
 66
     1
 10
0.0
 20
0.0
 30
0.0
  0
VERTEX
  5
387CA
  8
0
 10
836.47055619439652
 20
269.44984196934178
 30
0.0
  0
VERTEX
  5
387CB
  8
0
 10
836.38971154113835
 20
270.01202044745651
 30
0.0
  0
VERTEX
  5
387CC
  8
0
 10
836.27510120238549
 20
271.06781034018059
 30
0.0
  0
VERTEX
  5
387CD
  8
0
 10
836.21832661860105
 20
272.07657088409269
 30
0.0
  0
VERTEX
  5
387CE
  8
0
 10
836.21113648498056
 20
272.57900863600838
 30
0.0
  0
SEQEND
  5
387CF
  8
0
  0
POLYLINE
  5
36578
  8
0
 66
     1
 10
0.0
 20
0.0
 30
0.0
  0
VERTEX
  5
387D0
  8
0
 10
836.21113648498056
 20
272.57900863600838
 30
0.0
  0
VERTEX
  5
387D1
  8
0
 10
836.21832661860014
 20
273.08144638792368
 30
0.0
  0
VERTEX
  5
387D2
  8
0
 10
836.27510120238549
 20
274.09020693183629
 30
0.0
  0
VERTEX
  5
387D3
  8
0
 10
836.38971154113835
 20
275.14599682456043
 30
0.0
  0
VERTEX
  5
387D4
  8
0
 10
836.47055619439652
 20
275.7081753026751
 30
0.0
  0
SEQEND
  5
387D5
  8
0
  0
LINE
  5
36579
  8
0
 10
836.47055619439652
 20
275.7081753026751
 30
0.0
 11
840.65171677556555
 21
275.7081753026751
 31
0.0
  0
POLYLINE
  5
3657A
  8
0
 66
     1
 10
0.0
 20
0.0
 30
0.0
  0
VERTEX
  5
387D6
  8
0
 10
840.65171677556555
 20
275.7081753026751
 30
0.0
  0
VERTEX
  5
387D7
  8
0
 10
840.73256142882383
 20
275.14599682456043
 30
0.0
  0
VERTEX
  5
387D8
  8
0
 10
840.84717176757658
 20
274.09020693183629
 30
0.0
  0
VERTEX
  5
387D9
  8
0
 10
840.9039463513609
 20
273.08144638792368
 30
0.0
  0
VERTEX
  5
387DA
  8
0
 10
840.91113648498037
 20
272.57900863600838
 30
0.0
  0
SEQEND
  5
387DB
  8
0
  0
LINE
  5
3657B
  8
0
 10
840.91113648498037
 20
281.96650863600831
 30
0.0
 11
836.21113648498056
 21
281.96650863600831
 31
0.0
  0
LINE
  5
3657C
  8
0
 10
917.51113648498085
 20
269.89317530267499
 30
0.0
 11
917.51113648498085
 21
281.5231753026751
 31
0.0
  0
LINE
  5
3657D
  8
0
 10
915.01113648498085
 20
269.44984196934178
 30
0.0
 11
915.01113648498085
 21
281.96650863600831
 31
0.0
  0
LINE
  5
3657E
  8
0
 10
909.51113648498085
 20
269.44984196934178
 30
0.0
 11
915.01113648498085
 21
269.44984196934178
 31
0.0
  0
POLYLINE
  5
3657F
  8
0
 66
     1
 10
0.0
 20
0.0
 30
0.0
  0
VERTEX
  5
387DC
  8
0
 10
915.01113648498085
 20
278.83734196934159
 30
0.0
  0
VERTEX
  5
387DD
  8
0
 10
915.00394635136115
 20
278.3349042174263
 30
0.0
  0
VERTEX
  5
387DE
  8
0
 10
914.94717176757695
 20
277.3261436735138
 30
0.0
  0
VERTEX
  5
387DF
  8
0
 10
914.83256142882317
 20
276.27035378078972
 30
0.0
  0
VERTEX
  5
387E0
  8
0
 10
914.75171677556489
 20
275.7081753026751
 30
0.0
  0
SEQEND
  5
387E1
  8
0
  0
POLYLINE
  5
36580
  8
0
 66
     1
 10
0.0
 20
0.0
 30
0.0
  0
VERTEX
  5
387E2
  8
0
 10
909.77055619439659
 20
275.7081753026751
 30
0.0
  0
VERTEX
  5
387E3
  8
0
 10
909.68971154114115
 20
276.2703537807688
 30
0.0
  0
VERTEX
  5
387E4
  8
0
 10
909.5751012023901
 20
277.32614367345423
 30
0.0
  0
VERTEX
  5
387E5
  8
0
 10
909.51832661860306
 20
278.33490421732898
 30
0.0
  0
VERTEX
  5
387E6
  8
0
 10
909.51113648498085
 20
278.83734196922433
 30
0.0
  0
SEQEND
  5
387E7
  8
0
  0
POLYLINE
  5
36581
  8
0
 66
     1
 10
0.0
 20
0.0
 30
0.0
  0
VERTEX
  5
387E8
  8
0
 10
909.51113648498085
 20
278.83734196934159
 30
0.0
  0
VERTEX
  5
387E9
  8
0
 10
909.51640687242423
 20
279.26738408424899
 30
0.0
  0
VERTEX
  5
387EA
  8
0
 10
909.55800420419371
 20
280.12766708373368
 30
0.0
  0
VERTEX
  5
387EB
  8
0
 10
909.64135039584573
 20
281.01429333016722
 30
0.0
  0
VERTEX
  5
387EC
  8
0
 10
909.69951996354109
 20
281.47754299438429
 30
0.0
  0
SEQEND
  5
387ED
  8
0
  0
POLYLINE
  5
36582
  8
0
 66
     1
 10
0.0
 20
0.0
 30
0.0
  0
VERTEX
  5
387EE
  8
0
 10
914.75171677556489
 20
281.96650863600831
 30
0.0
  0
VERTEX
  5
387EF
  8
0
 10
914.83256142882317
 20
281.40433015789358
 30
0.0
  0
VERTEX
  5
387F0
  8
0
 10
914.94717176757695
 20
280.3485402651695
 30
0.0
  0
VERTEX
  5
387F1
  8
0
 10
915.00394635136115
 20
279.3397797212574
 30
0.0
  0
VERTEX
  5
387F2
  8
0
 10
915.01113648498085
 20
278.83734196934159
 30
0.0
  0
SEQEND
  5
387F3
  8
0
  0
POLYLINE
  5
36583
  8
0
 66
     1
 10
0.0
 20
0.0
 30
0.0
  0
VERTEX
  5
387F4
  8
0
 10
915.01113648498085
 20
272.57900863600838
 30
0.0
  0
VERTEX
  5
387F5
  8
0
 10
915.00394635136115
 20
272.07657088409269
 30
0.0
  0
VERTEX
  5
387F6
  8
0
 10
914.94717176757695
 20
271.06781034018059
 30
0.0
  0
VERTEX
  5
387F7
  8
0
 10
914.83256142882317
 20
270.01202044745651
 30
0.0
  0
VERTEX
  5
387F8
  8
0
 10
914.75171677556489
 20
269.44984196934178
 30
0.0
  0
SEQEND
  5
387F9
  8
0
  0
POLYLINE
  5
36584
  8
0
 66
     1
 10
0.0
 20
0.0
 30
0.0
  0
VERTEX
  5
387FA
  8
0
 10
909.77055619439659
 20
269.44984196934178
 30
0.0
  0
VERTEX
  5
387FB
  8
0
 10
909.68971154114206
 20
270.01202044742649
 30
0.0
  0
VERTEX
  5
387FC
  8
0
 10
909.57510120239215
 20
271.067810340096
 30
0.0
  0
VERTEX
  5
387FD
  8
0
 10
909.51832661860487
 20
272.0765708839549
 30
0.0
  0
VERTEX
  5
387FE
  8
0
 10
909.51113648498085
 20
272.579008635842
 30
0.0
  0
SEQEND
  5
387FF
  8
0
  0
POLYLINE
  5
36585
  8
0
 66
     1
 10
0.0
 20
0.0
 30
0.0
  0
VERTEX
  5
38800
  8
0
 10
909.51113648498085
 20
272.57900863600838
 30
0.0
  0
VERTEX
  5
38801
  8
0
 10
909.51832661860055
 20
273.08144638792368
 30
0.0
  0
VERTEX
  5
38802
  8
0
 10
909.57510120238476
 20
274.09020693183629
 30
0.0
  0
VERTEX
  5
38803
  8
0
 10
909.68971154113831
 20
275.14599682456043
 30
0.0
  0
VERTEX
  5
38804
  8
0
 10
909.77055619439659
 20
275.7081753026751
 30
0.0
  0
SEQEND
  5
38805
  8
0
  0
LINE
  5
36586
  8
0
 10
909.77055619439659
 20
275.7081753026751
 30
0.0
 11
914.75171677556489
 21
275.7081753026751
 31
0.0
  0
POLYLINE
  5
36587
  8
0
 66
     1
 10
0.0
 20
0.0
 30
0.0
  0
VERTEX
  5
38806
  8
0
 10
914.75171677556489
 20
275.7081753026751
 30
0.0
  0
VERTEX
  5
38807
  8
0
 10
914.83256142882317
 20
275.14599682456043
 30
0.0
  0
VERTEX
  5
38808
  8
0
 10
914.94717176757695
 20
274.09020693183629
 30
0.0
  0
VERTEX
  5
38809
  8
0
 10
915.00394635136115
 20
273.08144638792368
 30
0.0
  0
VERTEX
  5
3880A
  8
0
 10
915.01113648498085
 20
272.57900863600838
 30
0.0
  0
SEQEND
  5
3880B
  8
0
  0
LINE
  5
36588
  8
0
 10
915.01113648498085
 20
281.96650863600831
 30
0.0
 11
910.10098360560175
 21
281.96650863600831
 31
0.0
  0
LINE
  5
365CE
  8
0
 10
872.51113648498085
 20
175.70817530267499
 30
0.0
 11
878.51113648498085
 21
175.70817530267499
 31
0.0
  0
ARC
  5
365CF
  8
0
 10
878.51113648498085
 20
176.008175302675
 30
0.0
 40
0.3000000000000114
 50
270.0
 51
0.0
  0
LINE
  5
365D0
  8
0
 10
878.81113648498092
 20
176.008175302675
 30
0.0
 11
881.21113648498067
 21
176.008175302675
 31
0.0
  0
ARC
  5
365D1
  8
0
 10
881.51113648498085
 20
176.008175302675
 30
0.0
 40
0.3000000000000034
 50
180.0
 51
270.0
  0
LINE
  5
365D2
  8
0
 10
881.51113648498085
 20
175.70817530267499
 30
0.0
 11
886.02473888549684
 21
175.70817530267499
 31
0.0
  0
ARC
  5
365D3
  8
0
 10
886.02473888549684
 20
176.70817530267499
 30
0.0
 40
1.000000000000014
 50
270.0
 51
341.00000000001648
  0
LINE
  5
365D4
  8
0
 10
890.12780661265242
 20
365.86355486438828
 30
0.0
 11
889.30141923174324
 21
368.26355808519929
 31
0.0
  0
LINE
  5
365D5
  8
0
 10
886.97025746109648
 20
176.3826071482178
 30
0.0
 11
890.12780661265242
 21
185.5527957409617
 31
0.0
  0
ARC
  5
365D6
  8
0
 10
887.29125088585442
 20
186.52950020433309
 30
0.0
 40
2.999999999999873
 50
341.00000000001648
 51
0.0000008537736463
  0
ARC
  5
365D7
  8
0
 10
887.29125088585442
 20
364.886850401017
 30
0.0
 40
2.9999999999998699
 50
0.0
 51
18.999999999983391
  0
ARC
  5
365D8
  8
0
 10
891.12458421918745
 20
188.44764810848551
 30
0.0
 40
0.8333333333333374
 50
179.99999914622629
 51
0.0
  0
ARC
  5
365D9
  8
0
 10
891.12458421918745
 20
362.96870249686481
 30
0.0
 40
0.8333333333333322
 50
0.0
 51
179.99999914622629
  0
ARC
  5
365DA
  8
0
 10
892.79125088585431
 20
193.2879995712785
 30
0.0
 40
0.8333333333333322
 50
180.0
 51
0.0
  0
ARC
  5
365DB
  8
0
 10
892.79125088585431
 20
358.12835103407178
 30
0.0
 40
0.8333333333333322
 50
0.0
 51
180.0
  0
LINE
  5
365DC
  8
0
 10
900.34769221177885
 20
336.18285193880229
 30
0.0
 11
893.62458421918745
 21
355.70817530267499
 31
0.0
  0
LINE
  5
365DD
  8
0
 10
893.62458421918745
 20
195.70817530267499
 30
0.0
 11
900.34769221177885
 21
215.2334986665478
 31
0.0
  0
ARC
  5
365DE
  8
0
 10
897.51113648498085
 20
216.21020312991939
 30
0.0
 40
2.9999999999999192
 50
341.00000000001648
 51
0.0
  0
ARC
  5
365DF
  8
0
 10
897.51113648498085
 20
335.20614747543101
 30
0.0
 40
2.9999999999999138
 50
0.0
 51
18.999999999983391
  0
ARC
  5
365E0
  8
0
 10
853.51113648498085
 20
216.21020312991911
 30
0.0
 40
2.9999999999995981
 50
180.0
 51
198.9999999999834
  0
ARC
  5
365E1
  8
0
 10
853.51113648498085
 20
335.20614747543101
 30
0.0
 40
2.9999999999995981
 50
161.0000000000166
 51
180.0
  0
LINE
  5
365E2
  8
0
 10
857.39768875077425
 20
355.70817530267499
 30
0.0
 11
850.67458075818286
 21
336.18285193880229
 31
0.0
  0
LINE
  5
365E3
  8
0
 10
850.67458075818286
 20
215.2334986665478
 30
0.0
 11
857.39768875077425
 21
195.70817530267499
 31
0.0
  0
ARC
  5
365E4
  8
0
 10
858.23102208410728
 20
193.2879995712785
 30
0.0
 40
0.8333333333333357
 50
180.0
 51
0.0
  0
ARC
  5
365E5
  8
0
 10
858.23102208410728
 20
358.12835103407178
 30
0.0
 40
0.8333333333333357
 50
0.0
 51
180.0
  0
ARC
  5
365E6
  8
0
 10
859.89768875077425
 20
188.44764810848551
 30
0.0
 40
0.8333333333333322
 50
180.0
 51
0.0
  0
ARC
  5
365E7
  8
0
 10
859.89768875077425
 20
362.96870249686481
 30
0.0
 40
0.8333333333333303
 50
0.0000008537736463
 51
179.99999914622629
  0
ARC
  5
365E8
  8
0
 10
863.73102208410717
 20
186.52950020433329
 30
0.0
 40
3.0000000000000391
 50
180.0
 51
198.9999999999834
  0
ARC
  5
365E9
  8
0
 10
863.73102208410717
 20
364.886850401017
 30
0.0
 40
2.9999999999998752
 50
161.0000000000166
 51
180.0
  0
LINE
  5
365EA
  8
0
 10
861.72085373821835
 20
368.26355808519929
 30
0.0
 11
860.89446635730917
 21
365.86355486438828
 31
0.0
  0
LINE
  5
365EB
  8
0
 10
860.89446635730917
 20
185.5527957409617
 30
0.0
 11
864.05201550886511
 21
176.3826071482178
 31
0.0
  0
ARC
  5
365EC
  8
0
 10
864.99753408446475
 20
176.70817530267499
 30
0.0
 40
1.000000000000014
 50
198.9999999999834
 51
270.0
  0
LINE
  5
365ED
  8
0
 10
864.99753408446475
 20
175.70817530267499
 30
0.0
 11
869.51113648498074
 21
175.70817530267499
 31
0.0
  0
ARC
  5
365EE
  8
0
 10
869.51113648498074
 20
176.008175302675
 30
0.0
 40
0.3000000000000114
 50
270.0
 51
0.0
  0
LINE
  5
365EF
  8
0
 10
869.81113648498092
 20
176.008175302675
 30
0.0
 11
872.21113648498067
 21
176.008175302675
 31
0.0
  0
ARC
  5
365F0
  8
0
 10
872.51113648498085
 20
176.008175302675
 30
0.0
 40
0.3000000000000038
 50
180.0
 51
270.0
  0
LINE
  5
365F2
  8
0
 10
878.81113648498092
 20
176.008175302675
 30
0.0
 11
878.81113648498092
 21
370.66292234772391
 31
0.0
  0
LINE
  5
365F3
  8
0
 10
881.21113648498067
 20
176.008175302675
 30
0.0
 11
881.21113648498067
 21
370.32708853307258
 31
0.0
  0
LINE
  5
365F8
  8
0
 10
890.29125088585454
 20
186.52950020433329
 30
0.0
 11
890.29125088585454
 21
364.886850401017
 31
0.0
  0
LINE
  5
365F9
  8
0
 10
891.95791755252048
 20
188.44764810848551
 30
0.0
 11
891.95791755252048
 21
362.96870249686481
 31
0.0
  0
LINE
  5
365FA
  8
0
 10
893.62458421918745
 20
193.2879995712785
 30
0.0
 11
893.62458421918745
 21
358.12835103407178
 31
0.0
  0
LINE
  5
365FC
  8
0
 10
900.51113648498085
 20
216.21020312991939
 30
0.0
 11
900.51113648498085
 21
335.20614747543101
 31
0.0
  0
LINE
  5
365FD
  8
0
 10
850.51113648498085
 20
216.21020312991939
 30
0.0
 11
850.51113648498085
 21
335.20614747543101
 31
0.0
  0
LINE
  5
365FF
  8
0
 10
857.39768875077425
 20
193.2879995712785
 30
0.0
 11
857.39768875077425
 21
358.12835103407178
 31
0.0
  0
LINE
  5
36600
  8
0
 10
859.06435541744133
 20
188.44764810848551
 30
0.0
 11
859.06435541744133
 21
362.96870249686481
 31
0.0
  0
LINE
  5
36601
  8
0
 10
860.73102208410728
 20
186.52950020433329
 30
0.0
 11
860.73102208410728
 21
364.886850401017
 31
0.0
  0
LINE
  5
36606
  8
0
 10
869.81113648498092
 20
176.008175302675
 30
0.0
 11
869.81113648498092
 21
370.32708853307258
 31
0.0
  0
LINE
  5
36608
  8
0
 10
872.21113648498067
 20
176.008175302675
 30
0.0
 11
872.21113648498067
 21
370.66292234772391
 31
0.0
  0
LINE
  5
3661B
  8
0
 10
539.2811026497975
 20
651.12385432191331
 30
0.0
 11
539.2811026497975
 21
646.62385432191331
 31
0.0
  0
LINE
  5
3661C
  8
0
 10
539.2811026497975
 20
587.62385432191286
 30
0.0
 11
539.2811026497975
 21
583.12385432191275
 31
0.0
  0
LINE
  5
3661D
  8
0
 10
553.98110264979721
 20
651.12385432191331
 30
0.0
 11
553.98110264979721
 21
583.12385432191275
 31
0.0
  0
LINE
  5
3661E
  8
0
 10
539.2811026497975
 20
651.12385432191331
 30
0.0
 11
571.9679470323008
 21
651.12385432191331
 31
0.0
  0
LINE
  5
3661F
  8
0
 10
571.9679470323008
 20
583.12385432191275
 30
0.0
 11
539.2811026497975
 21
583.12385432191275
 31
0.0
  0
LINE
  5
36622
  8
0
 10
539.2811026497975
 20
646.62385432191331
 30
0.0
 11
553.85639838142015
 21
646.62385432191331
 31
0.0
  0
LINE
  5
36623
  8
0
 10
553.85639838142015
 20
587.62385432191286
 30
0.0
 11
539.2811026497975
 21
587.62385432191286
 31
0.0
  0
LINE
  5
36624
  8
0
 10
553.85639838142015
 20
646.62385432191331
 30
0.0
 11
553.85639838142015
 21
587.62385432191286
 31
0.0
  0
CIRCLE
  5
36625
  8
0
 10
609.98110264979732
 20
617.12385432191331
 30
0.0
 40
12.75
  0
CIRCLE
  5
36626
  8
0
 10
609.98110264979732
 20
617.12385432191331
 30
0.0
 40
40.349999999999987
  0
CIRCLE
  5
36627
  8
0
 10
609.98110264979732
 20
617.12385432191331
 30
0.0
 40
43.34999999999998
  0
CIRCLE
  5
36628
  8
0
 10
609.98110264979732
 20
617.12385432191331
 30
0.0
 40
47.0
  0
CIRCLE
  5
36629
  8
0
 10
609.98110264979732
 20
617.12385432191331
 30
0.0
 40
51.0
  0
CIRCLE
  5
3662A
  8
0
 10
609.98110264979732
 20
617.12385432191331
 30
0.0
 40
10.0
  0
LINE
  5
36642
  8
0
 10
548.16610264979772
 20
583.12385432191275
 30
0.0
 11
548.16610264979772
 21
582.52385432191295
 31
0.0
  0
LINE
  5
36643
  8
0
 10
559.79610264979681
 20
582.52385432191295
 30
0.0
 11
559.79610264979681
 21
583.12385432191275
 31
0.0
  0
LINE
  5
36644
  8
0
 10
549.98110264979721
 20
660.35685432191303
 30
0.0
 11
549.98110264979721
 21
659.12385432191331
 31
0.0
  0
LINE
  5
36645
  8
0
 10
557.98110264979732
 20
659.12385432191331
 30
0.0
 11
557.98110264979732
 21
660.35685432191303
 31
0.0
  0
LINE
  5
36646
  8
0
 10
550.74810264979715
 20
661.1238543219132
 30
0.0
 11
549.98110264979721
 21
660.35685432191303
 31
0.0
  0
LINE
  5
36647
  8
0
 10
557.98110264979732
 20
660.35685432191303
 30
0.0
 11
557.21410264979738
 21
661.1238543219132
 31
0.0
  0
LINE
  5
36648
  8
0
 10
560.23943598313053
 20
577.82385432191302
 30
0.0
 11
561.20760351915385
 21
578.08327403132853
 31
0.0
  0
LINE
  5
36649
  8
0
 10
546.75460178044068
 20
578.08327403132853
 30
0.0
 11
547.72276931646411
 21
577.82385432191302
 31
0.0
  0
LINE
  5
3664A
  8
0
 10
561.20760351915385
 20
582.26443461249755
 30
0.0
 11
560.23943598313053
 21
582.52385432191295
 31
0.0
  0
LINE
  5
3664B
  8
0
 10
547.72276931646411
 20
582.52385432191295
 30
0.0
 11
546.75460178044068
 21
582.26443461249755
 31
0.0
  0
LINE
  5
3664C
  8
0
 10
548.16610264979772
 20
659.12385432191331
 30
0.0
 11
548.16610264979772
 21
656.62385432191331
 31
0.0
  0
LINE
  5
3664D
  8
0
 10
559.79610264979681
 20
656.62385432191331
 30
0.0
 11
559.79610264979681
 21
659.12385432191331
 31
0.0
  0
LINE
  5
3664E
  8
0
 10
560.23943598313053
 20
651.12385432191331
 30
0.0
 11
561.20760351915385
 21
651.3832740313286
 31
0.0
  0
LINE
  5
3664F
  8
0
 10
546.75460178044068
 20
651.3832740313286
 30
0.0
 11
547.72276931646411
 21
651.12385432191331
 31
0.0
  0
LINE
  5
36650
  8
0
 10
561.20760351915385
 20
656.36443461249735
 30
0.0
 11
560.23943598313053
 21
656.62385432191275
 31
0.0
  0
LINE
  5
36651
  8
0
 10
547.72276931646411
 20
656.62385432191275
 30
0.0
 11
546.75460178044068
 21
656.36443461249735
 31
0.0
  0
LINE
  5
36652
  8
0
 10
543.98110264979732
 20
646.62385432191331
 30
0.0
 11
543.98110264979732
 21
642.12385432191331
 31
0.0
  0
LINE
  5
36653
  8
0
 10
543.98110264979732
 20
592.12385432191286
 30
0.0
 11
543.98110264979732
 21
587.62385432191286
 31
0.0
  0
LINE
  5
36654
  8
0
 10
557.98110264979732
 20
660.35685432191303
 30
0.0
 11
549.98110264979721
 21
660.35685432191303
 31
0.0
  0
LINE
  5
36655
  8
0
 10
557.21410264979738
 20
661.1238543219132
 30
0.0
 11
550.74810264979715
 21
661.1238543219132
 31
0.0
  0
LINE
  5
36656
  8
0
 10
560.23943598313053
 20
577.82385432191302
 30
0.0
 11
547.72276931646411
 21
577.82385432191302
 31
0.0
  0
LINE
  5
36657
  8
0
 10
560.23943598313053
 20
582.52385432191295
 30
0.0
 11
547.72276931646411
 21
582.52385432191295
 31
0.0
  0
POLYLINE
  5
36658
  8
0
 66
     1
 10
0.0
 20
0.0
 30
0.0
  0
VERTEX
  5
3880C
  8
0
 10
550.36785221511855
 20
578.08327403132853
 30
0.0
  0
VERTEX
  5
3880D
  8
0
 10
550.04327831944636
 20
578.00242937807025
 30
0.0
  0
VERTEX
  5
3880E
  8
0
 10
549.43371774067509
 20
577.88781903931738
 30
0.0
  0
VERTEX
  5
3880F
  8
0
 10
548.85130956909961
 20
577.83104445553306
 30
0.0
  0
VERTEX
  5
38810
  8
0
 10
548.56122699777995
 20
577.82385432191302
 30
0.0
  0
SEQEND
  5
38811
  8
0
  0
POLYLINE
  5
36659
  8
0
 66
     1
 10
0.0
 20
0.0
 30
0.0
  0
VERTEX
  5
38812
  8
0
 10
548.56122699777995
 20
577.82385432191302
 30
0.0
  0
VERTEX
  5
38813
  8
0
 10
548.27114442646052
 20
577.83104445553272
 30
0.0
  0
VERTEX
  5
38814
  8
0
 10
547.68873625488504
 20
577.88781903931738
 30
0.0
  0
VERTEX
  5
38815
  8
0
 10
547.07917567611275
 20
578.00242937807025
 30
0.0
  0
VERTEX
  5
38816
  8
0
 10
546.75460178044068
 20
578.08327403132853
 30
0.0
  0
SEQEND
  5
38817
  8
0
  0
POLYLINE
  5
3665A
  8
0
 66
     1
 10
0.0
 20
0.0
 30
0.0
  0
VERTEX
  5
38818
  8
0
 10
546.75460178044068
 20
582.26443461249755
 30
0.0
  0
VERTEX
  5
38819
  8
0
 10
547.07917567611275
 20
582.34527926575583
 30
0.0
  0
VERTEX
  5
3881A
  8
0
 10
547.68873625488504
 20
582.45988960450859
 30
0.0
  0
VERTEX
  5
3881B
  8
0
 10
548.27114442646052
 20
582.51666418829325
 30
0.0
  0
VERTEX
  5
3881C
  8
0
 10
548.56122699777995
 20
582.52385432191295
 30
0.0
  0
SEQEND
  5
3881D
  8
0
  0
POLYLINE
  5
3665B
  8
0
 66
     1
 10
0.0
 20
0.0
 30
0.0
  0
VERTEX
  5
3881E
  8
0
 10
548.56122699777995
 20
582.52385432191295
 30
0.0
  0
VERTEX
  5
3881F
  8
0
 10
548.85130956909961
 20
582.51666418829325
 30
0.0
  0
VERTEX
  5
38820
  8
0
 10
549.43371774067509
 20
582.45988960450859
 30
0.0
  0
VERTEX
  5
38821
  8
0
 10
550.04327831944636
 20
582.34527926575583
 30
0.0
  0
VERTEX
  5
38822
  8
0
 10
550.36785221511855
 20
582.26443461249755
 30
0.0
  0
SEQEND
  5
38823
  8
0
  0
LINE
  5
3665C
  8
0
 10
546.75460178044068
 20
578.08327403132853
 30
0.0
 11
546.75460178044068
 21
582.26443461249755
 31
0.0
  0
POLYLINE
  5
3665D
  8
0
 66
     1
 10
0.0
 20
0.0
 30
0.0
  0
VERTEX
  5
38824
  8
0
 10
559.40097830181458
 20
582.52385432191295
 30
0.0
  0
VERTEX
  5
38825
  8
0
 10
559.69106087313412
 20
582.51666418829325
 30
0.0
  0
VERTEX
  5
38826
  8
0
 10
560.27346904471051
 20
582.45988960450859
 30
0.0
  0
VERTEX
  5
38827
  8
0
 10
560.88302962348189
 20
582.34527926575583
 30
0.0
  0
VERTEX
  5
38828
  8
0
 10
561.20760351915385
 20
582.26443461249755
 30
0.0
  0
SEQEND
  5
38829
  8
0
  0
POLYLINE
  5
3665E
  8
0
 66
     1
 10
0.0
 20
0.0
 30
0.0
  0
VERTEX
  5
3882A
  8
0
 10
561.20760351915385
 20
578.08327403132853
 30
0.0
  0
VERTEX
  5
3882B
  8
0
 10
560.88302962348189
 20
578.00242937807025
 30
0.0
  0
VERTEX
  5
3882C
  8
0
 10
560.27346904471051
 20
577.88781903931738
 30
0.0
  0
VERTEX
  5
3882D
  8
0
 10
559.69106087313412
 20
577.83104445553306
 30
0.0
  0
VERTEX
  5
3882E
  8
0
 10
559.40097830181458
 20
577.82385432191302
 30
0.0
  0
SEQEND
  5
3882F
  8
0
  0
POLYLINE
  5
3665F
  8
0
 66
     1
 10
0.0
 20
0.0
 30
0.0
  0
VERTEX
  5
38830
  8
0
 10
559.40097830181458
 20
577.82385432191302
 30
0.0
  0
VERTEX
  5
38831
  8
0
 10
559.11089573049594
 20
577.83104445553306
 30
0.0
  0
VERTEX
  5
38832
  8
0
 10
558.52848755891955
 20
577.88781903931738
 30
0.0
  0
VERTEX
  5
38833
  8
0
 10
557.91892698014806
 20
578.00242937807025
 30
0.0
  0
VERTEX
  5
38834
  8
0
 10
557.59435308447598
 20
578.08327403132853
 30
0.0
  0
SEQEND
  5
38835
  8
0
  0
POLYLINE
  5
36660
  8
0
 66
     1
 10
0.0
 20
0.0
 30
0.0
  0
VERTEX
  5
38836
  8
0
 10
557.59435308447598
 20
582.26443461249755
 30
0.0
  0
VERTEX
  5
38837
  8
0
 10
557.91892698014806
 20
582.34527926575583
 30
0.0
  0
VERTEX
  5
38838
  8
0
 10
558.52848755891955
 20
582.45988960450859
 30
0.0
  0
VERTEX
  5
38839
  8
0
 10
559.11089573049503
 20
582.51666418829325
 30
0.0
  0
VERTEX
  5
3883A
  8
0
 10
559.40097830181458
 20
582.52385432191295
 30
0.0
  0
SEQEND
  5
3883B
  8
0
  0
LINE
  5
36661
  8
0
 10
561.20760351915385
 20
578.08327403132853
 30
0.0
 11
561.20760351915385
 21
582.26443461249755
 31
0.0
  0
POLYLINE
  5
36662
  8
0
 66
     1
 10
0.0
 20
0.0
 30
0.0
  0
VERTEX
  5
3883C
  8
0
 10
553.98110264979721
 20
582.52385432191295
 30
0.0
  0
VERTEX
  5
3883D
  8
0
 10
554.5612677924363
 20
582.51666418829325
 30
0.0
  0
VERTEX
  5
3883E
  8
0
 10
555.72608413558737
 20
582.45988960450859
 30
0.0
  0
VERTEX
  5
3883F
  8
0
 10
556.94520529313104
 20
582.34527926575583
 30
0.0
  0
VERTEX
  5
38840
  8
0
 10
557.59435308447598
 20
582.26443461249755
 30
0.0
  0
SEQEND
  5
38841
  8
0
  0
LINE
  5
36663
  8
0
 10
557.59435308447598
 20
578.08327403132853
 30
0.0
 11
557.59435308447598
 21
582.26443461249755
 31
0.0
  0
POLYLINE
  5
36664
  8
0
 66
     1
 10
0.0
 20
0.0
 30
0.0
  0
VERTEX
  5
38842
  8
0
 10
557.59435308447598
 20
578.08327403132853
 30
0.0
  0
VERTEX
  5
38843
  8
0
 10
556.94520529313104
 20
578.00242937807025
 30
0.0
  0
VERTEX
  5
38844
  8
0
 10
555.72608413558737
 20
577.88781903931738
 30
0.0
  0
VERTEX
  5
38845
  8
0
 10
554.5612677924363
 20
577.83104445553306
 30
0.0
  0
VERTEX
  5
38846
  8
0
 10
553.98110264979721
 20
577.82385432191302
 30
0.0
  0
SEQEND
  5
38847
  8
0
  0
POLYLINE
  5
36665
  8
0
 66
     1
 10
0.0
 20
0.0
 30
0.0
  0
VERTEX
  5
38848
  8
0
 10
553.98110264979721
 20
577.82385432191302
 30
0.0
  0
VERTEX
  5
38849
  8
0
 10
553.40093750715823
 20
577.83104445553306
 30
0.0
  0
VERTEX
  5
3884A
  8
0
 10
552.23612116400716
 20
577.88781903931738
 30
0.0
  0
VERTEX
  5
3884B
  8
0
 10
551.01700000646349
 20
578.00242937807025
 30
0.0
  0
VERTEX
  5
3884C
  8
0
 10
550.36785221511855
 20
578.08327403132853
 30
0.0
  0
SEQEND
  5
3884D
  8
0
  0
LINE
  5
36666
  8
0
 10
550.36785221511855
 20
578.08327403132853
 30
0.0
 11
550.36785221511855
 21
582.26443461249755
 31
0.0
  0
POLYLINE
  5
36667
  8
0
 66
     1
 10
0.0
 20
0.0
 30
0.0
  0
VERTEX
  5
3884E
  8
0
 10
550.36785221511855
 20
582.26443461249755
 30
0.0
  0
VERTEX
  5
3884F
  8
0
 10
551.01700000646349
 20
582.34527926575583
 30
0.0
  0
VERTEX
  5
38850
  8
0
 10
552.23612116400716
 20
582.45988960450859
 30
0.0
  0
VERTEX
  5
38851
  8
0
 10
553.40093750715823
 20
582.51666418829325
 30
0.0
  0
VERTEX
  5
38852
  8
0
 10
553.98110264979721
 20
582.52385432191295
 30
0.0
  0
SEQEND
  5
38853
  8
0
  0
LINE
  5
36668
  8
0
 10
559.79610264979681
 20
659.12385432191331
 30
0.0
 11
548.16610264979772
 21
659.12385432191331
 31
0.0
  0
LINE
  5
36669
  8
0
 10
560.23943598313053
 20
656.62385432191331
 30
0.0
 11
547.72276931646411
 21
656.62385432191331
 31
0.0
  0
POLYLINE
  5
3666A
  8
0
 66
     1
 10
0.0
 20
0.0
 30
0.0
  0
VERTEX
  5
38854
  8
0
 10
550.36785221511855
 20
651.3832740313286
 30
0.0
  0
VERTEX
  5
38855
  8
0
 10
550.04327831946455
 20
651.30242937807452
 30
0.0
  0
VERTEX
  5
38856
  8
0
 10
549.43371774072421
 20
651.18781903932449
 30
0.0
  0
VERTEX
  5
38857
  8
0
 10
548.85130956918044
 20
651.13104445553699
 30
0.0
  0
VERTEX
  5
38858
  8
0
 10
548.56122699787738
 20
651.12385432191275
 30
0.0
  0
SEQEND
  5
38859
  8
0
  0
POLYLINE
  5
3666B
  8
0
 66
     1
 10
0.0
 20
0.0
 30
0.0
  0
VERTEX
  5
3885A
  8
0
 10
548.56122699777995
 20
651.12385432191331
 30
0.0
  0
VERTEX
  5
3885B
  8
0
 10
548.27114442646052
 20
651.1310444555329
 30
0.0
  0
VERTEX
  5
3885C
  8
0
 10
547.68873625488504
 20
651.18781903931722
 30
0.0
  0
VERTEX
  5
3885D
  8
0
 10
547.07917567611275
 20
651.30242937807043
 30
0.0
  0
VERTEX
  5
3885E
  8
0
 10
546.75460178044068
 20
651.3832740313286
 30
0.0
  0
SEQEND
  5
3885F
  8
0
  0
POLYLINE
  5
3666C
  8
0
 66
     1
 10
0.0
 20
0.0
 30
0.0
  0
VERTEX
  5
38860
  8
0
 10
546.75460178044068
 20
656.36443461249735
 30
0.0
  0
VERTEX
  5
38861
  8
0
 10
547.07917567611275
 20
656.44527926575574
 30
0.0
  0
VERTEX
  5
38862
  8
0
 10
547.68873625488504
 20
656.55988960450838
 30
0.0
  0
VERTEX
  5
38863
  8
0
 10
548.27114442646052
 20
656.61666418829316
 30
0.0
  0
VERTEX
  5
38864
  8
0
 10
548.56122699777995
 20
656.62385432191331
 30
0.0
  0
SEQEND
  5
38865
  8
0
  0
POLYLINE
  5
3666D
  8
0
 66
     1
 10
0.0
 20
0.0
 30
0.0
  0
VERTEX
  5
38866
  8
0
 10
548.56122699777995
 20
656.62385432191331
 30
0.0
  0
VERTEX
  5
38867
  8
0
 10
548.85130956909961
 20
656.61666418829316
 30
0.0
  0
VERTEX
  5
38868
  8
0
 10
549.43371774067509
 20
656.55988960450838
 30
0.0
  0
VERTEX
  5
38869
  8
0
 10
550.04327831944636
 20
656.44527926575574
 30
0.0
  0
VERTEX
  5
3886A
  8
0
 10
550.36785221511855
 20
656.36443461249735
 30
0.0
  0
SEQEND
  5
3886B
  8
0
  0
LINE
  5
3666E
  8
0
 10
546.75460178044068
 20
651.3832740313286
 30
0.0
 11
546.75460178044068
 21
656.36443461249735
 31
0.0
  0
POLYLINE
  5
3666F
  8
0
 66
     1
 10
0.0
 20
0.0
 30
0.0
  0
VERTEX
  5
3886C
  8
0
 10
559.40097830181458
 20
656.62385432191331
 30
0.0
  0
VERTEX
  5
3886D
  8
0
 10
559.69106087313412
 20
656.61666418829316
 30
0.0
  0
VERTEX
  5
3886E
  8
0
 10
560.27346904470949
 20
656.55988960450838
 30
0.0
  0
VERTEX
  5
3886F
  8
0
 10
560.88302962348189
 20
656.44527926575574
 30
0.0
  0
VERTEX
  5
38870
  8
0
 10
561.20760351915385
 20
656.36443461249735
 30
0.0
  0
SEQEND
  5
38871
  8
0
  0
POLYLINE
  5
36670
  8
0
 66
     1
 10
0.0
 20
0.0
 30
0.0
  0
VERTEX
  5
38872
  8
0
 10
561.20760351915385
 20
651.3832740313286
 30
0.0
  0
VERTEX
  5
38873
  8
0
 10
560.88302962350372
 20
651.30242937807543
 30
0.0
  0
VERTEX
  5
38874
  8
0
 10
560.27346904477054
 20
651.18781903932575
 30
0.0
  0
VERTEX
  5
38875
  8
0
 10
559.69106087323235
 20
651.1310444555379
 30
0.0
  0
VERTEX
  5
38876
  8
0
 10
559.40097830193372
 20
651.12385432191331
 30
0.0
  0
SEQEND
  5
38877
  8
0
  0
POLYLINE
  5
36671
  8
0
 66
     1
 10
0.0
 20
0.0
 30
0.0
  0
VERTEX
  5
38878
  8
0
 10
559.40097830181458
 20
651.12385432191331
 30
0.0
  0
VERTEX
  5
38879
  8
0
 10
559.11089573049503
 20
651.1310444555329
 30
0.0
  0
VERTEX
  5
3887A
  8
0
 10
558.52848755891955
 20
651.18781903931722
 30
0.0
  0
VERTEX
  5
3887B
  8
0
 10
557.91892698014806
 20
651.30242937807043
 30
0.0
  0
VERTEX
  5
3887C
  8
0
 10
557.59435308447598
 20
651.3832740313286
 30
0.0
  0
SEQEND
  5
3887D
  8
0
  0
POLYLINE
  5
36672
  8
0
 66
     1
 10
0.0
 20
0.0
 30
0.0
  0
VERTEX
  5
3887E
  8
0
 10
557.59435308447598
 20
656.36443461249735
 30
0.0
  0
VERTEX
  5
3887F
  8
0
 10
557.91892698014806
 20
656.44527926575574
 30
0.0
  0
VERTEX
  5
38880
  8
0
 10
558.52848755891955
 20
656.55988960450838
 30
0.0
  0
VERTEX
  5
38881
  8
0
 10
559.11089573049503
 20
656.61666418829316
 30
0.0
  0
VERTEX
  5
38882
  8
0
 10
559.40097830181458
 20
656.62385432191331
 30
0.0
  0
SEQEND
  5
38883
  8
0
  0
LINE
  5
36673
  8
0
 10
561.20760351915385
 20
651.3832740313286
 30
0.0
 11
561.20760351915385
 21
656.36443461249735
 31
0.0
  0
POLYLINE
  5
36674
  8
0
 66
     1
 10
0.0
 20
0.0
 30
0.0
  0
VERTEX
  5
38884
  8
0
 10
553.98110264979721
 20
656.62385432191331
 30
0.0
  0
VERTEX
  5
38885
  8
0
 10
554.5612677924363
 20
656.61666418829316
 30
0.0
  0
VERTEX
  5
38886
  8
0
 10
555.72608413558737
 20
656.55988960450838
 30
0.0
  0
VERTEX
  5
38887
  8
0
 10
556.94520529313104
 20
656.44527926575574
 30
0.0
  0
VERTEX
  5
38888
  8
0
 10
557.59435308447598
 20
656.36443461249735
 30
0.0
  0
SEQEND
  5
38889
  8
0
  0
LINE
  5
36675
  8
0
 10
557.59435308447598
 20
651.3832740313286
 30
0.0
 11
557.59435308447598
 21
656.36443461249735
 31
0.0
  0
POLYLINE
  5
36676
  8
0
 66
     1
 10
0.0
 20
0.0
 30
0.0
  0
VERTEX
  5
3888A
  8
0
 10
557.59435308447598
 20
651.3832740313286
 30
0.0
  0
VERTEX
  5
3888B
  8
0
 10
556.94520529313104
 20
651.30242937807043
 30
0.0
  0
VERTEX
  5
3888C
  8
0
 10
555.72608413558737
 20
651.18781903931722
 30
0.0
  0
VERTEX
  5
3888D
  8
0
 10
554.5612677924363
 20
651.1310444555329
 30
0.0
  0
VERTEX
  5
3888E
  8
0
 10
553.98110264979721
 20
651.12385432191331
 30
0.0
  0
SEQEND
  5
3888F
  8
0
  0
POLYLINE
  5
36677
  8
0
 66
     1
 10
0.0
 20
0.0
 30
0.0
  0
VERTEX
  5
38890
  8
0
 10
553.98110264979721
 20
651.12385432191331
 30
0.0
  0
VERTEX
  5
38891
  8
0
 10
553.40093750715823
 20
651.1310444555329
 30
0.0
  0
VERTEX
  5
38892
  8
0
 10
552.23612116400716
 20
651.18781903931722
 30
0.0
  0
VERTEX
  5
38893
  8
0
 10
551.01700000646349
 20
651.30242937807043
 30
0.0
  0
VERTEX
  5
38894
  8
0
 10
550.36785221511855
 20
651.3832740313286
 30
0.0
  0
SEQEND
  5
38895
  8
0
  0
LINE
  5
36678
  8
0
 10
550.36785221511855
 20
651.3832740313286
 30
0.0
 11
550.36785221511855
 21
656.36443461249735
 31
0.0
  0
POLYLINE
  5
36679
  8
0
 66
     1
 10
0.0
 20
0.0
 30
0.0
  0
VERTEX
  5
38896
  8
0
 10
550.36785221511855
 20
656.36443461249735
 30
0.0
  0
VERTEX
  5
38897
  8
0
 10
551.01700000646349
 20
656.44527926575574
 30
0.0
  0
VERTEX
  5
38898
  8
0
 10
552.23612116400716
 20
656.55988960450838
 30
0.0
  0
VERTEX
  5
38899
  8
0
 10
553.40093750715823
 20
656.61666418829316
 30
0.0
  0
VERTEX
  5
3889A
  8
0
 10
553.98110264979721
 20
656.62385432191331
 30
0.0
  0
SEQEND
  5
3889B
  8
0
  0
LINE
  5
366DD
  8
0
 10
453.98110264979721
 20
620.12385432191331
 30
0.0
 11
453.98110264979721
 21
614.12385432191331
 31
0.0
  0
ARC
  5
366DE
  8
0
 10
454.28110264979739
 20
620.12385432191331
 30
0.0
 40
0.3000000000000074
 50
90.0
 51
180.0
  0
LINE
  5
366DF
  8
0
 10
454.28110264979739
 20
622.82385432191313
 30
0.0
 11
454.28110264979739
 21
620.42385432191304
 31
0.0
  0
ARC
  5
366E0
  8
0
 10
454.28110264979739
 20
623.12385432191331
 30
0.0
 40
0.3000000000000114
 50
180.0
 51
270.0
  0
LINE
  5
366E1
  8
0
 10
453.98110264979721
 20
627.63745672242919
 30
0.0
 11
453.98110264979721
 21
623.12385432191331
 31
0.0
  0
ARC
  5
366E2
  8
0
 10
454.98110264979732
 20
627.63745672242919
 30
0.0
 40
1.0000000000000191
 50
108.99999999998759
 51
180.0
  0
LINE
  5
366E3
  8
0
 10
463.82572308808398
 20
631.74052444958443
 30
0.0
 11
454.65553449534031
 21
628.58297529802894
 31
0.0
  0
ARC
  5
366E4
  8
0
 10
464.80242755145531
 20
628.90396872278643
 30
0.0
 40
2.9999999999998699
 50
90.0
 51
108.99999999998759
  0
ARC
  5
366E5
  8
0
 10
466.7205754556079
 20
632.73730205611992
 30
0.0
 40
0.8333333333333339
 50
90.0
 51
270.0
  0
ARC
  5
366E6
  8
0
 10
471.56092691840058
 20
634.40396872278643
 30
0.0
 40
0.8333333333333322
 50
90.0
 51
270.0
  0
LINE
  5
366E7
  8
0
 10
493.50642601367008
 20
641.96041004871086
 30
0.0
 11
473.98110264979732
 21
635.23730205611992
 31
0.0
  0
ARC
  5
366E8
  8
0
 10
494.4831304770413
 20
639.12385432191331
 30
0.0
 40
2.9999999999999138
 50
90.0
 51
108.99999999998759
  0
ARC
  5
366E9
  8
0
 10
494.4831304770413
 20
595.12385432191275
 30
0.0
 40
2.9999999999995941
 50
251.00000000001239
 51
270.0
  0
LINE
  5
366EA
  8
0
 10
473.98110264979732
 20
599.01040658770626
 30
0.0
 11
493.50642601367008
 21
592.28729859511532
 31
0.0
  0
ARC
  5
366EB
  8
0
 10
471.56092691840058
 20
599.84373992103974
 30
0.0
 40
0.8333333333333357
 50
90.0
 51
270.0
  0
ARC
  5
366EC
  8
0
 10
466.7205754556079
 20
601.51040658770626
 30
0.0
 40
0.8333333333333322
 50
90.0
 51
270.0
  0
ARC
  5
366ED
  8
0
 10
464.80242755145531
 20
605.34373992103974
 30
0.0
 40
2.999999999999877
 50
251.00000000001239
 51
270.0
  0
LINE
  5
366EE
  8
0
 10
454.65553449534031
 20
605.66473334579723
 30
0.0
 11
463.82572308808398
 21
602.50718419424174
 31
0.0
  0
ARC
  5
366EF
  8
0
 10
454.98110264979732
 20
606.61025192139675
 30
0.0
 40
1.000000000000014
 50
180.0
 51
251.00000000001239
  0
LINE
  5
366F0
  8
0
 10
453.98110264979721
 20
611.12385432191275
 30
0.0
 11
453.98110264979721
 21
606.61025192139675
 31
0.0
  0
ARC
  5
366F1
  8
0
 10
454.28110264979739
 20
611.12385432191275
 30
0.0
 40
0.3000000000000087
 50
90.0
 51
180.0
  0
LINE
  5
366F2
  8
0
 10
454.28110264979739
 20
613.82385432191313
 30
0.0
 11
454.28110264979739
 21
611.42385432191304
 31
0.0
  0
ARC
  5
366F3
  8
0
 10
454.28110264979739
 20
614.12385432191331
 30
0.0
 40
0.3000000000000114
 50
180.0
 51
270.0
  0
LINE
  5
366F6
  8
0
 10
619.42088552955101
 20
620.42385432191304
 30
0.0
 11
600.55126168334016
 21
620.42385432191304
 31
0.0
  0
LINE
  5
366F7
  8
0
 10
553.85619786605093
 20
620.42385432191304
 30
0.0
 11
454.28110264979739
 21
620.42385432191304
 31
0.0
  0
LINE
  5
366F8
  8
0
 10
618.23435695533772
 20
622.82385432191313
 30
0.0
 11
601.78513520353215
 21
622.82385432191313
 31
0.0
  0
LINE
  5
366F9
  8
0
 10
553.85619786605093
 20
622.82385432191313
 30
0.0
 11
454.28110264979739
 21
622.82385432191313
 31
0.0
  0
LINE
  5
366FF
  8
0
 10
553.85619787421535
 20
631.90396872278643
 30
0.0
 11
464.80242755145531
 21
631.90396872278643
 31
0.0
  0
LINE
  5
36700
  8
0
 10
553.85619787602991
 20
633.57063538945295
 30
0.0
 11
466.7205754556079
 21
633.57063538945295
 31
0.0
  0
LINE
  5
36701
  8
0
 10
553.85619788118674
 20
635.23730205611992
 30
0.0
 11
471.56092691840058
 21
635.23730205611992
 31
0.0
  0
LINE
  5
36703
  8
0
 10
553.85619792512171
 20
642.12385432191331
 30
0.0
 11
494.4831304770413
 21
642.12385432191331
 31
0.0
  0
LINE
  5
36704
  8
0
 10
553.85619792512171
 20
592.12385432191286
 30
0.0
 11
494.4831304770413
 21
592.12385432191286
 31
0.0
  0
LINE
  5
36706
  8
0
 10
553.85619788118674
 20
599.01040658770626
 30
0.0
 11
471.56092691840058
 21
599.01040658770626
 31
0.0
  0
LINE
  5
36707
  8
0
 10
553.85619787602991
 20
600.67707325437323
 30
0.0
 11
466.7205754556079
 21
600.67707325437323
 31
0.0
  0
LINE
  5
36708
  8
0
 10
553.85619787421535
 20
602.34373992103974
 30
0.0
 11
464.80242755145531
 21
602.34373992103974
 31
0.0
  0
LINE
  5
3670E
  8
0
 10
618.23435695533772
 20
611.42385432191304
 30
0.0
 11
601.78513520353215
 21
611.42385432191304
 31
0.0
  0
LINE
  5
3670F
  8
0
 10
553.85619786605093
 20
611.42385432191304
 30
0.0
 11
454.28110264979739
 21
611.42385432191304
 31
0.0
  0
LINE
  5
36712
  8
0
 10
619.42088552955101
 20
613.82385432191313
 30
0.0
 11
600.55126168334016
 21
613.82385432191313
 31
0.0
  0
LINE
  5
36713
  8
0
 10
553.85619786605093
 20
613.82385432191313
 30
0.0
 11
454.28110264979739
 21
613.82385432191313
 31
0.0
  0
LINE
  5
36719
  8
0
 10
550.36785221511798
 20
281.96650863600831
 30
0.0
 11
546.75460178044011
 21
275.7081753026751
 31
0.0
  0
LINE
  5
3671A
  8
0
 10
546.75460178044011
 20
275.7081753026751
 30
0.0
 11
550.36785221511798
 21
269.44984196934178
 31
0.0
  0
LINE
  5
3671B
  8
0
 10
550.36785221511798
 20
269.44984196934178
 30
0.0
 11
557.59435308447564
 21
269.44984196934178
 31
0.0
  0
LINE
  5
3671C
  8
0
 10
561.20760351915351
 20
275.7081753026751
 30
0.0
 11
557.59435308447564
 21
281.96650863600831
 31
0.0
  0
LINE
  5
3671D
  8
0
 10
557.59435308447564
 20
269.44984196934178
 30
0.0
 11
561.20760351915351
 21
275.7081753026751
 31
0.0
  0
LINE
  5
3671E
  8
0
 10
557.59435308447564
 20
281.96650863600831
 30
0.0
 11
550.36785221511798
 21
281.96650863600831
 31
0.0
  0
CIRCLE
  5
3671F
  8
0
 10
553.98110264979675
 20
275.7081753026751
 30
0.0
 40
6.25833333333334
  0
LINE
  5
36720
  8
1
 10
436.98957567775182
 20
275.7081753026751
 30
0.0
 11
670.97262962184141
 21
275.7081753026751
 31
0.0
  0
LINE
  5
36721
  8
1
 10
553.98110264979675
 20
158.71664833062999
 30
0.0
 11
553.98110264979675
 21
362.96870249686441
 31
0.0
  0
LINE
  5
36722
  8
3
 10
557.21410264979738
 20
661.1238543219132
 30
0.0
 11
557.21410264979738
 21
659.12385432191331
 31
0.0
  0
LINE
  5
36723
  8
3
 10
550.74810264979715
 20
661.1238543219132
 30
0.0
 11
550.74810264979658
 21
659.12385432191331
 31
0.0
  0
ARC
  5
36763
  8
0
 10
553.98110264979641
 20
275.7081753026751
 30
0.0
 40
83.253509064729869
 50
93.036395721564546
 51
39.499937536897441
  0
ARC
  5
36764
  8
0
 10
553.98110264979641
 20
275.7081753026751
 30
0.0
 40
88.093860527522935
 50
92.473576413860698
 51
40.018449535298721
  0
ARC
  5
36765
  8
0
 10
553.98110264979641
 20
275.7081753026751
 30
0.0
 40
49.999999999999957
 50
99.945945880862098
 51
33.148194366334408
  0
ARC
  5
36766
  8
0
 10
553.98110264979641
 20
275.97304596679209
 30
0.0
 40
60.251195068558872
 50
96.945592724244378
 51
35.703101073083111
  0
ARC
  5
36767
  8
0
 10
553.98110264979641
 20
275.7081753026751
 30
0.0
 40
79.999999999999972
 50
93.453611912370405
 51
39.11565484865239
  0
ARC
  5
36768
  8
0
 10
553.98110264979641
 20
275.7081753026751
 30
0.0
 40
100.0
 50
91.323855194506166
 51
41.078055220490619
  0
LINE
  5
36769
  8
3
 10
919.51113648498074
 20
278.94117530267522
 30
0.0
 11
917.51113648498085
 21
278.94117530267522
 31
0.0
  0
LINE
  5
3676A
  8
3
 10
919.51113648498074
 20
272.47517530267493
 30
0.0
 11
917.51113648498085
 21
272.47517530267493
 31
0.0
  0
LINE
  5
3676B
  8
1
 10
609.98110264979732
 20
425.3997022747198
 30
0.0
 11
609.98110264979732
 21
347.37253655476712
 31
0.0
  0
LINE
  5
36773
  8
1
 10
820.87075541608101
 20
275.7081753026751
 30
0.0
 11
930.15151755388058
 21
275.7081753026751
 31
0.0
  0
LINE
  5
36774
  8
1
 10
875.51113648498165
 20
158.71664833062999
 30
0.0
 11
875.51113648498165
 21
425.3997022747198
 31
0.0
  0
LINE
  5
367B5
  8
1
 10
438.926124944126
 20
617.12385432191331
 30
0.0
 11
677.97262962184232
 21
617.12385432191331
 31
0.0
  0
LINE
  5
367B6
  8
1
 10
553.98110264979778
 20
564.86085640627959
 30
0.0
 11
553.98110264979778
 21
669.38685223754692
 31
0.0
  0
LINE
  5
3694C
  8
1
 10
609.98110264979732
 20
685.11538129395831
 30
0.0
 11
609.98110264979732
 21
549.13232734986832
 31
0.0
  0
TEXT
  5
385E3
  8
0
 62
     3
 10
0.0
 20
0.0
 30
0.0
 40
10.0
  1
CAE3-200FBL
  7
STANDARD1
  0
ENDSEC
  0
EOF
