  0
SECTION
  2
HEADER
  9
$ACADVER
  1
AC1009
  9
$INSBASE
 10
0.0
 20
0.0
 30
0.0
  9
$EXTMIN
 10
0.0
 20
-2.960436562073669
 30
0.0
  9
$EXTMAX
 10
928.27380546799384
 20
675.17133554844804
 30
0.0
  9
$LIMMIN
 10
0.0
 20
0.0
  9
$LIMMAX
 10
375.0
 20
270.0
  9
$ORTHOMODE
 70
     1
  9
$REGENMODE
 70
     1
  9
$FILLMODE
 70
     1
  9
$QTEXTMODE
 70
     0
  9
$MIRRTEXT
 70
     1
  9
$DRAGMODE
 70
     2
  9
$LTSCALE
 40
10.0
  9
$OSMODE
 70
  3071
  9
$ATTMODE
 70
     1
  9
$TEXTSIZE
 40
5.0
  9
$TRACEWID
 40
0.05
  9
$TEXTSTYLE
  7
STANDARD
  9
$CLAYER
  8
0
  9
$CELTYPE
  6
BYLAYER
  9
$CECOLOR
 62
     6
  9
$DIMSCALE
 40
2.0
  9
$DIMASZ
 40
3.0
  9
$DIMEXO
 40
2.0
  9
$DIMDLI
 40
0.38
  9
$DIMRND
 40
0.0
  9
$DIMDLE
 40
0.0
  9
$DIMEXE
 40
2.0
  9
$DIMTP
 40
0.0
  9
$DIMTM
 40
0.0
  9
$DIMTXT
 40
3.2000000000000002
  9
$DIMCEN
 40
0.0
  9
$DIMTSZ
 40
0.0
  9
$DIMTOL
 70
     0
  9
$DIMLIM
 70
     0
  9
$DIMTIH
 70
     0
  9
$DIMTOH
 70
     0
  9
$DIMSE1
 70
     0
  9
$DIMSE2
 70
     0
  9
$DIMTAD
 70
     1
  9
$DIMZIN
 70
     8
  9
$DIMBLK
  1

  9
$DIMASO
 70
     0
  9
$DIMSHO
 70
     0
  9
$DIMPOST
  1

  9
$DIMAPOST
  1

  9
$DIMALT
 70
     0
  9
$DIMALTD
 70
     2
  9
$DIMALTF
 40
25.399999999999999
  9
$DIMLFAC
 40
1.0
  9
$DIMTOFL
 70
     0
  9
$DIMTVP
 40
1.6000000000000001
  9
$DIMTIX
 70
     1
  9
$DIMSOXD
 70
     0
  9
$DIMSAH
 70
     0
  9
$DIMBLK1
  1

  9
$DIMBLK2
  1

  9
$DIMSTYLE
  2
STANDARD
  9
$DIMCLRD
 70
     0
  9
$DIMCLRE
 70
     0
  9
$DIMCLRT
 70
     0
  9
$DIMTFAC
 40
1.0
  9
$DIMGAP
 40
1.1999999999999991
  9
$LUNITS
 70
     2
  9
$LUPREC
 70
     4
  9
$SKETCHINC
 40
0.1
  9
$FILLETRAD
 40
0.0
  9
$AUNITS
 70
     0
  9
$AUPREC
 70
     4
  9
$MENU
  1
ACAD
  9
$ELEVATION
 40
0.0
  9
$PELEVATION
 40
0.0
  9
$THICKNESS
 40
0.0
  9
$LIMCHECK
 70
     0
  9
$BLIPMODE
 70
     0
  9
$CHAMFERA
 40
0.0
  9
$CHAMFERB
 40
0.0
  9
$SKPOLY
 70
     0
  9
$TDCREATE
 40
2448055.7149187499
  9
$TDUPDATE
 40
2456598.5594911231
  9
$TDINDWG
 40
3.5607559722
  9
$TDUSRTIMER
 40
3.5607559722
  9
$USRTIMER
 70
     1
  9
$ANGBASE
 50
0.0
  9
$ANGDIR
 70
     0
  9
$PDMODE
 70
     0
  9
$PDSIZE
 40
0.0
  9
$PLINEWID
 40
0.0
  9
$COORDS
 70
     1
  9
$SPLFRAME
 70
     0
  9
$SPLINETYPE
 70
     6
  9
$SPLINESEGS
 70
     8
  9
$ATTDIA
 70
     0
  9
$ATTREQ
 70
     1
  9
$HANDLING
 70
     1
  9
$HANDSEED
  5
3869E
  9
$SURFTAB1
 70
     6
  9
$SURFTAB2
 70
     6
  9
$SURFTYPE
 70
     6
  9
$SURFU
 70
     6
  9
$SURFV
 70
     6
  9
$UCSNAME
  2

  9
$UCSORG
 10
0.0
 20
0.0
 30
0.0
  9
$UCSXDIR
 10
1.0
 20
0.0
 30
0.0
  9
$UCSYDIR
 10
0.0
 20
1.0
 30
0.0
  9
$PUCSNAME
  2

  9
$PUCSORG
 10
0.0
 20
0.0
 30
0.0
  9
$PUCSXDIR
 10
1.0
 20
0.0
 30
0.0
  9
$PUCSYDIR
 10
0.0
 20
1.0
 30
0.0
  9
$USERI1
 70
     0
  9
$USERI2
 70
     0
  9
$USERI3
 70
     0
  9
$USERI4
 70
     0
  9
$USERI5
 70
     0
  9
$USERR1
 40
0.0
  9
$USERR2
 40
0.0
  9
$USERR3
 40
0.0
  9
$USERR4
 40
0.0
  9
$USERR5
 40
0.0
  9
$WORLDVIEW
 70
     1
  9
$SHADEDGE
 70
     3
  9
$SHADEDIF
 70
    70
  9
$TILEMODE
 70
     1
  9
$MAXACTVP
 70
    16
  9
$PLIMCHECK
 70
     0
  9
$PEXTMIN
 10
1.0000000000000000E+020
 20
1.0000000000000000E+020
 30
1.0000000000000000E+020
  9
$PEXTMAX
 10
-1.0000000000000000E+020
 20
-1.0000000000000000E+020
 30
-1.0000000000000000E+020
  9
$PLIMMIN
 10
0.0
 20
0.0
  9
$PLIMMAX
 10
12.0
 20
9.0
  9
$UNITMODE
 70
     0
  9
$VISRETAIN
 70
     0
  9
$PLINEGEN
 70
     1
  9
$PSLTSCALE
 70
     0
  0
ENDSEC
  0
SECTION
  2
TABLES
  0
TABLE
  2
VPORT
 70
     1
  0
VPORT
  2
*ACTIVE
 70
     0
 10
0.0
 20
0.0
 11
1.0
 21
1.0
 12
482.92910037356432
 22
336.09183628091478
 13
0.0
 23
0.0
 14
5.0
 24
5.0
 15
10.0
 25
10.0
 16
0.0
 26
0.0
 36
1.0
 17
0.0
 27
0.0
 37
0.0
 40
684.28272396903412
 41
1.831871345029239
 42
50.0
 43
0.0
 44
0.0
 50
0.0
 51
0.0
 71
     0
 72
   500
 73
     1
 74
     1
 75
     0
 76
     0
 77
     0
 78
     2
  0
ENDTAB
  0
TABLE
  2
LTYPE
 70
     4
  0
LTYPE
  2
CONTINUOUS
 70
     0
  3
実線
 72
    65
 73
     0
 40
0.0
  0
LTYPE
  2
CENTER
 70
     0
  3
____ _ ____ _ ____ _ ____ _ ____ _ ____ _ ____
 72
    65
 73
     4
 40
2.0
 49
1.25
 49
-0.25
 49
0.25
 49
-0.25
  0
LTYPE
  2
HIDDEN
 70
     0
  3
_ _ _ _ _ _ _ _ _ _ _ _ _ _ _ _ _ _ _ _ _ _ _
 72
    65
 73
     2
 40
0.375
 49
0.25
 49
-0.125
  0
LTYPE
  2
PHANTOM2
 70
     0
  3
___ _ _ ___ _ _ ___ _ _ ___ _ _
 72
    65
 73
     6
 40
1.25
 49
0.625
 49
-0.125
 49
0.125
 49
-0.125
 49
0.125
 49
-0.125
  0
ENDTAB
  0
TABLE
  2
LAYER
 70
     5
  0
LAYER
  2
0
 70
     0
 62
     7
  6
CONTINUOUS
  0
LAYER
  2
1
 70
     0
 62
     1
  6
CENTER
  0
LAYER
  2
2
 70
     0
 62
     2
  6
HIDDEN
  0
LAYER
  2
DEFPOINTS
 70
     0
 62
     7
  6
CONTINUOUS
  0
LAYER
  2
3
 70
     0
 62
     3
  6
CONTINUOUS
  0
ENDTAB
  0
TABLE
  2
STYLE
 70
     3
  0
STYLE
  2
STANDARD
 70
     0
 40
0.0
 41
1.0
 50
0.0
 71
     0
 42
5.0
  3
simplex.shx
  4
bigfont.shx
  0
STYLE
  2
07500
 70
     0
 40
0.0
 41
0.75
 50
0.0
 71
     0
 42
0.2
  3
simplex.shx
  4
bigfont.shx
  0
STYLE
  2
STANDARD1
 70
     0
 40
0.0
 41
1.0
 50
0.0
 71
     0
 42
3.0
  3
txt
  4

  0
ENDTAB
  0
TABLE
  2
VIEW
 70
     2
  0
VIEW
  2
ALL
 70
     0
 40
270.0
 10
220.99159663865549
 20
135.0
 41
0.0
 11
0.0
 21
0.0
 31
1.0
 12
0.0
 22
0.0
 32
0.0
 42
0.0
 43
0.0
 44
0.0
 50
0.0
 71
     0
  0
VIEW
  2
OLE1
 70
     0
 40
168.2487151179721
 10
2892.3009567448912
 20
702.51600084347126
 41
162.5749581879237
 11
0.0
 21
0.0
 31
1.0
 12
0.0
 22
0.0
 32
0.0
 42
50.0
 43
0.0
 44
0.0
 50
0.0
 71
     0
  0
ENDTAB
  0
TABLE
  2
UCS
 70
     0
  0
ENDTAB
  0
TABLE
  2
APPID
 70
    48
  0
APPID
  2
ACAD
 70
     0
  0
APPID
  2
DCO15
 70
     0
  0
APPID
  2
GENIUS_GENOREF_13
 70
     0
  0
APPID
  2
GENIUS_GENOENT_13
 70
     0
  0
APPID
  2
GENIUS_GENBH_13
 70
     0
  0
APPID
  2
GENIUS_GENOBJ_13
 70
     0
  0
APPID
  2
GENIUS_GENODEF_13
 70
     0
  0
APPID
  2
GENIUS_GENOLIS_13
 70
     0
  0
APPID
  2
GENIUS_GENOBJ-NBEHI-BHF_13
 70
     0
  0
APPID
  2
GENIUS_GENOBJ-NBEHI-BHB_13
 70
     0
  0
APPID
  2
GENIUS_GENOBJ-F-PART_13
 70
     0
  0
APPID
  2
GENIUS_GEFSTDP_13
 70
     0
  0
APPID
  2
GENIUS_GENOBJ-N-RSSYM_13
 70
     0
  0
APPID
  2
GENIUS_GENSYMENT_13
 70
     0
  0
APPID
  2
GENIUS_GENOBJ-N-TIT_13
 70
     0
  0
APPID
  2
GENIUS_GENTITLE_13
 70
     0
  0
APPID
  2
GENIUS_GENZVEED_13
 70
     0
  0
APPID
  2
GENIUS_GENOBJ-N-LEADER_13
 70
     0
  0
APPID
  2
GENIUS_GENOBJ-N-FIL_13
 70
     0
  0
APPID
  2
GENIUS_GENOBJ-N-SEC_13
 70
     0
  0
APPID
  2
GENIUS_GENOBJ-N-CRS_13
 70
     0
  0
APPID
  2
GENIUS_GENOBJ-N-ZOO_13
 70
     0
  0
APPID
  2
GENIUS_GENZOO_13
 70
     0
  0
APPID
  2
GENIUS_GENOBJ-F-TOL_13
 70
     0
  0
APPID
  2
GENIUS_GENFIL_13
 70
     0
  0
APPID
  2
GENIUS_GENOBJ-N-CHA_13
 70
     0
  0
APPID
  2
_CALL_MAC$
 70
     0
  0
APPID
  2
ASM_BASE
 70
     0
  0
APPID
  2
ASM_EXPLO_VER_2_00
 70
     0
  0
APPID
  2
ASM_CADM_VER_12_00
 70
     0
  0
APPID
  2
ASM_BASEFORO
 70
     0
  0
APPID
  2
ASM_BASETRAVI
 70
     0
  0
APPID
  2
ASM_BASETRAVI1
 70
     0
  0
APPID
  2
ASM_GRUPPI
 70
     0
  0
APPID
  2
ASM_CADM_ALBERO
 70
     0
  0
APPID
  2
ASM_GOLE
 70
     0
  0
APPID
  2
ACAD_MLEADERVER
 70
     0
  0
APPID
  2
ACAD_DSTYLE_DIMJAG
 70
     0
  0
APPID
  2
ACAD_DSTYLE_DIMTALN
 70
     0
  0
APPID
  2
ACAD_EXEMPT_FROM_CAD_STANDARDS
 70
     0
  0
APPID
  2
ACAD_DSTYLE_DIMRADIAL_EXTENSION
 70
     0
  0
APPID
  2
ACAD_PSEXT
 70
     0
  0
APPID
  2
ACAD_DSTYLE_DIMBREAK
 70
     0
  0
APPID
  2
ACAECLAYERSTANDARD
 70
     0
  0
APPID
  2
ACCMTRANSPARENCY
 70
     0
  0
APPID
  2
GRADIENTCOLOR1ACI
 70
     0
  0
APPID
  2
GRADIENTCOLOR2ACI
 70
     0
  0
APPID
  2
ACAD_NAV_VCDISPLAY
 70
     0
  0
ENDTAB
  0
TABLE
  2
DIMSTYLE
 70
     1
  0
DIMSTYLE
  2
STANDARD
 70
     0
  3

  4

  5

  6

  7

 40
1.0
 41
0.18
 42
0.0625
 43
0.38
 44
0.18
 45
0.0
 46
0.0
 47
0.0
 48
0.0
140
0.18
141
0.09
142
0.0
143
25.399999999999999
144
1.0
145
0.0
146
1.0
147
0.09
 71
     0
 72
     0
 73
     1
 74
     1
 75
     0
 76
     0
 77
     0
 78
     0
170
     0
171
     2
172
     0
173
     0
174
     0
175
     0
176
     0
177
     0
178
     0
  0
ENDTAB
  0
ENDSEC
  0
SECTION
  2
BLOCKS
  0
BLOCK
  8
0
  2
$MODEL_SPACE
 70
     0
 10
0.0
 20
0.0
 30
0.0
  3
$MODEL_SPACE
  1

  0
ENDBLK
  5
36
  8
0
  0
BLOCK
 67
     1
  8
0
  2
$PAPER_SPACE
 70
     0
 10
0.0
 20
0.0
 30
0.0
  3
$PAPER_SPACE
  1

  0
ENDBLK
  5
34
 67
     1
  8
0
  0
ENDSEC
  0
SECTION
  2
ENTITIES
  0
LINE
  5
32285
  8
2
 10
654.98110264979732
 20
389.70580168065862
 30
0.0
 11
654.98110264979732
 21
391.09089100163601
 31
0.0
  0
LINE
  5
32287
  8
2
 10
619.98110264979732
 20
391.09089100163601
 30
0.0
 11
619.98110264979732
 21
405.0908910016359
 31
0.0
  0
LINE
  5
32288
  8
2
 10
599.98110264979721
 20
405.0908910016359
 30
0.0
 11
599.98110264979721
 21
391.09089100163601
 31
0.0
  0
LINE
  5
32289
  8
2
 10
564.98110264979732
 20
391.09089100163601
 30
0.0
 11
654.98110264979732
 21
391.09089100163601
 31
0.0
  0
LINE
  5
32295
  8
1
 10
609.98110264979732
 20
422.08241797368089
 30
0.0
 11
609.98110264979732
 21
345.03912812429371
 31
0.0
  0
LINE
  5
32296
  8
0
 10
562.48110264979721
 20
393.29089100163583
 30
0.0
 11
562.48110264979721
 21
391.29089100163583
 31
0.0
  0
LINE
  5
32297
  8
0
 10
622.73110264979721
 20
401.79089100163583
 30
0.0
 11
622.73110264979721
 21
405.0908910016359
 31
0.0
  0
LINE
  5
32298
  8
0
 10
597.23110264979732
 20
405.0908910016359
 30
0.0
 11
597.23110264979732
 21
401.79089100163583
 31
0.0
  0
ARC
  5
32299
  8
0
 10
569.63110264979684
 20
398.79089100163583
 30
0.0
 40
3.000000000000028
 50
90.0
 51
180.0
  0
ARC
  5
3229A
  8
0
 10
650.33110264979769
 20
398.79089100163583
 30
0.0
 40
3.0000000000000431
 50
0.0
 51
90.0
  0
LINE
  5
3229B
  8
0
 10
653.33110264979757
 20
398.29089100163583
 30
0.0
 11
653.33110264979757
 21
398.79089100163583
 31
0.0
  0
LINE
  5
3229C
  8
0
 10
566.63110264979684
 20
398.79089100163583
 30
0.0
 11
566.63110264979684
 21
398.29089100163583
 31
0.0
  0
ARC
  5
3229D
  8
0
 10
562.98110264979732
 20
394.29089100163583
 30
0.0
 40
4.0000000000000417
 50
90.0
 51
180.0
  0
ARC
  5
3229E
  8
0
 10
656.98110264979732
 20
394.29089100163583
 30
0.0
 40
4.0000000000000284
 50
0.0
 51
90.0
  0
LINE
  5
3229F
  8
0
 10
660.98110264979732
 20
393.29089100163583
 30
0.0
 11
660.98110264979732
 21
394.29089100163583
 31
0.0
  0
LINE
  5
322A0
  8
0
 10
558.98110264979732
 20
394.29089100163583
 30
0.0
 11
558.98110264979732
 21
393.29089100163583
 31
0.0
  0
LINE
  5
322A1
  8
0
 10
576.81108606855378
 20
391.29089100163583
 30
0.0
 11
555.98110264979732
 21
391.29089100163583
 31
0.0
  0
LINE
  5
322A2
  8
0
 10
555.98110264979732
 20
391.29089100163583
 30
0.0
 11
555.98110264979732
 21
391.09089100163601
 31
0.0
  0
ARC
  5
322A3
  8
0
 10
558.68110264979714
 20
269.09089100163601
 30
0.0
 40
9.9999999999999591
 50
270.0
 51
325.11067568637429
  0
LINE
  5
322A4
  8
0
 10
549.2811026497975
 20
259.09089100163601
 30
0.0
 11
558.68110264979714
 21
259.09089100163601
 31
0.0
  0
ARC
  5
322A5
  8
0
 10
549.2811026497975
 20
269.09089100163601
 30
0.0
 40
10.000000000000011
 50
171.93083053291519
 51
270.0
  0
LINE
  5
322A6
  8
0
 10
566.8836873219816
 20
263.37096052166947
 30
0.0
 11
657.48110264979732
 21
393.29089100163583
 31
0.0
  0
LINE
  5
322A7
  8
0
 10
552.79122985698632
 20
365.09089100163601
 30
0.0
 11
539.38010932444195
 21
270.49457585631848
 31
0.0
  0
LINE
  5
322A8
  8
0
 10
542.01442364658851
 20
391.09089100163601
 30
0.0
 11
493.4977631481924
 21
378.09089100163601
 31
0.0
  0
LINE
  5
322A9
  8
0
 10
496.98110264979732
 20
365.09089100163601
 30
0.0
 11
552.79122985698632
 21
365.09089100163601
 31
0.0
  0
LINE
  5
322AA
  8
0
 10
555.98110264979732
 20
391.09089100163601
 30
0.0
 11
542.01442364658851
 21
391.09089100163601
 31
0.0
  0
LINE
  5
322AB
  8
0
 10
493.4977631481924
 20
378.09089100163601
 30
0.0
 11
496.98110264979732
 21
365.09089100163601
 31
0.0
  0
LINE
  5
322B3
  8
0
 10
576.81108606855378
 20
391.29089100163583
 30
0.0
 11
576.81108606855378
 21
277.60720501423748
 31
0.0
  0
LINE
  5
322B4
  8
0
 10
597.23110264979732
 20
405.0908910016359
 30
0.0
 11
622.73110264979721
 21
405.0908910016359
 31
0.0
  0
LINE
  5
322B5
  8
0
 10
569.63110264979684
 20
401.79089100163583
 30
0.0
 11
650.33110264979769
 21
401.79089100163583
 31
0.0
  0
LINE
  5
322B7
  8
0
 10
562.98110264979732
 20
398.29089100163583
 30
0.0
 11
656.98110264979732
 21
398.29089100163583
 31
0.0
  0
LINE
  5
322B9
  8
0
 10
558.98110264979732
 20
393.29089100163583
 30
0.0
 11
660.98110264979732
 21
393.29089100163583
 31
0.0
  0
LINE
  5
322EC
  8
2
 10
920.51113648498085
 20
325.1741939030635
 30
0.0
 11
920.51113648498085
 21
391.09089100163601
 31
0.0
  0
LINE
  5
322ED
  8
2
 10
830.51113648498085
 20
391.09089100163601
 30
0.0
 11
830.51113648498085
 21
325.1741939030635
 31
0.0
  0
LINE
  5
322F2
  8
2
 10
885.51113648498085
 20
391.09089100163601
 30
0.0
 11
885.51113648498085
 21
405.0908910016359
 31
0.0
  0
LINE
  5
322F3
  8
2
 10
865.51113648498085
 20
405.0908910016359
 30
0.0
 11
865.51113648498085
 21
391.09089100163601
 31
0.0
  0
LINE
  5
322F4
  8
2
 10
830.51113648498085
 20
391.09089100163601
 30
0.0
 11
920.51113648498085
 21
391.09089100163601
 31
0.0
  0
LINE
  5
3230E
  8
0
 10
923.01113648498085
 20
325.1741939030635
 30
0.0
 11
923.01113648498085
 21
393.29089100163583
 31
0.0
  0
LINE
  5
3230F
  8
0
 10
828.01113648498085
 20
393.29089100163583
 30
0.0
 11
828.01113648498085
 21
325.1741939030635
 31
0.0
  0
LINE
  5
32310
  8
0
 10
888.26113648498074
 20
401.79089100163583
 30
0.0
 11
888.26113648498074
 21
405.0908910016359
 31
0.0
  0
LINE
  5
32311
  8
0
 10
862.76113648498085
 20
405.0908910016359
 30
0.0
 11
862.76113648498085
 21
401.79089100163583
 31
0.0
  0
ARC
  5
32312
  8
0
 10
835.16113648498049
 20
398.79089100163583
 30
0.0
 40
3.000000000000028
 50
90.0
 51
180.0
  0
ARC
  5
32313
  8
0
 10
915.86113648498019
 20
398.79089100163583
 30
0.0
 40
3.000000000000036
 50
0.0
 51
90.0
  0
LINE
  5
32314
  8
0
 10
918.86113648498122
 20
398.29089100163583
 30
0.0
 11
918.86113648498122
 21
398.79089100163583
 31
0.0
  0
LINE
  5
32315
  8
0
 10
832.16113648498037
 20
398.79089100163583
 30
0.0
 11
832.16113648498037
 21
398.29089100163583
 31
0.0
  0
ARC
  5
32316
  8
0
 10
828.51113648498074
 20
394.29089100163583
 30
0.0
 40
4.000000000000056
 50
90.0
 51
180.0
  0
ARC
  5
32317
  8
0
 10
922.51113648498085
 20
394.29089100163583
 30
0.0
 40
4.0000000000000488
 50
0.0
 51
90.0
  0
LINE
  5
32318
  8
0
 10
926.51113648498085
 20
393.29089100163583
 30
0.0
 11
926.51113648498085
 21
394.29089100163583
 31
0.0
  0
LINE
  5
32319
  8
0
 10
824.51113648498085
 20
394.29089100163583
 30
0.0
 11
824.51113648498085
 21
393.29089100163583
 31
0.0
  0
LINE
  5
3231A
  8
0
 10
841.51113648498085
 20
259.09089100163601
 30
0.0
 11
841.51113648498085
 21
277.60720501423748
 31
0.0
  0
LINE
  5
3231B
  8
0
 10
841.51113648498085
 20
259.09089100163601
 30
0.0
 11
846.01113648498085
 21
259.09089100163601
 31
0.0
  0
LINE
  5
3231E
  8
0
 10
905.01113648498085
 20
259.09089100163601
 30
0.0
 11
909.51113648498085
 21
259.09089100163601
 31
0.0
  0
POLYLINE
  5
3231F
  8
0
 66
     1
 10
0.0
 20
0.0
 30
0.0
 70
     8
  0
VERTEX
  5
32320
  8
0
 10
846.01113648498085
 20
276.44334721863652
 30
0.0
 70
    32
  0
VERTEX
  5
32321
  8
0
 10
845.21165690962152
 20
277.46277702152929
 30
0.0
 70
    32
  0
VERTEX
  5
32322
  8
0
 10
843.66451530987888
 20
279.58194401114321
 30
0.0
 70
    32
  0
VERTEX
  5
32323
  8
0
 10
842.18936177593048
 20
281.80417053309839
 30
0.0
 70
    32
  0
VERTEX
  5
32324
  8
0
 10
841.47982913881685
 20
282.95237014371969
 30
0.0
 70
    32
  0
VERTEX
  5
32325
  8
0
 10
840.78953083576641
 20
284.12443332956809
 30
0.0
 70
    32
  0
VERTEX
  5
32326
  8
0
 10
839.46818675354086
 20
286.5374875354874
 30
0.0
 70
    32
  0
VERTEX
  5
32327
  8
0
 10
838.22831637687614
 20
289.03787853436779
 30
0.0
 70
    32
  0
VERTEX
  5
32328
  8
0
 10
837.07272238520636
 20
291.61995428825139
 30
0.0
 70
    32
  0
VERTEX
  5
32329
  8
0
 10
836.00401695443168
 20
294.27787811392233
 30
0.0
 70
    32
  0
VERTEX
  5
3232A
  8
0
 10
835.02461585219135
 20
297.00564187650929
 30
0.0
 70
    32
  0
VERTEX
  5
3232B
  8
0
 10
834.56910429311199
 20
298.39379264546869
 30
0.0
 70
    32
  0
VERTEX
  5
3232C
  8
0
 10
834.13673297711557
 20
299.79707957064102
 30
0.0
 70
    32
  0
VERTEX
  5
3232D
  8
0
 10
833.34237535439195
 20
302.64588125846649
 30
0.0
 70
    32
  0
VERTEX
  5
3232E
  8
0
 10
832.64333859896135
 20
305.54560733302651
 30
0.0
 70
    32
  0
VERTEX
  5
3232F
  8
0
 10
832.04120285659963
 20
308.48970307473883
 30
0.0
 70
    32
  0
VERTEX
  5
32330
  8
0
 10
831.53732923205996
 20
311.47151346809
 30
0.0
 70
    32
  0
VERTEX
  5
32331
  8
0
 10
831.13285671234644
 20
314.4842982450441
 30
0.0
 70
    32
  0
VERTEX
  5
32332
  8
0
 10
830.96819042092011
 20
316.00018012848881
 30
0.0
 70
    32
  0
VERTEX
  5
32333
  8
0
 10
830.8286995920779
 20
317.52124712115761
 30
0.0
 70
    32
  0
VERTEX
  5
32334
  8
0
 10
830.62554540675865
 20
320.57549518996848
 30
0.0
 70
    32
  0
VERTEX
  5
32335
  8
0
 10
830.52385337863507
 20
323.6401384408523
 30
0.0
 70
    32
  0
VERTEX
  5
32336
  8
0
 10
830.51113648498085
 20
325.1741939030635
 30
0.0
 70
    32
  0
SEQEND
  5
32337
  8
0
  0
POLYLINE
  5
32338
  8
0
 66
     1
 10
0.0
 20
0.0
 30
0.0
 70
     8
  0
VERTEX
  5
32339
  8
0
 10
830.51113648498085
 20
325.1741939030635
 30
0.0
 70
    32
  0
VERTEX
  5
3233A
  8
0
 10
830.51589604826131
 20
326.11273500187281
 30
0.0
 70
    32
  0
VERTEX
  5
3233B
  8
0
 10
830.5539665137976
 20
327.98902310002222
 30
0.0
 70
    32
  0
VERTEX
  5
3233C
  8
0
 10
830.6300752334555
 20
329.86292957165091
 30
0.0
 70
    32
  0
VERTEX
  5
3233D
  8
0
 10
830.68237507085269
 20
330.79849410962021
 30
0.0
 70
    32
  0
VERTEX
  5
3233E
  8
0
 10
830.74415781165953
 20
331.73286890480131
 30
0.0
 70
    32
  0
VERTEX
  5
3233F
  8
0
 10
830.89611772315936
 20
333.59725894411082
 30
0.0
 70
    32
  0
VERTEX
  5
32340
  8
0
 10
831.08582639469932
 20
335.4545222294737
 30
0.0
 70
    32
  0
VERTEX
  5
32341
  8
0
 10
831.31312331380275
 20
337.30308733073019
 30
0.0
 70
    32
  0
VERTEX
  5
32342
  8
0
 10
831.57781616458385
 20
339.1413901772512
 30
0.0
 70
    32
  0
VERTEX
  5
32343
  8
0
 10
831.8796809904652
 20
340.96787538130093
 30
0.0
 70
    32
  0
VERTEX
  5
32344
  8
0
 10
832.04447430197251
 20
341.87620300699109
 30
0.0
 70
    32
  0
VERTEX
  5
32345
  8
0
 10
832.21846238366834
 20
342.78099755404861
 30
0.0
 70
    32
  0
VERTEX
  5
32346
  8
0
 10
832.59387370131014
 20
344.5792226131216
 30
0.0
 70
    32
  0
VERTEX
  5
32347
  8
0
 10
833.00559730793896
 20
346.36102908059269
 30
0.0
 70
    32
  0
VERTEX
  5
32348
  8
0
 10
833.4532848442758
 20
348.12490937030412
 30
0.0
 70
    32
  0
VERTEX
  5
32349
  8
0
 10
833.93655752197265
 20
349.86937106343112
 30
0.0
 70
    32
  0
VERTEX
  5
3234A
  8
0
 10
834.45500644409549
 20
351.59293817122312
 30
0.0
 70
    32
  0
VERTEX
  5
3234B
  8
0
 10
834.72728606833152
 20
352.44642980936311
 30
0.0
 70
    32
  0
VERTEX
  5
3234C
  8
0
 10
835.00819295109522
 20
353.29415238383308
 30
0.0
 70
    32
  0
VERTEX
  5
3234D
  8
0
 10
835.59564899196073
 20
354.9715743041952
 30
0.0
 70
    32
  0
VERTEX
  5
3234E
  8
0
 10
836.21687752023172
 20
356.62378466589871
 30
0.0
 70
    32
  0
VERTEX
  5
3234F
  8
0
 10
836.53999331468094
 20
357.43999779186112
 30
0.0
 70
    32
  0
VERTEX
  5
32350
  8
0
 10
836.87135291455343
 20
358.24938553402808
 30
0.0
 70
    32
  0
VERTEX
  5
32351
  8
0
 10
837.55852142340052
 20
359.84700148795628
 30
0.0
 70
    32
  0
VERTEX
  5
32352
  8
0
 10
838.27780163361319
 20
361.41528078508691
 30
0.0
 70
    32
  0
VERTEX
  5
32353
  8
0
 10
838.64929449197643
 20
362.18800352413967
 30
0.0
 70
    32
  0
VERTEX
  5
32354
  8
0
 10
839.02858496232136
 20
362.95289650456471
 30
0.0
 70
    32
  0
VERTEX
  5
32355
  8
0
 10
839.81023617187554
 20
364.45854766998258
 30
0.0
 70
    32
  0
VERTEX
  5
32356
  8
0
 10
840.62209390731448
 20
365.9309603501365
 30
0.0
 70
    32
  0
VERTEX
  5
32357
  8
0
 10
841.46347125594355
 20
367.36888873689992
 30
0.0
 70
    32
  0
VERTEX
  5
32358
  8
0
 10
842.33365632852565
 20
368.7711161993011
 30
0.0
 70
    32
  0
VERTEX
  5
32359
  8
0
 10
843.23191286161273
 20
370.13645631291502
 30
0.0
 70
    32
  0
VERTEX
  5
3235A
  8
0
 10
843.69133133158618
 20
370.8049313634715
 30
0.0
 70
    32
  0
VERTEX
  5
3235B
  8
0
 10
844.15748084050108
 20
371.46375386369618
 30
0.0
 70
    32
  0
VERTEX
  5
3235C
  8
0
 10
845.10957714227595
 20
372.75188582540432
 30
0.0
 70
    32
  0
VERTEX
  5
3235D
  8
0
 10
846.08739619841253
 20
373.99976230979883
 30
0.0
 70
    32
  0
VERTEX
  5
3235E
  8
0
 10
847.09011067636845
 20
375.20632748879137
 30
0.0
 70
    32
  0
VERTEX
  5
3235F
  8
0
 10
848.11687217958831
 20
376.37056048778231
 30
0.0
 70
    32
  0
VERTEX
  5
32360
  8
0
 10
849.16681196533307
 20
377.4914762494227
 30
0.0
 70
    32
  0
VERTEX
  5
32361
  8
0
 10
849.70019684918395
 20
378.03539233533593
 30
0.0
 70
    32
  0
VERTEX
  5
32362
  8
0
 10
850.23904167972353
 20
378.56812636707082
 30
0.0
 70
    32
  0
VERTEX
  5
32363
  8
0
 10
851.33265410937372
 20
379.59959988723949
 30
0.0
 70
    32
  0
VERTEX
  5
32364
  8
0
 10
852.44672394898669
 20
380.58502408035201
 30
0.0
 70
    32
  0
VERTEX
  5
32365
  8
0
 10
853.58030858425525
 20
381.52356517916178
 30
0.0
 70
    32
  0
VERTEX
  5
32366
  8
0
 10
854.73244888940462
 20
382.41442908419822
 30
0.0
 70
    32
  0
VERTEX
  5
32367
  8
0
 10
855.90217003871203
 20
383.25686203565829
 30
0.0
 70
    32
  0
VERTEX
  5
32368
  8
0
 10
856.49331470664947
 20
383.65969254189258
 30
0.0
 70
    32
  0
VERTEX
  5
32369
  8
0
 10
857.0884823313063
 20
384.05015125116051
 30
0.0
 70
    32
  0
VERTEX
  5
3236A
  8
0
 10
858.2903820285519
 20
384.79362552882958
 30
0.0
 70
    32
  0
VERTEX
  5
3236B
  8
0
 10
859.50685220331161
 20
385.48665581520157
 30
0.0
 70
    32
  0
VERTEX
  5
3236C
  8
0
 10
860.73686360037016
 20
386.12865573746558
 30
0.0
 70
    32
  0
VERTEX
  5
3236D
  8
0
 10
861.97937550728875
 20
386.71908209959201
 30
0.0
 70
    32
  0
VERTEX
  5
3236E
  8
0
 10
863.23333663494486
 20
387.25743534193361
 30
0.0
 70
    32
  0
VERTEX
  5
3236F
  8
0
 10
863.86427945536707
 20
387.50694046739909
 30
0.0
 70
    32
  0
VERTEX
  5
32370
  8
0
 10
864.49768600703635
 20
387.74325996390007
 30
0.0
 70
    32
  0
VERTEX
  5
32371
  8
0
 10
865.77135385776626
 20
388.17614490935921
 30
0.0
 70
    32
  0
VERTEX
  5
32372
  8
0
 10
867.05326253697604
 20
388.55572391442911
 30
0.0
 70
    32
  0
VERTEX
  5
32373
  8
0
 10
868.34232742194206
 20
388.88167581737662
 30
0.0
 70
    32
  0
VERTEX
  5
32374
  8
0
 10
869.63745783507875
 20
389.15372483035031
 30
0.0
 70
    32
  0
VERTEX
  5
32375
  8
0
 10
870.93755796675487
 20
389.37164077272428
 30
0.0
 70
    32
  0
VERTEX
  5
32376
  8
0
 10
871.58912806133594
 20
389.46023943043969
 30
0.0
 70
    32
  0
VERTEX
  5
32377
  8
0
 10
872.24152780246368
 20
389.53523926585649
 30
0.0
 70
    32
  0
VERTEX
  5
32378
  8
0
 10
873.54826405354095
 20
389.64438188908753
 30
0.0
 70
    32
  0
VERTEX
  5
32379
  8
0
 10
874.85666109066005
 20
389.69897629686329
 30
0.0
 70
    32
  0
VERTEX
  5
3237A
  8
0
 10
875.51113648498085
 20
389.70580168065862
 30
0.0
 70
    32
  0
VERTEX
  5
3237B
  8
0
 10
876.16561187930165
 20
389.69897629686329
 30
0.0
 70
    32
  0
VERTEX
  5
3237C
  8
0
 10
877.47400891642064
 20
389.64438188908753
 30
0.0
 70
    32
  0
VERTEX
  5
3237D
  8
0
 10
878.78074516749803
 20
389.53523926585649
 30
0.0
 70
    32
  0
VERTEX
  5
3237E
  8
0
 10
879.43314490862565
 20
389.46023943043969
 30
0.0
 70
    32
  0
VERTEX
  5
3237F
  8
0
 10
880.08471500320672
 20
389.37164077272428
 30
0.0
 70
    32
  0
VERTEX
  5
32380
  8
0
 10
881.38481513488296
 20
389.15372483035031
 30
0.0
 70
    32
  0
VERTEX
  5
32381
  8
0
 10
882.67994554801953
 20
388.88167581737662
 30
0.0
 70
    32
  0
VERTEX
  5
32382
  8
0
 10
883.96901043298567
 20
388.55572391442911
 30
0.0
 70
    32
  0
VERTEX
  5
32383
  8
0
 10
885.25091911219533
 20
388.17614490935921
 30
0.0
 70
    32
  0
VERTEX
  5
32384
  8
0
 10
886.52458696292513
 20
387.74325996390007
 30
0.0
 70
    32
  0
VERTEX
  5
32385
  8
0
 10
887.15799351459475
 20
387.50694046739909
 30
0.0
 70
    32
  0
VERTEX
  5
32386
  8
0
 10
887.78893633501696
 20
387.25743534193361
 30
0.0
 70
    32
  0
VERTEX
  5
32387
  8
0
 10
889.04289746267295
 20
386.71908209959201
 30
0.0
 70
    32
  0
VERTEX
  5
32388
  8
0
 10
890.28540936959143
 20
386.12865573746558
 30
0.0
 70
    32
  0
VERTEX
  5
32389
  8
0
 10
891.51542076665021
 20
385.48665581520157
 30
0.0
 70
    32
  0
VERTEX
  5
3238A
  8
0
 10
892.73189094140969
 20
384.79362552882958
 30
0.0
 70
    32
  0
VERTEX
  5
3238B
  8
0
 10
893.9337906386553
 20
384.05015125116051
 30
0.0
 70
    32
  0
VERTEX
  5
3238C
  8
0
 10
894.52895826331223
 20
383.65969254189258
 30
0.0
 70
    32
  0
VERTEX
  5
3238D
  8
0
 10
895.12010293124956
 20
383.25686203565829
 30
0.0
 70
    32
  0
VERTEX
  5
3238E
  8
0
 10
896.28982408055697
 20
382.41442908419822
 30
0.0
 70
    32
  0
VERTEX
  5
3238F
  8
0
 10
897.44196438570725
 20
381.52356517916178
 30
0.0
 70
    32
  0
VERTEX
  5
32390
  8
0
 10
898.5755490209749
 20
380.58502408035201
 30
0.0
 70
    32
  0
VERTEX
  5
32391
  8
0
 10
899.68961886058776
 20
379.59959988723949
 30
0.0
 70
    32
  0
VERTEX
  5
32392
  8
0
 10
900.78323129023829
 20
378.56812636707082
 30
0.0
 70
    32
  0
VERTEX
  5
32393
  8
0
 10
901.32207612077764
 20
378.03539233533593
 30
0.0
 70
    32
  0
VERTEX
  5
32394
  8
0
 10
901.85546100462852
 20
377.4914762494227
 30
0.0
 70
    32
  0
VERTEX
  5
32395
  8
0
 10
902.90540079037328
 20
376.37056048778231
 30
0.0
 70
    32
  0
VERTEX
  5
32396
  8
0
 10
903.93216229359314
 20
375.20632748879137
 30
0.0
 70
    32
  0
VERTEX
  5
32397
  8
0
 10
904.93487677154906
 20
373.99976230979883
 30
0.0
 70
    32
  0
VERTEX
  5
32398
  8
0
 10
905.91269582768564
 20
372.75188582540432
 30
0.0
 70
    32
  0
VERTEX
  5
32399
  8
0
 10
906.86479212946051
 20
371.46375386369618
 30
0.0
 70
    32
  0
VERTEX
  5
3239A
  8
0
 10
907.33094163837541
 20
370.8049313634715
 30
0.0
 70
    32
  0
VERTEX
  5
3239B
  8
0
 10
907.79036010834886
 20
370.13645631291502
 30
0.0
 70
    32
  0
VERTEX
  5
3239C
  8
0
 10
908.68861664143606
 20
368.7711161993011
 30
0.0
 70
    32
  0
VERTEX
  5
3239D
  8
0
 10
909.55880171401805
 20
367.36888873689992
 30
0.0
 70
    32
  0
VERTEX
  5
3239E
  8
0
 10
910.40017906264711
 20
365.9309603501365
 30
0.0
 70
    32
  0
VERTEX
  5
3239F
  8
0
 10
911.21203679808605
 20
364.45854766998258
 30
0.0
 70
    32
  0
VERTEX
  5
323A0
  8
0
 10
911.99368800764023
 20
362.95289650456471
 30
0.0
 70
    32
  0
VERTEX
  5
323A1
  8
0
 10
912.37297847798516
 20
362.18800352413967
 30
0.0
 70
    32
  0
VERTEX
  5
323A2
  8
0
 10
912.74447133634931
 20
361.41528078508691
 30
0.0
 70
    32
  0
VERTEX
  5
323A3
  8
0
 10
913.46375154656107
 20
359.84700148795628
 30
0.0
 70
    32
  0
VERTEX
  5
323A4
  8
0
 10
914.15092005540816
 20
358.24938553402808
 30
0.0
 70
    32
  0
VERTEX
  5
323A5
  8
0
 10
914.48227965528065
 20
357.43999779186112
 30
0.0
 70
    32
  0
VERTEX
  5
323A6
  8
0
 10
914.80539544972987
 20
356.62378466589871
 30
0.0
 70
    32
  0
VERTEX
  5
323A7
  8
0
 10
915.42662397800075
 20
354.9715743041952
 30
0.0
 70
    32
  0
VERTEX
  5
323A8
  8
0
 10
916.01408001886648
 20
353.29415238383308
 30
0.0
 70
    32
  0
VERTEX
  5
323A9
  8
0
 10
916.29498690163007
 20
352.44642980936351
 30
0.0
 70
    32
  0
VERTEX
  5
323AA
  8
0
 10
916.56726652586633
 20
351.59293817122312
 30
0.0
 70
    32
  0
VERTEX
  5
323AB
  8
0
 10
917.08571544798895
 20
349.86937106343112
 30
0.0
 70
    32
  0
VERTEX
  5
323AC
  8
0
 10
917.56898812568568
 20
348.12490937030412
 30
0.0
 70
    32
  0
VERTEX
  5
323AD
  8
0
 10
918.01667566202286
 20
346.36102908059269
 30
0.0
 70
    32
  0
VERTEX
  5
323AE
  8
0
 10
918.42839926865145
 20
344.5792226131216
 30
0.0
 70
    32
  0
VERTEX
  5
323AF
  8
0
 10
918.80381058629325
 20
342.78099755404861
 30
0.0
 70
    32
  0
VERTEX
  5
323B0
  8
0
 10
918.97779866798919
 20
341.87620300699109
 30
0.0
 70
    32
  0
VERTEX
  5
323B1
  8
0
 10
919.14259197949639
 20
340.96787538130093
 30
0.0
 70
    32
  0
VERTEX
  5
323B2
  8
0
 10
919.44445680537774
 20
339.1413901772512
 30
0.0
 70
    32
  0
VERTEX
  5
323B3
  8
0
 10
919.70914965615884
 20
337.30308733073019
 30
0.0
 70
    32
  0
VERTEX
  5
323B4
  8
0
 10
919.93644657526227
 20
335.4545222294737
 30
0.0
 70
    32
  0
VERTEX
  5
323B5
  8
0
 10
920.12615524680223
 20
333.59725894411082
 30
0.0
 70
    32
  0
VERTEX
  5
323B6
  8
0
 10
920.27811515830206
 20
331.73286890480131
 30
0.0
 70
    32
  0
VERTEX
  5
323B7
  8
0
 10
920.33989789910902
 20
330.79849410962021
 30
0.0
 70
    32
  0
VERTEX
  5
323B8
  8
0
 10
920.3921977365062
 20
329.86292957165091
 30
0.0
 70
    32
  0
VERTEX
  5
323B9
  8
0
 10
920.46830645616399
 20
327.98902310002222
 30
0.0
 70
    32
  0
VERTEX
  5
323BA
  8
0
 10
920.50637692170028
 20
326.11273500187281
 30
0.0
 70
    32
  0
VERTEX
  5
323BB
  8
0
 10
920.51113648498085
 20
325.1741939030635
 30
0.0
 70
    32
  0
SEQEND
  5
323BC
  8
0
  0
POLYLINE
  5
323BD
  8
0
 66
     1
 10
0.0
 20
0.0
 30
0.0
 70
     8
  0
VERTEX
  5
323BE
  8
0
 10
920.51113648498085
 20
325.1741939030635
 30
0.0
 70
    32
  0
VERTEX
  5
323BF
  8
0
 10
920.49841959132675
 20
323.6401384408523
 30
0.0
 70
    32
  0
VERTEX
  5
323C0
  8
0
 10
920.39672756320306
 20
320.57549518996848
 30
0.0
 70
    32
  0
VERTEX
  5
323C1
  8
0
 10
920.19357337788369
 20
317.52124712115761
 30
0.0
 70
    32
  0
VERTEX
  5
323C2
  8
0
 10
920.05408254904148
 20
316.00018012848881
 30
0.0
 70
    32
  0
VERTEX
  5
323C3
  8
0
 10
919.88941625761515
 20
314.4842982450441
 30
0.0
 70
    32
  0
VERTEX
  5
323C4
  8
0
 10
919.48494373790163
 20
311.47151346809
 30
0.0
 70
    32
  0
VERTEX
  5
323C5
  8
0
 10
918.98107011336197
 20
308.48970307473883
 30
0.0
 70
    32
  0
VERTEX
  5
323C6
  8
0
 10
918.37893437100047
 20
305.54560733302651
 30
0.0
 70
    32
  0
VERTEX
  5
323C7
  8
0
 10
917.67989761556964
 20
302.64588125846649
 30
0.0
 70
    32
  0
VERTEX
  5
323C8
  8
0
 10
916.88553999284602
 20
299.79707957064102
 30
0.0
 70
    32
  0
VERTEX
  5
323C9
  8
0
 10
916.4531686768496
 20
298.39379264546869
 30
0.0
 70
    32
  0
VERTEX
  5
323CA
  8
0
 10
915.99765711777036
 20
297.00564187650929
 30
0.0
 70
    32
  0
VERTEX
  5
323CB
  8
0
 10
915.01825601552991
 20
294.27787811392233
 30
0.0
 70
    32
  0
VERTEX
  5
323CC
  8
0
 10
913.94955058475546
 20
291.61995428825088
 30
0.0
 70
    32
  0
VERTEX
  5
323CD
  8
0
 10
912.79395659308545
 20
289.03787853436779
 30
0.0
 70
    32
  0
VERTEX
  5
323CE
  8
0
 10
911.55408621642073
 20
286.5374875354874
 30
0.0
 70
    32
  0
VERTEX
  5
323CF
  8
0
 10
910.23274213419427
 20
284.12443332956809
 30
0.0
 70
    32
  0
VERTEX
  5
323D0
  8
0
 10
909.54244383114474
 20
282.95237014371969
 30
0.0
 70
    32
  0
VERTEX
  5
323D1
  8
0
 10
908.83291119403111
 20
281.80417053309839
 30
0.0
 70
    32
  0
VERTEX
  5
323D2
  8
0
 10
907.35775766008271
 20
279.58194401114321
 30
0.0
 70
    32
  0
VERTEX
  5
323D3
  8
0
 10
905.81061606034007
 20
277.46277702152929
 30
0.0
 70
    32
  0
VERTEX
  5
323D4
  8
0
 10
905.01113648498085
 20
276.44334721863652
 30
0.0
 70
    32
  0
SEQEND
  5
323D5
  8
0
  0
LINE
  5
323D6
  8
0
 10
846.01113648498085
 20
259.09089100163601
 30
0.0
 11
846.01113648498085
 21
373.9044111142062
 31
0.0
  0
LINE
  5
323D7
  8
0
 10
861.68965898268004
 20
386.59089100163601
 30
0.0
 11
889.33261398728155
 21
386.59089100163601
 31
0.0
  0
LINE
  5
323D8
  8
0
 10
909.51113648498085
 20
277.60720501423748
 30
0.0
 11
909.51113648498085
 21
259.09089100163601
 31
0.0
  0
LINE
  5
323D9
  8
0
 10
905.01113648498085
 20
373.9044111142062
 30
0.0
 11
905.01113648498085
 21
259.09089100163601
 31
0.0
  0
LINE
  5
323DB
  8
0
 10
903.51788084348652
 20
375.67607643591282
 30
0.0
 11
847.49645276583749
 21
375.67607643591327
 31
0.0
  0
POLYLINE
  5
323E1
  8
0
 66
     1
 10
0.0
 20
0.0
 30
0.0
 70
     8
  0
VERTEX
  5
323E2
  8
0
 10
875.51113648498085
 20
393.29089100163583
 30
0.0
 70
    32
  0
VERTEX
  5
323E3
  8
0
 10
875.85656318810561
 20
393.28908983487651
 30
0.0
 70
    32
  0
VERTEX
  5
323E4
  8
0
 10
876.54734352412288
 20
393.27468107232062
 30
0.0
 70
    32
  0
VERTEX
  5
323E5
  8
0
 10
877.23790466489572
 20
393.24586659518269
 30
0.0
 70
    32
  0
VERTEX
  5
323E6
  8
0
 10
877.58305738483432
 20
393.22605899942261
 30
0.0
 70
    32
  0
VERTEX
  5
323E7
  8
0
 10
877.92810053178334
 20
393.20265249876638
 30
0.0
 70
    32
  0
VERTEX
  5
323E8
  8
0
 10
878.61778512341255
 20
393.145047924415
 30
0.0
 70
    32
  0
VERTEX
  5
323E9
  8
0
 10
879.30681254656247
 20
393.07306505757828
 30
0.0
 70
    32
  0
VERTEX
  5
323EA
  8
0
 10
879.99503704702681
 20
392.98671912523469
 30
0.0
 70
    32
  0
VERTEX
  5
323EB
  8
0
 10
880.68231304044923
 20
392.88602839266929
 30
0.0
 70
    32
  0
VERTEX
  5
323EC
  8
0
 10
881.36849514311325
 20
392.77101415961221
 30
0.0
 70
    32
  0
VERTEX
  5
323ED
  8
0
 10
881.71113061543292
 20
392.70814321519953
 30
0.0
 70
    32
  0
VERTEX
  5
323EE
  8
0
 10
882.05343820270275
 20
392.6417007557306
 30
0.0
 70
    32
  0
VERTEX
  5
323EF
  8
0
 10
882.73699732900138
 20
392.49811553548352
 30
0.0
 70
    32
  0
VERTEX
  5
323F0
  8
0
 10
883.41902792454857
 20
392.34028887233529
 30
0.0
 70
    32
  0
VERTEX
  5
323F1
  8
0
 10
884.09938571521786
 20
392.16825415233012
 30
0.0
 70
    32
  0
VERTEX
  5
323F2
  8
0
 10
884.77792678074729
 20
391.98204776702869
 30
0.0
 70
    32
  0
VERTEX
  5
323F3
  8
0
 10
885.45450758517302
 20
391.78170910581321
 30
0.0
 70
    32
  0
VERTEX
  5
323F4
  8
0
 10
885.79201814704084
 20
391.67625329859771
 30
0.0
 70
    32
  0
VERTEX
  5
323F5
  8
0
 10
886.12898500719973
 20
391.56728054755149
 30
0.0
 70
    32
  0
VERTEX
  5
323F6
  8
0
 10
886.80121637047444
 20
391.33880745163378
 30
0.0
 70
    32
  0
VERTEX
  5
323F7
  8
0
 10
887.47105947376349
 20
391.09633814837889
 30
0.0
 70
    32
  0
VERTEX
  5
323F8
  8
0
 10
887.80504112735071
 20
390.96987083208433
 30
0.0
 70
    32
  0
VERTEX
  5
323F9
  8
0
 10
888.13837262104062
 20
390.83992392880867
 30
0.0
 70
    32
  0
VERTEX
  5
323FA
  8
0
 10
888.80301465145294
 20
390.56961903379852
 30
0.0
 70
    32
  0
VERTEX
  5
323FB
  8
0
 10
889.46484496918765
 20
390.28548064260389
 30
0.0
 70
    32
  0
VERTEX
  5
323FC
  8
0
 10
889.79466196143414
 20
390.13824255495462
 30
0.0
 70
    32
  0
VERTEX
  5
323FD
  8
0
 10
890.12372357321055
 20
389.9875688607658
 30
0.0
 70
    32
  0
VERTEX
  5
323FE
  8
0
 10
890.77951108688114
 20
389.67594670739339
 30
0.0
 70
    32
  0
VERTEX
  5
323FF
  8
0
 10
891.43206878743513
 20
389.3506801018371
 30
0.0
 70
    32
  0
VERTEX
  5
32400
  8
0
 10
892.08125863533314
 20
389.01183784973949
 30
0.0
 70
    32
  0
VERTEX
  5
32401
  8
0
 10
892.7269433034561
 20
388.65949162848568
 30
0.0
 70
    32
  0
VERTEX
  5
32402
  8
0
 10
893.36898620615921
 20
388.29371597203732
 30
0.0
 70
    32
  0
VERTEX
  5
32403
  8
0
 10
893.68859952232276
 20
388.10581617470552
 30
0.0
 70
    32
  0
VERTEX
  5
32404
  8
0
 10
894.00725152815903
 20
387.91458825516662
 30
0.0
 70
    32
  0
VERTEX
  5
32405
  8
0
 10
894.641604253271
 20
387.52218867708922
 30
0.0
 70
    32
  0
VERTEX
  5
32406
  8
0
 10
895.27191019296436
 20
387.11660024450021
 30
0.0
 70
    32
  0
VERTEX
  5
32407
  8
0
 10
895.89803601474887
 20
386.69790875401299
 30
0.0
 70
    32
  0
VERTEX
  5
32408
  8
0
 10
896.51984927038302
 20
386.26620277401207
 30
0.0
 70
    32
  0
VERTEX
  5
32409
  8
0
 10
897.13721842388713
 20
385.8215736259163
 30
0.0
 70
    32
  0
VERTEX
  5
3240A
  8
0
 10
897.44419561364521
 20
385.59444214981698
 30
0.0
 70
    32
  0
VERTEX
  5
3240B
  8
0
 10
897.75001287936914
 20
385.36411536486139
 30
0.0
 70
    32
  0
VERTEX
  5
3240C
  8
0
 10
898.35810300865148
 20
384.89392475980588
 30
0.0
 70
    32
  0
VERTEX
  5
3240D
  8
0
 10
898.9613601786931
 20
384.41110127305768
 30
0.0
 70
    32
  0
VERTEX
  5
3240E
  8
0
 10
899.55965677879703
 20
383.91574703923612
 30
0.0
 70
    32
  0
VERTEX
  5
3240F
  8
0
 10
900.15286624760574
 20
383.4079668436666
 30
0.0
 70
    32
  0
VERTEX
  5
32410
  8
0
 10
900.74086309987513
 20
382.8878681002148
 30
0.0
 70
    32
  0
VERTEX
  5
32411
  8
0
 10
901.03286788145476
 20
382.62323355302669
 30
0.0
 70
    32
  0
VERTEX
  5
32412
  8
0
 10
901.32352295301655
 20
382.35556082856419
 30
0.0
 70
    32
  0
VERTEX
  5
32413
  8
0
 10
901.90072255341136
 20
381.8111576309434
 30
0.0
 70
    32
  0
VERTEX
  5
32414
  8
0
 10
902.47233980248166
 20
381.25477366830683
 30
0.0
 70
    32
  0
VERTEX
  5
32415
  8
0
 10
903.0382537825152
 20
380.68652663597322
 30
0.0
 70
    32
  0
VERTEX
  5
32416
  8
0
 10
903.59834478225093
 20
380.10653673872997
 30
0.0
 70
    32
  0
VERTEX
  5
32417
  8
0
 10
904.15249432219753
 20
379.51492666540389
 30
0.0
 70
    32
  0
VERTEX
  5
32418
  8
0
 10
904.42730436289548
 20
379.21480307582209
 30
0.0
 70
    32
  0
VERTEX
  5
32419
  8
0
 10
904.70058517969846
 20
378.91182156291052
 30
0.0
 70
    32
  0
VERTEX
  5
3241A
  8
0
 10
905.2425014137234
 20
378.29734900977792
 30
0.0
 70
    32
  0
VERTEX
  5
3241B
  8
0
 10
905.77812838940372
 20
377.6716389891626
 30
0.0
 70
    32
  0
VERTEX
  5
3241C
  8
0
 10
906.30735280227054
 20
377.03482386135011
 30
0.0
 70
    32
  0
VERTEX
  5
3241D
  8
0
 10
906.8300627022345
 20
376.38703833575801
 30
0.0
 70
    32
  0
VERTEX
  5
3241E
  8
0
 10
907.3461475172553
 20
375.7284194424401
 30
0.0
 70
    32
  0
VERTEX
  5
3241F
  8
0
 10
907.6016713467252
 20
375.39509093220107
 30
0.0
 70
    32
  0
VERTEX
  5
32420
  8
0
 10
907.85549807674124
 20
375.05910650309852
 30
0.0
 70
    32
  0
VERTEX
  5
32421
  8
0
 10
908.35800663463851
 20
374.37924110161248
 30
0.0
 70
    32
  0
VERTEX
  5
32422
  8
0
 10
908.85356689222306
 20
373.68896705408901
 30
0.0
 70
    32
  0
VERTEX
  5
32423
  8
0
 10
909.09870859134196
 20
373.33997233349419
 30
0.0
 70
    32
  0
VERTEX
  5
32424
  8
0
 10
909.34207402058837
 20
372.98843037843972
 30
0.0
 70
    32
  0
VERTEX
  5
32425
  8
0
 10
909.82342468281956
 20
372.2777792634925
 30
0.0
 70
    32
  0
VERTEX
  5
32426
  8
0
 10
910.29751705585124
 20
371.55716403764558
 30
0.0
 70
    32
  0
VERTEX
  5
32427
  8
0
 10
910.53180998346215
 20
371.19316743798117
 30
0.0
 70
    32
  0
VERTEX
  5
32428
  8
0
 10
910.76425085201197
 20
370.82673713706657
 30
0.0
 70
    32
  0
VERTEX
  5
32429
  8
0
 10
911.22352734023207
 20
370.0866530734466
 30
0.0
 70
    32
  0
VERTEX
  5
3242A
  8
0
 10
911.67524936693474
 20
369.33706840131532
 30
0.0
 70
    32
  0
VERTEX
  5
3242B
  8
0
 10
913.19542014881415
 20
366.64101176814478
 30
0.0
 70
    32
  0
VERTEX
  5
3242C
  8
0
 10
915.57223016109299
 20
361.77326857600559
 30
0.0
 70
    32
  0
VERTEX
  5
3242D
  8
0
 10
917.64415106094657
 20
356.62698432647989
 30
0.0
 70
    32
  0
VERTEX
  5
3242E
  8
0
 10
919.39541427926736
 20
351.24132535011807
 30
0.0
 70
    32
  0
VERTEX
  5
3242F
  8
0
 10
920.81269164552123
 20
345.65727976367998
 30
0.0
 70
    32
  0
VERTEX
  5
32430
  8
0
 10
921.39261323371193
 20
342.80409240165358
 30
0.0
 70
    32
  0
VERTEX
  5
32431
  8
0
 10
921.88519682317735
 20
339.91734552581738
 30
0.0
 70
    32
  0
VERTEX
  5
32432
  8
0
 10
922.6047674002366
 20
334.06520700194687
 30
0.0
 70
    32
  0
VERTEX
  5
32433
  8
0
 10
922.96592701011923
 20
328.14540249985339
 30
0.0
 70
    32
  0
VERTEX
  5
32434
  8
0
 10
923.01113648498085
 20
325.1741939030635
 30
0.0
 70
    32
  0
SEQEND
  5
32435
  8
0
  0
POLYLINE
  5
32436
  8
0
 66
     1
 10
0.0
 20
0.0
 30
0.0
 70
     8
  0
VERTEX
  5
32437
  8
0
 10
923.01113648498085
 20
325.1741939030635
 30
0.0
 70
    32
  0
VERTEX
  5
32438
  8
0
 10
923.00018561856348
 20
323.71160934943458
 30
0.0
 70
    32
  0
VERTEX
  5
32439
  8
0
 10
922.91260898085056
 20
320.78913745848058
 30
0.0
 70
    32
  0
VERTEX
  5
3243A
  8
0
 10
922.73761720934272
 20
317.87475224238369
 30
0.0
 70
    32
  0
VERTEX
  5
3243B
  8
0
 10
922.61743521242158
 20
316.42227253671717
 30
0.0
 70
    32
  0
VERTEX
  5
3243C
  8
0
 10
922.47553301403696
 20
314.97382824670422
 30
0.0
 70
    32
  0
VERTEX
  5
3243D
  8
0
 10
922.12683971589013
 20
312.0917151925774
 30
0.0
 70
    32
  0
VERTEX
  5
3243E
  8
0
 10
921.6921803555033
 20
309.23372811105543
 30
0.0
 70
    32
  0
VERTEX
  5
3243F
  8
0
 10
921.17235650725877
 20
306.40513754142597
 30
0.0
 70
    32
  0
VERTEX
  5
32440
  8
0
 10
920.56832680110892
 20
303.61115981158167
 30
0.0
 70
    32
  0
VERTEX
  5
32441
  8
0
 10
919.88120515471837
 20
300.85694741835869
 30
0.0
 70
    32
  0
VERTEX
  5
32442
  8
0
 10
919.50687491496956
 20
299.49634358337062
 30
0.0
 70
    32
  0
VERTEX
  5
32443
  8
0
 10
919.11225871924307
 20
298.14757952559239
 30
0.0
 70
    32
  0
VERTEX
  5
32444
  8
0
 10
918.26290554252034
 20
295.48805259740902
 30
0.0
 70
    32
  0
VERTEX
  5
32445
  8
0
 10
917.33471195398386
 20
292.8832711840268
 30
0.0
 70
    32
  0
VERTEX
  5
32446
  8
0
 10
916.32938967612699
 20
290.33803887705881
 30
0.0
 70
    32
  0
VERTEX
  5
32447
  8
0
 10
915.24879266784319
 20
287.85704945100127
 30
0.0
 70
    32
  0
VERTEX
  5
32448
  8
0
 10
914.09491370545413
 20
285.44487820723589
 30
0.0
 70
    32
  0
VERTEX
  5
32449
  8
0
 10
913.49115329271888
 20
284.26599470925061
 30
0.0
 70
    32
  0
VERTEX
  5
3244A
  8
0
 10
912.86988070774805
 20
283.10597353651752
 30
0.0
 70
    32
  0
VERTEX
  5
3244B
  8
0
 10
911.57595281178874
 20
280.84464871550108
 30
0.0
 70
    32
  0
VERTEX
  5
3244C
  8
0
 10
910.215516206742
 20
278.66507395243889
 30
0.0
 70
    32
  0
VERTEX
  5
3244D
  8
0
 10
909.51113648498085
 20
277.60720501423748
 30
0.0
 70
    32
  0
SEQEND
  5
3244E
  8
0
  0
POLYLINE
  5
3244F
  8
0
 66
     1
 10
0.0
 20
0.0
 30
0.0
 70
     8
  0
VERTEX
  5
32450
  8
0
 10
841.51113648498085
 20
277.60720501423748
 30
0.0
 70
    32
  0
VERTEX
  5
32451
  8
0
 10
840.80675676321982
 20
278.66507395243889
 30
0.0
 70
    32
  0
VERTEX
  5
32452
  8
0
 10
839.44632015817285
 20
280.84464871550108
 30
0.0
 70
    32
  0
VERTEX
  5
32453
  8
0
 10
838.15239226221365
 20
283.10597353651752
 30
0.0
 70
    32
  0
VERTEX
  5
32454
  8
0
 10
837.53111967724271
 20
284.26599470925061
 30
0.0
 70
    32
  0
VERTEX
  5
32455
  8
0
 10
836.92735926450769
 20
285.44487820723589
 30
0.0
 70
    32
  0
VERTEX
  5
32456
  8
0
 10
835.7734803021184
 20
287.85704945100127
 30
0.0
 70
    32
  0
VERTEX
  5
32457
  8
0
 10
834.69288329383471
 20
290.33803887705881
 30
0.0
 70
    32
  0
VERTEX
  5
32458
  8
0
 10
833.68756101597774
 20
292.8832711840268
 30
0.0
 70
    32
  0
VERTEX
  5
32459
  8
0
 10
832.75936742744125
 20
295.48805259740902
 30
0.0
 70
    32
  0
VERTEX
  5
3245A
  8
0
 10
831.91001425071875
 20
298.14757952559239
 30
0.0
 70
    32
  0
VERTEX
  5
3245B
  8
0
 10
831.51539805499203
 20
299.49634358337062
 30
0.0
 70
    32
  0
VERTEX
  5
3245C
  8
0
 10
831.14106781524345
 20
300.85694741835869
 30
0.0
 70
    32
  0
VERTEX
  5
3245D
  8
0
 10
830.45394616885267
 20
303.61115981158167
 30
0.0
 70
    32
  0
VERTEX
  5
3245E
  8
0
 10
829.84991646270282
 20
306.40513754142597
 30
0.0
 70
    32
  0
VERTEX
  5
3245F
  8
0
 10
829.33009261445829
 20
309.23372811105543
 30
0.0
 70
    32
  0
VERTEX
  5
32460
  8
0
 10
828.89543325407146
 20
312.0917151925774
 30
0.0
 70
    32
  0
VERTEX
  5
32461
  8
0
 10
828.54673995592475
 20
314.97382824670422
 30
0.0
 70
    32
  0
VERTEX
  5
32462
  8
0
 10
828.40483775754001
 20
316.42227253671717
 30
0.0
 70
    32
  0
VERTEX
  5
32463
  8
0
 10
828.28465576061888
 20
317.87475224238369
 30
0.0
 70
    32
  0
VERTEX
  5
32464
  8
0
 10
828.10966398911125
 20
320.78913745848058
 30
0.0
 70
    32
  0
VERTEX
  5
32465
  8
0
 10
828.02208735139811
 20
323.71160934943458
 30
0.0
 70
    32
  0
VERTEX
  5
32466
  8
0
 10
828.01113648498085
 20
325.1741939030635
 30
0.0
 70
    32
  0
SEQEND
  5
32467
  8
0
  0
POLYLINE
  5
32468
  8
0
 66
     1
 10
0.0
 20
0.0
 30
0.0
 70
     8
  0
VERTEX
  5
32469
  8
0
 10
828.01113648498085
 20
325.1741939030635
 30
0.0
 70
    32
  0
VERTEX
  5
3246A
  8
0
 10
828.05634595984236
 20
328.14540249985339
 30
0.0
 70
    32
  0
VERTEX
  5
3246B
  8
0
 10
828.41750556972499
 20
334.06520700194687
 30
0.0
 70
    32
  0
VERTEX
  5
3246C
  8
0
 10
829.13707614678424
 20
339.91734552581738
 30
0.0
 70
    32
  0
VERTEX
  5
3246D
  8
0
 10
829.62965973624966
 20
342.80409240165358
 30
0.0
 70
    32
  0
VERTEX
  5
3246E
  8
0
 10
830.20958132444036
 20
345.65727976367998
 30
0.0
 70
    32
  0
VERTEX
  5
3246F
  8
0
 10
831.62685869069446
 20
351.24132535011807
 30
0.0
 70
    32
  0
VERTEX
  5
32470
  8
0
 10
833.37812190901525
 20
356.62698432647989
 30
0.0
 70
    32
  0
VERTEX
  5
32471
  8
0
 10
835.4500428088686
 20
361.77326857600559
 30
0.0
 70
    32
  0
VERTEX
  5
32472
  8
0
 10
837.82685282114744
 20
366.64101176814478
 30
0.0
 70
    32
  0
VERTEX
  5
32473
  8
0
 10
839.34702360302708
 20
369.33706840131532
 30
0.0
 70
    32
  0
VERTEX
  5
32474
  8
0
 10
839.79874562972975
 20
370.08665307344609
 30
0.0
 70
    32
  0
VERTEX
  5
32475
  8
0
 10
840.25802211794962
 20
370.82673713706657
 30
0.0
 70
    32
  0
VERTEX
  5
32476
  8
0
 10
840.49046298649955
 20
371.19316743798117
 30
0.0
 70
    32
  0
VERTEX
  5
32477
  8
0
 10
840.72475591411057
 20
371.55716403764558
 30
0.0
 70
    32
  0
VERTEX
  5
32478
  8
0
 10
841.19884828714203
 20
372.2777792634925
 30
0.0
 70
    32
  0
VERTEX
  5
32479
  8
0
 10
841.68019894937322
 20
372.98843037843972
 30
0.0
 70
    32
  0
VERTEX
  5
3247A
  8
0
 10
841.92356437861963
 20
373.33997233349419
 30
0.0
 70
    32
  0
VERTEX
  5
3247B
  8
0
 10
842.16870607773853
 20
373.68896705408901
 30
0.0
 70
    32
  0
VERTEX
  5
3247C
  8
0
 10
842.66426633532308
 20
374.37924110161248
 30
0.0
 70
    32
  0
VERTEX
  5
3247D
  8
0
 10
843.16677489322035
 20
375.05910650309852
 30
0.0
 70
    32
  0
VERTEX
  5
3247E
  8
0
 10
843.42060162323753
 20
375.39509093220107
 30
0.0
 70
    32
  0
VERTEX
  5
3247F
  8
0
 10
843.6761254527064
 20
375.7284194424401
 30
0.0
 70
    32
  0
VERTEX
  5
32480
  8
0
 10
844.19221026772721
 20
376.38703833575801
 30
0.0
 70
    32
  0
VERTEX
  5
32481
  8
0
 10
844.71492016769105
 20
377.03482386135011
 30
0.0
 70
    32
  0
VERTEX
  5
32482
  8
0
 10
845.24414458055787
 20
377.6716389891626
 30
0.0
 70
    32
  0
VERTEX
  5
32483
  8
0
 10
845.7797715562383
 20
378.29734900977792
 30
0.0
 70
    32
  0
VERTEX
  5
32484
  8
0
 10
846.32168779026335
 20
378.91182156291052
 30
0.0
 70
    32
  0
VERTEX
  5
32485
  8
0
 10
846.59496860706611
 20
379.21480307582209
 30
0.0
 70
    32
  0
VERTEX
  5
32486
  8
0
 10
846.86977864776316
 20
379.51492666540389
 30
0.0
 70
    32
  0
VERTEX
  5
32487
  8
0
 10
847.42392818771066
 20
380.10653673872957
 30
0.0
 70
    32
  0
VERTEX
  5
32488
  8
0
 10
847.98401918744639
 20
380.68652663597322
 30
0.0
 70
    32
  0
VERTEX
  5
32489
  8
0
 10
848.54993316748005
 20
381.25477366830683
 30
0.0
 70
    32
  0
VERTEX
  5
3248A
  8
0
 10
849.12155041654933
 20
381.8111576309434
 30
0.0
 70
    32
  0
VERTEX
  5
3248B
  8
0
 10
849.69875001694436
 20
382.35556082856419
 30
0.0
 70
    32
  0
VERTEX
  5
3248C
  8
0
 10
849.98940508850671
 20
382.62323355302669
 30
0.0
 70
    32
  0
VERTEX
  5
3248D
  8
0
 10
850.28140987008646
 20
382.8878681002148
 30
0.0
 70
    32
  0
VERTEX
  5
3248E
  8
0
 10
850.86940672235596
 20
383.4079668436666
 30
0.0
 70
    32
  0
VERTEX
  5
3248F
  8
0
 10
851.46261619116456
 20
383.91574703923612
 30
0.0
 70
    32
  0
VERTEX
  5
32490
  8
0
 10
852.06091279126849
 20
384.41110127305768
 30
0.0
 70
    32
  0
VERTEX
  5
32491
  8
0
 10
852.66416996131011
 20
384.89392475980588
 30
0.0
 70
    32
  0
VERTEX
  5
32492
  8
0
 10
853.27226009059268
 20
385.36411536486139
 30
0.0
 70
    32
  0
VERTEX
  5
32493
  8
0
 10
853.57807735631638
 20
385.59444214981698
 30
0.0
 70
    32
  0
VERTEX
  5
32494
  8
0
 10
853.88505454607446
 20
385.8215736259163
 30
0.0
 70
    32
  0
VERTEX
  5
32495
  8
0
 10
854.50242369957857
 20
386.26620277401207
 30
0.0
 70
    32
  0
VERTEX
  5
32496
  8
0
 10
855.12423695521272
 20
386.69790875401299
 30
0.0
 70
    32
  0
VERTEX
  5
32497
  8
0
 10
855.75036277699746
 20
387.11660024450021
 30
0.0
 70
    32
  0
VERTEX
  5
32498
  8
0
 10
856.38066871669071
 20
387.52218867708922
 30
0.0
 70
    32
  0
VERTEX
  5
32499
  8
0
 10
857.01502144180256
 20
387.91458825516662
 30
0.0
 70
    32
  0
VERTEX
  5
3249A
  8
0
 10
857.33367344763883
 20
388.10581617470552
 30
0.0
 70
    32
  0
VERTEX
  5
3249B
  8
0
 10
857.6532867638025
 20
388.29371597203732
 30
0.0
 70
    32
  0
VERTEX
  5
3249C
  8
0
 10
858.29532966650549
 20
388.65949162848568
 30
0.0
 70
    32
  0
VERTEX
  5
3249D
  8
0
 10
858.94101433462845
 20
389.01183784973949
 30
0.0
 70
    32
  0
VERTEX
  5
3249E
  8
0
 10
859.59020418252646
 20
389.3506801018371
 30
0.0
 70
    32
  0
VERTEX
  5
3249F
  8
0
 10
860.24276188308068
 20
389.67594670739339
 30
0.0
 70
    32
  0
VERTEX
  5
324A0
  8
0
 10
860.89854939675115
 20
389.9875688607658
 30
0.0
 70
    32
  0
VERTEX
  5
324A1
  8
0
 10
861.22761100852767
 20
390.13824255495462
 30
0.0
 70
    32
  0
VERTEX
  5
324A2
  8
0
 10
861.55742800077405
 20
390.28548064260389
 30
0.0
 70
    32
  0
VERTEX
  5
324A3
  8
0
 10
862.21925831850865
 20
390.56961903379852
 30
0.0
 70
    32
  0
VERTEX
  5
324A4
  8
0
 10
862.88390034892109
 20
390.83992392880867
 30
0.0
 70
    32
  0
VERTEX
  5
324A5
  8
0
 10
863.217231842611
 20
390.96987083208433
 30
0.0
 70
    32
  0
VERTEX
  5
324A6
  8
0
 10
863.55121349619833
 20
391.09633814837889
 30
0.0
 70
    32
  0
VERTEX
  5
324A7
  8
0
 10
864.22105659948738
 20
391.33880745163378
 30
0.0
 70
    32
  0
VERTEX
  5
324A8
  8
0
 10
864.89328796276186
 20
391.56728054755149
 30
0.0
 70
    32
  0
VERTEX
  5
324A9
  8
0
 10
865.23025482292076
 20
391.67625329859771
 30
0.0
 70
    32
  0
VERTEX
  5
324AA
  8
0
 10
865.5677653847888
 20
391.78170910581321
 30
0.0
 70
    32
  0
VERTEX
  5
324AB
  8
0
 10
866.2443461892143
 20
391.98204776702869
 30
0.0
 70
    32
  0
VERTEX
  5
324AC
  8
0
 10
866.92288725474373
 20
392.16825415233012
 30
0.0
 70
    32
  0
VERTEX
  5
324AD
  8
0
 10
867.60324504541313
 20
392.34028887233529
 30
0.0
 70
    32
  0
VERTEX
  5
324AE
  8
0
 10
868.28527564096021
 20
392.49811553548352
 30
0.0
 70
    32
  0
VERTEX
  5
324AF
  8
0
 10
868.96883476725907
 20
392.6417007557306
 30
0.0
 70
    32
  0
VERTEX
  5
324B0
  8
0
 10
869.31114235452867
 20
392.70814321519953
 30
0.0
 70
    32
  0
VERTEX
  5
324B1
  8
0
 10
869.65377782684845
 20
392.77101415961221
 30
0.0
 70
    32
  0
VERTEX
  5
324B2
  8
0
 10
870.33995992951259
 20
392.88602839266929
 30
0.0
 70
    32
  0
VERTEX
  5
324B3
  8
0
 10
871.02723592293478
 20
392.98671912523469
 30
0.0
 70
    32
  0
VERTEX
  5
324B4
  8
0
 10
871.71546042339935
 20
393.07306505757828
 30
0.0
 70
    32
  0
VERTEX
  5
324B5
  8
0
 10
872.40448784654927
 20
393.145047924415
 30
0.0
 70
    32
  0
VERTEX
  5
324B6
  8
0
 10
873.09417243817825
 20
393.20265249876638
 30
0.0
 70
    32
  0
VERTEX
  5
324B7
  8
0
 10
873.43921558512739
 20
393.22605899942261
 30
0.0
 70
    32
  0
VERTEX
  5
324B8
  8
0
 10
873.78436830506587
 20
393.24586659518269
 30
0.0
 70
    32
  0
VERTEX
  5
324B9
  8
0
 10
874.47492944583882
 20
393.27468107232062
 30
0.0
 70
    32
  0
VERTEX
  5
324BA
  8
0
 10
875.16570978185609
 20
393.28908983487651
 30
0.0
 70
    32
  0
VERTEX
  5
324BB
  8
0
 10
875.51113648498085
 20
393.29089100163583
 30
0.0
 70
    32
  0
SEQEND
  5
324BC
  8
0
  0
LINE
  5
324BD
  8
0
 10
862.76113648498085
 20
405.0908910016359
 30
0.0
 11
888.26113648498074
 21
405.0908910016359
 31
0.0
  0
LINE
  5
324BE
  8
0
 10
835.16113648498049
 20
401.79089100163583
 30
0.0
 11
915.86113648498133
 21
401.79089100163583
 31
0.0
  0
LINE
  5
324C0
  8
0
 10
828.51113648498074
 20
398.29089100163583
 30
0.0
 11
922.51113648498085
 21
398.29089100163583
 31
0.0
  0
LINE
  5
324C2
  8
0
 10
824.51113648498085
 20
393.29089100163583
 30
0.0
 11
926.51113648498085
 21
393.29089100163583
 31
0.0
  0
LINE
  5
324FB
  8
0
 10
841.51113648498085
 20
274.90589100163612
 30
0.0
 11
840.91113648498037
 21
274.90589100163612
 31
0.0
  0
LINE
  5
324FC
  8
0
 10
840.91113648498037
 20
263.2758910016359
 30
0.0
 11
841.51113648498085
 21
263.2758910016359
 31
0.0
  0
LINE
  5
324FD
  8
0
 10
918.74413648498103
 20
273.09089100163601
 30
0.0
 11
917.51113648498085
 21
273.09089100163601
 31
0.0
  0
LINE
  5
324FE
  8
0
 10
917.51113648498085
 20
265.09089100163601
 30
0.0
 11
918.74413648498103
 21
265.09089100163601
 31
0.0
  0
LINE
  5
324FF
  8
0
 10
919.51113648498074
 20
272.32389100163618
 30
0.0
 11
918.74413648498103
 21
273.09089100163601
 31
0.0
  0
LINE
  5
32500
  8
0
 10
918.74413648498103
 20
265.09089100163601
 30
0.0
 11
919.51113648498074
 21
265.85789100163589
 31
0.0
  0
LINE
  5
32501
  8
0
 10
917.51113648498085
 20
274.90589100163612
 30
0.0
 11
915.01113648498085
 21
274.90589100163612
 31
0.0
  0
LINE
  5
32502
  8
0
 10
915.01113648498085
 20
263.2758910016359
 30
0.0
 11
917.51113648498085
 21
263.2758910016359
 31
0.0
  0
LINE
  5
32503
  8
0
 10
905.01113648498085
 20
279.09089100163601
 30
0.0
 11
900.51113648498085
 21
279.09089100163601
 31
0.0
  0
LINE
  5
32504
  8
0
 10
850.51113648498085
 20
279.09089100163601
 30
0.0
 11
846.01113648498085
 21
279.09089100163601
 31
0.0
  0
LINE
  5
32505
  8
0
 10
846.01113648498085
 20
259.09089100163601
 30
0.0
 11
850.51113648498085
 21
259.09089100163601
 31
0.0
  0
LINE
  5
32506
  8
0
 10
900.51113648498085
 20
259.09089100163601
 30
0.0
 11
905.01113648498085
 21
259.09089100163601
 31
0.0
  0
LINE
  5
32507
  8
0
 10
918.74413648498103
 20
265.09089100163601
 30
0.0
 11
918.74413648498103
 21
273.09089100163601
 31
0.0
  0
LINE
  5
32508
  8
0
 10
919.51113648498074
 20
265.85789100163589
 30
0.0
 11
919.51113648498074
 21
272.32389100163618
 31
0.0
  0
LINE
  5
32509
  8
0
 10
836.21113648498056
 20
262.8325576683028
 30
0.0
 11
836.21113648498056
 21
275.34922433496922
 31
0.0
  0
LINE
  5
3250A
  8
0
 10
840.91113648498037
 20
262.8325576683028
 30
0.0
 11
840.91113648498037
 21
275.34922433496922
 31
0.0
  0
LINE
  5
3250B
  8
0
 10
836.21113648498056
 20
262.8325576683028
 30
0.0
 11
840.91113648498037
 21
262.8325576683028
 31
0.0
  0
POLYLINE
  5
3250C
  8
0
 66
     1
 10
0.0
 20
0.0
 30
0.0
 70
     8
  0
VERTEX
  5
3250D
  8
0
 10
840.91113648498037
 20
272.22005766830262
 30
0.0
 70
    32
  0
VERTEX
  5
3250E
  8
0
 10
840.9039463513609
 20
271.71761991638732
 30
0.0
 70
    32
  0
VERTEX
  5
3250F
  8
0
 10
840.84717176757658
 20
270.70885937247482
 30
0.0
 70
    32
  0
VERTEX
  5
32510
  8
0
 10
840.73256142882383
 20
269.65306947975068
 30
0.0
 70
    32
  0
VERTEX
  5
32511
  8
0
 10
840.65171677556555
 20
269.09089100163601
 30
0.0
 70
    32
  0
SEQEND
  5
32512
  8
0
  0
POLYLINE
  5
32513
  8
0
 66
     1
 10
0.0
 20
0.0
 30
0.0
 70
     8
  0
VERTEX
  5
32514
  8
0
 10
836.47055619439652
 20
269.09089100163601
 30
0.0
 70
    32
  0
VERTEX
  5
32515
  8
0
 10
836.38971154113835
 20
269.65306947975068
 30
0.0
 70
    32
  0
VERTEX
  5
32516
  8
0
 10
836.27510120238549
 20
270.70885937247482
 30
0.0
 70
    32
  0
VERTEX
  5
32517
  8
0
 10
836.21832661860105
 20
271.71761991638732
 30
0.0
 70
    32
  0
VERTEX
  5
32518
  8
0
 10
836.21113648498056
 20
272.22005766830262
 30
0.0
 70
    32
  0
SEQEND
  5
32519
  8
0
  0
POLYLINE
  5
3251A
  8
0
 66
     1
 10
0.0
 20
0.0
 30
0.0
 70
     8
  0
VERTEX
  5
3251B
  8
0
 10
836.21113648498056
 20
272.22005766830262
 30
0.0
 70
    32
  0
VERTEX
  5
3251C
  8
0
 10
836.21832661860105
 20
272.72249542021842
 30
0.0
 70
    32
  0
VERTEX
  5
3251D
  8
0
 10
836.27510120238549
 20
273.73125596413053
 30
0.0
 70
    32
  0
VERTEX
  5
3251E
  8
0
 10
836.38971154113835
 20
274.7870458568546
 30
0.0
 70
    32
  0
VERTEX
  5
3251F
  8
0
 10
836.47055619439652
 20
275.34922433496922
 30
0.0
 70
    32
  0
SEQEND
  5
32520
  8
0
  0
POLYLINE
  5
32521
  8
0
 66
     1
 10
0.0
 20
0.0
 30
0.0
 70
     8
  0
VERTEX
  5
32522
  8
0
 10
840.65171677556555
 20
275.34922433496922
 30
0.0
 70
    32
  0
VERTEX
  5
32523
  8
0
 10
840.73256142882383
 20
274.7870458568546
 30
0.0
 70
    32
  0
VERTEX
  5
32524
  8
0
 10
840.84717176757658
 20
273.73125596413053
 30
0.0
 70
    32
  0
VERTEX
  5
32525
  8
0
 10
840.9039463513609
 20
272.72249542021842
 30
0.0
 70
    32
  0
VERTEX
  5
32526
  8
0
 10
840.91113648498037
 20
272.22005766830262
 30
0.0
 70
    32
  0
SEQEND
  5
32527
  8
0
  0
POLYLINE
  5
32528
  8
0
 66
     1
 10
0.0
 20
0.0
 30
0.0
 70
     8
  0
VERTEX
  5
32529
  8
0
 10
840.91113648498037
 20
265.9617243349694
 30
0.0
 70
    32
  0
VERTEX
  5
3252A
  8
0
 10
840.9039463513609
 20
265.45928658305371
 30
0.0
 70
    32
  0
VERTEX
  5
3252B
  8
0
 10
840.84717176757658
 20
264.45052603914161
 30
0.0
 70
    32
  0
VERTEX
  5
3252C
  8
0
 10
840.73256142882383
 20
263.39473614641747
 30
0.0
 70
    32
  0
VERTEX
  5
3252D
  8
0
 10
840.65171677556555
 20
262.8325576683028
 30
0.0
 70
    32
  0
SEQEND
  5
3252E
  8
0
  0
POLYLINE
  5
3252F
  8
0
 66
     1
 10
0.0
 20
0.0
 30
0.0
 70
     8
  0
VERTEX
  5
32530
  8
0
 10
836.47055619439652
 20
262.8325576683028
 30
0.0
 70
    32
  0
VERTEX
  5
32531
  8
0
 10
836.38971154113835
 20
263.39473614641747
 30
0.0
 70
    32
  0
VERTEX
  5
32532
  8
0
 10
836.27510120238549
 20
264.45052603914161
 30
0.0
 70
    32
  0
VERTEX
  5
32533
  8
0
 10
836.21832661860105
 20
265.45928658305371
 30
0.0
 70
    32
  0
VERTEX
  5
32534
  8
0
 10
836.21113648498056
 20
265.9617243349694
 30
0.0
 70
    32
  0
SEQEND
  5
32535
  8
0
  0
POLYLINE
  5
32536
  8
0
 66
     1
 10
0.0
 20
0.0
 30
0.0
 70
     8
  0
VERTEX
  5
32537
  8
0
 10
836.21113648498056
 20
265.9617243349694
 30
0.0
 70
    32
  0
VERTEX
  5
32538
  8
0
 10
836.21832661860105
 20
266.4641620868847
 30
0.0
 70
    32
  0
VERTEX
  5
32539
  8
0
 10
836.27510120238549
 20
267.4729226307972
 30
0.0
 70
    32
  0
VERTEX
  5
3253A
  8
0
 10
836.38971154113835
 20
268.52871252352128
 30
0.0
 70
    32
  0
VERTEX
  5
3253B
  8
0
 10
836.47055619439652
 20
269.09089100163601
 30
0.0
 70
    32
  0
SEQEND
  5
3253C
  8
0
  0
LINE
  5
3253D
  8
0
 10
836.47055619439652
 20
269.09089100163601
 30
0.0
 11
840.65171677556555
 21
269.09089100163601
 31
0.0
  0
POLYLINE
  5
3253E
  8
0
 66
     1
 10
0.0
 20
0.0
 30
0.0
 70
     8
  0
VERTEX
  5
3253F
  8
0
 10
840.65171677556555
 20
269.09089100163601
 30
0.0
 70
    32
  0
VERTEX
  5
32540
  8
0
 10
840.73256142882383
 20
268.52871252352128
 30
0.0
 70
    32
  0
VERTEX
  5
32541
  8
0
 10
840.84717176757658
 20
267.4729226307972
 30
0.0
 70
    32
  0
VERTEX
  5
32542
  8
0
 10
840.9039463513609
 20
266.4641620868847
 30
0.0
 70
    32
  0
VERTEX
  5
32543
  8
0
 10
840.91113648498037
 20
265.9617243349694
 30
0.0
 70
    32
  0
SEQEND
  5
32544
  8
0
  0
LINE
  5
32545
  8
0
 10
840.91113648498037
 20
275.34922433496922
 30
0.0
 11
836.21113648498056
 21
275.34922433496922
 31
0.0
  0
LINE
  5
32546
  8
0
 10
917.51113648498085
 20
263.2758910016359
 30
0.0
 11
917.51113648498085
 21
274.90589100163612
 31
0.0
  0
LINE
  5
32547
  8
0
 10
915.01113648498085
 20
262.8325576683028
 30
0.0
 11
915.01113648498085
 21
275.34922433496922
 31
0.0
  0
LINE
  5
32548
  8
0
 10
909.51113648498085
 20
262.8325576683028
 30
0.0
 11
915.01113648498085
 21
262.8325576683028
 31
0.0
  0
POLYLINE
  5
32549
  8
0
 66
     1
 10
0.0
 20
0.0
 30
0.0
 70
     8
  0
VERTEX
  5
3254A
  8
0
 10
915.01113648498085
 20
272.22005766830262
 30
0.0
 70
    32
  0
VERTEX
  5
3254B
  8
0
 10
915.00394635136115
 20
271.71761991638732
 30
0.0
 70
    32
  0
VERTEX
  5
3254C
  8
0
 10
914.94717176757695
 20
270.70885937247482
 30
0.0
 70
    32
  0
VERTEX
  5
3254D
  8
0
 10
914.83256142882317
 20
269.65306947975068
 30
0.0
 70
    32
  0
VERTEX
  5
3254E
  8
0
 10
914.75171677556489
 20
269.09089100163601
 30
0.0
 70
    32
  0
SEQEND
  5
3254F
  8
0
  0
POLYLINE
  5
32550
  8
0
 66
     1
 10
0.0
 20
0.0
 30
0.0
 70
     8
  0
VERTEX
  5
32551
  8
0
 10
909.77055619439659
 20
269.09089100163601
 30
0.0
 70
    32
  0
VERTEX
  5
32552
  8
0
 10
909.68971154114115
 20
269.65306947972982
 30
0.0
 70
    32
  0
VERTEX
  5
32553
  8
0
 10
909.5751012023901
 20
270.70885937241519
 30
0.0
 70
    32
  0
VERTEX
  5
32554
  8
0
 10
909.51832661860306
 20
271.71761991629
 30
0.0
 70
    32
  0
VERTEX
  5
32555
  8
0
 10
909.51113648498085
 20
272.22005766818529
 30
0.0
 70
    32
  0
SEQEND
  5
32556
  8
0
  0
POLYLINE
  5
32557
  8
0
 66
     1
 10
0.0
 20
0.0
 30
0.0
 70
     8
  0
VERTEX
  5
32558
  8
0
 10
909.51113648498085
 20
272.22005766830262
 30
0.0
 70
    32
  0
VERTEX
  5
32559
  8
0
 10
909.51832661860055
 20
272.72249542021842
 30
0.0
 70
    32
  0
VERTEX
  5
3255A
  8
0
 10
909.57510120238476
 20
273.73125596413053
 30
0.0
 70
    32
  0
VERTEX
  5
3255B
  8
0
 10
909.68971154113831
 20
274.7870458568546
 30
0.0
 70
    32
  0
VERTEX
  5
3255C
  8
0
 10
909.77055619439659
 20
275.34922433496922
 30
0.0
 70
    32
  0
SEQEND
  5
3255D
  8
0
  0
POLYLINE
  5
3255E
  8
0
 66
     1
 10
0.0
 20
0.0
 30
0.0
 70
     8
  0
VERTEX
  5
3255F
  8
0
 10
914.75171677556489
 20
275.34922433496922
 30
0.0
 70
    32
  0
VERTEX
  5
32560
  8
0
 10
914.83256142882317
 20
274.7870458568546
 30
0.0
 70
    32
  0
VERTEX
  5
32561
  8
0
 10
914.94717176757695
 20
273.73125596413053
 30
0.0
 70
    32
  0
VERTEX
  5
32562
  8
0
 10
915.00394635136115
 20
272.72249542021842
 30
0.0
 70
    32
  0
VERTEX
  5
32563
  8
0
 10
915.01113648498085
 20
272.22005766830262
 30
0.0
 70
    32
  0
SEQEND
  5
32564
  8
0
  0
POLYLINE
  5
32565
  8
0
 66
     1
 10
0.0
 20
0.0
 30
0.0
 70
     8
  0
VERTEX
  5
32566
  8
0
 10
915.01113648498085
 20
265.9617243349694
 30
0.0
 70
    32
  0
VERTEX
  5
32567
  8
0
 10
915.00394635136115
 20
265.45928658305371
 30
0.0
 70
    32
  0
VERTEX
  5
32568
  8
0
 10
914.94717176757695
 20
264.45052603914161
 30
0.0
 70
    32
  0
VERTEX
  5
32569
  8
0
 10
914.83256142882317
 20
263.39473614641747
 30
0.0
 70
    32
  0
VERTEX
  5
3256A
  8
0
 10
914.75171677556489
 20
262.8325576683028
 30
0.0
 70
    32
  0
SEQEND
  5
3256B
  8
0
  0
POLYLINE
  5
3256C
  8
0
 66
     1
 10
0.0
 20
0.0
 30
0.0
 70
     8
  0
VERTEX
  5
3256D
  8
0
 10
909.77055619439659
 20
262.8325576683028
 30
0.0
 70
    32
  0
VERTEX
  5
3256E
  8
0
 10
909.68971154114206
 20
263.3947361463874
 30
0.0
 70
    32
  0
VERTEX
  5
3256F
  8
0
 10
909.57510120239215
 20
264.45052603905702
 30
0.0
 70
    32
  0
VERTEX
  5
32570
  8
0
 10
909.51832661860487
 20
265.45928658291592
 30
0.0
 70
    32
  0
VERTEX
  5
32571
  8
0
 10
909.51113648498085
 20
265.96172433480302
 30
0.0
 70
    32
  0
SEQEND
  5
32572
  8
0
  0
POLYLINE
  5
32573
  8
0
 66
     1
 10
0.0
 20
0.0
 30
0.0
 70
     8
  0
VERTEX
  5
32574
  8
0
 10
909.51113648498085
 20
265.9617243349694
 30
0.0
 70
    32
  0
VERTEX
  5
32575
  8
0
 10
909.51832661860055
 20
266.4641620868847
 30
0.0
 70
    32
  0
VERTEX
  5
32576
  8
0
 10
909.57510120238476
 20
267.4729226307972
 30
0.0
 70
    32
  0
VERTEX
  5
32577
  8
0
 10
909.68971154113831
 20
268.52871252352128
 30
0.0
 70
    32
  0
VERTEX
  5
32578
  8
0
 10
909.77055619439659
 20
269.09089100163601
 30
0.0
 70
    32
  0
SEQEND
  5
32579
  8
0
  0
LINE
  5
3257A
  8
0
 10
909.77055619439659
 20
269.09089100163601
 30
0.0
 11
914.75171677556489
 21
269.09089100163601
 31
0.0
  0
POLYLINE
  5
3257B
  8
0
 66
     1
 10
0.0
 20
0.0
 30
0.0
 70
     8
  0
VERTEX
  5
3257C
  8
0
 10
914.75171677556489
 20
269.09089100163601
 30
0.0
 70
    32
  0
VERTEX
  5
3257D
  8
0
 10
914.83256142882317
 20
268.52871252352128
 30
0.0
 70
    32
  0
VERTEX
  5
3257E
  8
0
 10
914.94717176757695
 20
267.4729226307972
 30
0.0
 70
    32
  0
VERTEX
  5
3257F
  8
0
 10
915.00394635136115
 20
266.4641620868847
 30
0.0
 70
    32
  0
VERTEX
  5
32580
  8
0
 10
915.01113648498085
 20
265.9617243349694
 30
0.0
 70
    32
  0
SEQEND
  5
32581
  8
0
  0
LINE
  5
32582
  8
0
 10
915.01113648498085
 20
275.34922433496922
 30
0.0
 11
909.51113648498085
 21
275.34922433496922
 31
0.0
  0
LINE
  5
32583
  8
0
 10
846.01113648498085
 20
259.09089100163601
 30
0.0
 11
846.01113648498085
 21
263.37096052166999
 31
0.0
  0
LINE
  5
32584
  8
0
 10
905.01113648498085
 20
259.09089100163601
 30
0.0
 11
905.01113648498085
 21
263.37096052166999
 31
0.0
  0
LINE
  5
325B1
  8
0
 10
878.51113648498085
 20
369.09089100163601
 30
0.0
 11
872.51113648498085
 21
369.09089100163601
 31
0.0
  0
LINE
  5
325B2
  8
0
 10
872.51113648498085
 20
169.09089100163601
 30
0.0
 11
878.51113648498085
 21
169.09089100163601
 31
0.0
  0
ARC
  5
325B3
  8
0
 10
878.51113648498085
 20
169.39089100163619
 30
0.0
 40
0.3000000000000114
 50
270.0
 51
0.0
  0
ARC
  5
325B4
  8
0
 10
878.51113648498085
 20
368.79089100163583
 30
0.0
 40
0.3000000000000074
 50
0.0
 51
90.0
  0
LINE
  5
325B5
  8
0
 10
881.21113648498067
 20
368.79089100163583
 30
0.0
 11
878.81113648498092
 21
368.79089100163583
 31
0.0
  0
LINE
  5
325B6
  8
0
 10
878.81113648498092
 20
169.39089100163619
 30
0.0
 11
881.21113648498067
 21
169.39089100163619
 31
0.0
  0
ARC
  5
325B7
  8
0
 10
881.51113648498085
 20
169.39089100163619
 30
0.0
 40
0.3000000000000034
 50
180.0
 51
270.0
  0
ARC
  5
325B8
  8
0
 10
881.51113648498085
 20
368.79089100163583
 30
0.0
 40
0.3000000000000114
 50
90.0
 51
180.0
  0
LINE
  5
325B9
  8
0
 10
886.02473888549684
 20
369.09089100163601
 30
0.0
 11
881.51113648498085
 21
369.09089100163601
 31
0.0
  0
LINE
  5
325BA
  8
0
 10
881.51113648498085
 20
169.09089100163601
 30
0.0
 11
886.02473888549684
 21
169.09089100163601
 31
0.0
  0
ARC
  5
325BB
  8
0
 10
886.02473888549684
 20
170.09089100163601
 30
0.0
 40
1.0000000000000131
 50
270.0
 51
341.0000000000166
  0
ARC
  5
325BC
  8
0
 10
886.02473888549684
 20
368.09089100163601
 30
0.0
 40
1.0000000000000151
 50
18.999999999983391
 51
90.0
  0
LINE
  5
325BD
  8
0
 10
890.12780661265242
 20
359.2462705633493
 30
0.0
 11
886.97025746109648
 21
368.41645915609303
 31
0.0
  0
LINE
  5
325BE
  8
0
 10
886.97025746109648
 20
169.76532284717899
 30
0.0
 11
890.12780661265242
 21
178.93551143992269
 31
0.0
  0
ARC
  5
325BF
  8
0
 10
887.29125088585442
 20
179.912215903294
 30
0.0
 40
2.9999999999998721
 50
341.0000000000166
 51
0.0000008537736463
  0
ARC
  5
325C0
  8
0
 10
887.29125088585442
 20
358.26956609997791
 30
0.0
 40
2.999999999999869
 50
0.0
 51
18.999999999983391
  0
ARC
  5
325C1
  8
0
 10
891.12458421918745
 20
181.8303638074467
 30
0.0
 40
0.8333333333333374
 50
179.99999914622629
 51
0.0
  0
ARC
  5
325C2
  8
0
 10
891.12458421918745
 20
356.35141819582532
 30
0.0
 40
0.8333333333333322
 50
0.0
 51
179.99999914622629
  0
ARC
  5
325C3
  8
0
 10
892.79125088585431
 20
186.6707152702393
 30
0.0
 40
0.8333333333333322
 50
180.0
 51
0.0
  0
ARC
  5
325C4
  8
0
 10
892.79125088585431
 20
351.51106673303269
 30
0.0
 40
0.8333333333333322
 50
0.0
 51
180.0
  0
LINE
  5
325C5
  8
0
 10
900.34769221177885
 20
329.56556763776331
 30
0.0
 11
893.62458421918745
 21
349.09089100163601
 31
0.0
  0
LINE
  5
325C6
  8
0
 10
893.62458421918745
 20
189.09089100163601
 30
0.0
 11
900.34769221177885
 21
208.6162143655088
 31
0.0
  0
ARC
  5
325C7
  8
0
 10
897.51113648498085
 20
209.5929188288801
 30
0.0
 40
2.9999999999999178
 50
341.0000000000166
 51
0.0
  0
ARC
  5
325C8
  8
0
 10
897.51113648498085
 20
328.58886317439192
 30
0.0
 40
2.9999999999999138
 50
0.0
 51
18.999999999983391
  0
ARC
  5
325C9
  8
0
 10
853.51113648498085
 20
209.5929188288801
 30
0.0
 40
2.9999999999995981
 50
180.0
 51
198.9999999999834
  0
ARC
  5
325CA
  8
0
 10
853.51113648498085
 20
328.58886317439192
 30
0.0
 40
2.9999999999995981
 50
161.0000000000166
 51
180.0
  0
LINE
  5
325CB
  8
0
 10
857.39768875077425
 20
349.09089100163601
 30
0.0
 11
850.67458075818286
 21
329.56556763776331
 31
0.0
  0
LINE
  5
325CC
  8
0
 10
850.67458075818286
 20
208.6162143655088
 30
0.0
 11
857.39768875077425
 21
189.09089100163601
 31
0.0
  0
ARC
  5
325CD
  8
0
 10
858.23102208410728
 20
186.6707152702393
 30
0.0
 40
0.8333333333333357
 50
180.0
 51
0.0
  0
ARC
  5
325CE
  8
0
 10
858.23102208410728
 20
351.51106673303269
 30
0.0
 40
0.8333333333333357
 50
0.0
 51
180.0
  0
ARC
  5
325CF
  8
0
 10
859.89768875077425
 20
181.8303638074467
 30
0.0
 40
0.8333333333333322
 50
180.0
 51
0.0
  0
ARC
  5
325D0
  8
0
 10
859.89768875077425
 20
356.35141819582532
 30
0.0
 40
0.8333333333333303
 50
0.0000008537736463
 51
179.99999914622629
  0
ARC
  5
325D1
  8
0
 10
863.73102208410717
 20
179.912215903294
 30
0.0
 40
3.0000000000000382
 50
180.0
 51
198.9999999999834
  0
ARC
  5
325D2
  8
0
 10
863.73102208410717
 20
358.26956609997791
 30
0.0
 40
2.9999999999998739
 50
161.0000000000166
 51
180.0
  0
LINE
  5
325D3
  8
0
 10
864.05201550886511
 20
368.41645915609303
 30
0.0
 11
860.89446635730917
 21
359.2462705633493
 31
0.0
  0
LINE
  5
325D4
  8
0
 10
860.89446635730917
 20
178.93551143992269
 30
0.0
 11
864.05201550886511
 21
169.76532284717899
 31
0.0
  0
ARC
  5
325D5
  8
0
 10
864.99753408446475
 20
170.09089100163601
 30
0.0
 40
1.0000000000000131
 50
198.9999999999834
 51
270.0
  0
ARC
  5
325D6
  8
0
 10
864.99753408446475
 20
368.09089100163601
 30
0.0
 40
1.0000000000000131
 50
90.0
 51
161.0000000000166
  0
LINE
  5
325D7
  8
0
 10
869.51113648498074
 20
369.09089100163601
 30
0.0
 11
864.99753408446475
 21
369.09089100163601
 31
0.0
  0
LINE
  5
325D8
  8
0
 10
864.99753408446475
 20
169.09089100163601
 30
0.0
 11
869.51113648498074
 21
169.09089100163601
 31
0.0
  0
ARC
  5
325D9
  8
0
 10
869.51113648498074
 20
169.39089100163619
 30
0.0
 40
0.3000000000000114
 50
270.0
 51
0.0
  0
ARC
  5
325DA
  8
0
 10
869.51113648498074
 20
368.79089100163583
 30
0.0
 40
0.3000000000000078
 50
0.0
 51
90.0
  0
LINE
  5
325DB
  8
0
 10
872.21113648498067
 20
368.79089100163583
 30
0.0
 11
869.81113648498092
 21
368.79089100163583
 31
0.0
  0
LINE
  5
325DC
  8
0
 10
869.81113648498092
 20
169.39089100163619
 30
0.0
 11
872.21113648498067
 21
169.39089100163619
 31
0.0
  0
ARC
  5
325DD
  8
0
 10
872.51113648498085
 20
169.39089100163619
 30
0.0
 40
0.3000000000000038
 50
180.0
 51
270.0
  0
ARC
  5
325DE
  8
0
 10
872.51113648498085
 20
368.79089100163583
 30
0.0
 40
0.3000000000000114
 50
90.0
 51
180.0
  0
LINE
  5
325E0
  8
0
 10
878.81113648498092
 20
169.39089100163619
 30
0.0
 11
878.81113648498092
 21
368.79089100163583
 31
0.0
  0
LINE
  5
325E1
  8
0
 10
881.21113648498067
 20
169.39089100163619
 30
0.0
 11
881.21113648498067
 21
368.79089100163583
 31
0.0
  0
LINE
  5
325E6
  8
0
 10
890.29125088585454
 20
179.912215903294
 30
0.0
 11
890.29125088585454
 21
358.26956609997791
 31
0.0
  0
LINE
  5
325E7
  8
0
 10
891.95791755252048
 20
181.83036380744619
 30
0.0
 11
891.95791755252048
 21
356.35141819582577
 31
0.0
  0
LINE
  5
325E8
  8
0
 10
893.62458421918745
 20
186.6707152702393
 30
0.0
 11
893.62458421918745
 21
351.51106673303269
 31
0.0
  0
LINE
  5
325EA
  8
0
 10
900.51113648498085
 20
209.5929188288801
 30
0.0
 11
900.51113648498085
 21
328.58886317439192
 31
0.0
  0
LINE
  5
325EB
  8
0
 10
850.51113648498085
 20
209.5929188288801
 30
0.0
 11
850.51113648498085
 21
328.58886317439192
 31
0.0
  0
LINE
  5
325ED
  8
0
 10
857.39768875077425
 20
186.6707152702393
 30
0.0
 11
857.39768875077425
 21
351.51106673303269
 31
0.0
  0
LINE
  5
325EE
  8
0
 10
859.06435541744133
 20
181.83036380744619
 30
0.0
 11
859.06435541744133
 21
356.35141819582577
 31
0.0
  0
LINE
  5
325EF
  8
0
 10
860.73102208410728
 20
179.912215903294
 30
0.0
 11
860.73102208410728
 21
358.26956609997791
 31
0.0
  0
LINE
  5
325F4
  8
0
 10
869.81113648498092
 20
169.39089100163619
 30
0.0
 11
869.81113648498092
 21
368.79089100163583
 31
0.0
  0
LINE
  5
325F6
  8
0
 10
872.21113648498067
 20
169.39089100163619
 30
0.0
 11
872.21113648498067
 21
368.79089100163583
 31
0.0
  0
LINE
  5
3261C
  8
1
 10
438.91924928587099
 20
610.50657002087428
 30
0.0
 11
674.64586817737097
 21
610.50657002087428
 31
0.0
  0
LINE
  5
3261D
  8
1
 10
609.98110264979732
 20
545.8418044933004
 30
0.0
 11
609.98110264979732
 21
675.17133554844804
 31
0.0
  0
LINE
  5
3261E
  8
0
 10
555.98110264979732
 20
644.50657002087428
 30
0.0
 11
555.98110264979732
 21
576.50657002087428
 31
0.0
  0
LINE
  5
3261F
  8
0
 10
571.9679470323008
 20
576.50657002087428
 30
0.0
 11
493.4977631481924
 21
576.50657002087428
 31
0.0
  0
LINE
  5
32620
  8
0
 10
571.9679470323008
 20
644.50657002087428
 30
0.0
 11
493.4977631481924
 21
644.50657002087428
 31
0.0
  0
LINE
  5
32621
  8
0
 10
542.01442364658851
 20
576.50657002087428
 30
0.0
 11
542.01442364658851
 21
644.50657002087428
 31
0.0
  0
LINE
  5
32622
  8
0
 10
493.4977631481924
 20
576.50657002087428
 30
0.0
 11
493.4977631481924
 21
644.50657002087428
 31
0.0
  0
CIRCLE
  5
3262A
  8
0
 10
609.98110264979732
 20
610.50657002087428
 30
0.0
 40
12.75
  0
CIRCLE
  5
3262B
  8
0
 10
609.98110264979732
 20
610.50657002087428
 30
0.0
 40
40.349999999999987
  0
CIRCLE
  5
3262C
  8
0
 10
609.98110264979732
 20
610.50657002087428
 30
0.0
 40
43.34999999999998
  0
CIRCLE
  5
3262D
  8
0
 10
609.98110264979732
 20
610.50657002087428
 30
0.0
 40
47.0
  0
CIRCLE
  5
3262E
  8
0
 10
609.98110264979732
 20
610.50657002087428
 30
0.0
 40
51.0
  0
CIRCLE
  5
3262F
  8
0
 10
609.98110264979732
 20
610.50657002087428
 30
0.0
 40
10.0
  0
LINE
  5
326AD
  8
1
 10
553.98110264979721
 20
562.34157002087431
 30
0.0
 11
553.98110264979721
 21
658.67157002087424
 31
0.0
  0
LINE
  5
326AE
  8
0
 10
548.16610264979772
 20
576.50657002087428
 30
0.0
 11
548.16610264979772
 21
575.90657002087426
 31
0.0
  0
LINE
  5
326AF
  8
0
 10
559.79610264979783
 20
575.90657002087426
 30
0.0
 11
559.79610264979783
 21
576.50657002087428
 31
0.0
  0
LINE
  5
326B0
  8
0
 10
549.98110264979721
 20
653.73957002087445
 30
0.0
 11
549.98110264979721
 21
652.50657002087428
 31
0.0
  0
LINE
  5
326B1
  8
0
 10
557.98110264979732
 20
652.50657002087428
 30
0.0
 11
557.98110264979732
 21
653.73957002087445
 31
0.0
  0
LINE
  5
326B2
  8
0
 10
550.74810264979715
 20
654.50657002087416
 30
0.0
 11
549.98110264979721
 21
653.73957002087445
 31
0.0
  0
LINE
  5
326B3
  8
0
 10
557.98110264979732
 20
653.73957002087445
 30
0.0
 11
557.21410264979738
 21
654.50657002087416
 31
0.0
  0
LINE
  5
326B4
  8
0
 10
560.23943598313053
 20
571.20657002087398
 30
0.0
 11
561.20760351915385
 21
571.46598973028995
 31
0.0
  0
LINE
  5
326B5
  8
0
 10
546.75460178044068
 20
571.46598973028995
 30
0.0
 11
547.72276931646411
 21
571.20657002087398
 31
0.0
  0
LINE
  5
326B6
  8
0
 10
561.20760351915385
 20
575.64715031145886
 30
0.0
 11
560.23943598313053
 21
575.90657002087426
 31
0.0
  0
LINE
  5
326B7
  8
0
 10
547.72276931646411
 20
575.90657002087426
 30
0.0
 11
546.75460178044068
 21
575.64715031145886
 31
0.0
  0
LINE
  5
326B8
  8
0
 10
548.16610264979772
 20
652.50657002087428
 30
0.0
 11
548.16610264979772
 21
650.00657002087416
 31
0.0
  0
LINE
  5
326B9
  8
0
 10
559.79610264979783
 20
650.00657002087416
 30
0.0
 11
559.79610264979783
 21
652.50657002087428
 31
0.0
  0
LINE
  5
326BA
  8
0
 10
560.23943598313053
 20
644.50657002087428
 30
0.0
 11
561.20760351915385
 21
644.76598973029013
 31
0.0
  0
LINE
  5
326BB
  8
0
 10
546.75460178044068
 20
644.76598973029013
 30
0.0
 11
547.72276931646411
 21
644.50657002087428
 31
0.0
  0
LINE
  5
326BC
  8
0
 10
561.20760351915385
 20
649.74715031145888
 30
0.0
 11
560.23943598313053
 21
650.00657002087416
 31
0.0
  0
LINE
  5
326BD
  8
0
 10
547.72276931646411
 20
650.00657002087416
 30
0.0
 11
546.75460178044068
 21
649.74715031145888
 31
0.0
  0
LINE
  5
326BE
  8
0
 10
557.98110264979732
 20
653.73957002087445
 30
0.0
 11
549.98110264979721
 21
653.73957002087445
 31
0.0
  0
LINE
  5
326BF
  8
0
 10
557.21410264979738
 20
654.50657002087416
 30
0.0
 11
550.74810264979715
 21
654.50657002087416
 31
0.0
  0
LINE
  5
326C0
  8
0
 10
560.23943598313053
 20
571.20657002087398
 30
0.0
 11
547.72276931646411
 21
571.20657002087398
 31
0.0
  0
LINE
  5
326C1
  8
0
 10
560.23943598313053
 20
575.90657002087426
 30
0.0
 11
547.72276931646411
 21
575.90657002087426
 31
0.0
  0
POLYLINE
  5
326C2
  8
0
 66
     1
 10
0.0
 20
0.0
 30
0.0
 70
     8
  0
VERTEX
  5
326C3
  8
0
 10
550.36785221511946
 20
571.46598973028995
 30
0.0
 70
    32
  0
VERTEX
  5
326C4
  8
0
 10
550.04327831944636
 20
571.38514507703167
 30
0.0
 70
    32
  0
VERTEX
  5
326C5
  8
0
 10
549.43371774067509
 20
571.2705347382788
 30
0.0
 70
    32
  0
VERTEX
  5
326C6
  8
0
 10
548.85130956909961
 20
571.21376015449414
 30
0.0
 70
    32
  0
VERTEX
  5
326C7
  8
0
 10
548.56122699777995
 20
571.20657002087398
 30
0.0
 70
    32
  0
SEQEND
  5
326C8
  8
0
  0
POLYLINE
  5
326C9
  8
0
 66
     1
 10
0.0
 20
0.0
 30
0.0
 70
     8
  0
VERTEX
  5
326CA
  8
0
 10
548.56122699777995
 20
571.20657002087398
 30
0.0
 70
    32
  0
VERTEX
  5
326CB
  8
0
 10
548.27114442646052
 20
571.21376015449414
 30
0.0
 70
    32
  0
VERTEX
  5
326CC
  8
0
 10
547.68873625488504
 20
571.2705347382788
 30
0.0
 70
    32
  0
VERTEX
  5
326CD
  8
0
 10
547.07917567611275
 20
571.38514507703167
 30
0.0
 70
    32
  0
VERTEX
  5
326CE
  8
0
 10
546.75460178044068
 20
571.46598973028995
 30
0.0
 70
    32
  0
SEQEND
  5
326CF
  8
0
  0
POLYLINE
  5
326D0
  8
0
 66
     1
 10
0.0
 20
0.0
 30
0.0
 70
     8
  0
VERTEX
  5
326D1
  8
0
 10
546.75460178044068
 20
575.64715031145886
 30
0.0
 70
    32
  0
VERTEX
  5
326D2
  8
0
 10
547.07917567611275
 20
575.7279949647168
 30
0.0
 70
    32
  0
VERTEX
  5
326D3
  8
0
 10
547.68873625488504
 20
575.84260530347001
 30
0.0
 70
    32
  0
VERTEX
  5
326D4
  8
0
 10
548.27114442646052
 20
575.89937988725433
 30
0.0
 70
    32
  0
VERTEX
  5
326D5
  8
0
 10
548.56122699777995
 20
575.90657002087426
 30
0.0
 70
    32
  0
SEQEND
  5
326D6
  8
0
  0
POLYLINE
  5
326D7
  8
0
 66
     1
 10
0.0
 20
0.0
 30
0.0
 70
     8
  0
VERTEX
  5
326D8
  8
0
 10
548.56122699777995
 20
575.90657002087426
 30
0.0
 70
    32
  0
VERTEX
  5
326D9
  8
0
 10
548.85130956909961
 20
575.89937988725433
 30
0.0
 70
    32
  0
VERTEX
  5
326DA
  8
0
 10
549.43371774067509
 20
575.84260530347001
 30
0.0
 70
    32
  0
VERTEX
  5
326DB
  8
0
 10
550.04327831944636
 20
575.72799496471725
 30
0.0
 70
    32
  0
VERTEX
  5
326DC
  8
0
 10
550.36785221511946
 20
575.64715031145886
 30
0.0
 70
    32
  0
SEQEND
  5
326DD
  8
0
  0
LINE
  5
326DE
  8
0
 10
546.75460178044068
 20
571.46598973028995
 30
0.0
 11
546.75460178044068
 21
575.64715031145886
 31
0.0
  0
POLYLINE
  5
326DF
  8
0
 66
     1
 10
0.0
 20
0.0
 30
0.0
 70
     8
  0
VERTEX
  5
326E0
  8
0
 10
559.40097830181537
 20
575.90657002087426
 30
0.0
 70
    32
  0
VERTEX
  5
326E1
  8
0
 10
559.69106087313412
 20
575.89937988725433
 30
0.0
 70
    32
  0
VERTEX
  5
326E2
  8
0
 10
560.27346904471051
 20
575.84260530347001
 30
0.0
 70
    32
  0
VERTEX
  5
326E3
  8
0
 10
560.88302962348189
 20
575.72799496471725
 30
0.0
 70
    32
  0
VERTEX
  5
326E4
  8
0
 10
561.20760351915385
 20
575.64715031145886
 30
0.0
 70
    32
  0
SEQEND
  5
326E5
  8
0
  0
POLYLINE
  5
326E6
  8
0
 66
     1
 10
0.0
 20
0.0
 30
0.0
 70
     8
  0
VERTEX
  5
326E7
  8
0
 10
561.20760351915385
 20
571.46598973028995
 30
0.0
 70
    32
  0
VERTEX
  5
326E8
  8
0
 10
560.88302962348189
 20
571.38514507703167
 30
0.0
 70
    32
  0
VERTEX
  5
326E9
  8
0
 10
560.27346904471051
 20
571.2705347382788
 30
0.0
 70
    32
  0
VERTEX
  5
326EA
  8
0
 10
559.69106087313412
 20
571.21376015449414
 30
0.0
 70
    32
  0
VERTEX
  5
326EB
  8
0
 10
559.40097830181537
 20
571.20657002087398
 30
0.0
 70
    32
  0
SEQEND
  5
326EC
  8
0
  0
POLYLINE
  5
326ED
  8
0
 66
     1
 10
0.0
 20
0.0
 30
0.0
 70
     8
  0
VERTEX
  5
326EE
  8
0
 10
559.40097830181537
 20
571.20657002087398
 30
0.0
 70
    32
  0
VERTEX
  5
326EF
  8
0
 10
559.11089573049594
 20
571.21376015449414
 30
0.0
 70
    32
  0
VERTEX
  5
326F0
  8
0
 10
558.52848755891955
 20
571.2705347382788
 30
0.0
 70
    32
  0
VERTEX
  5
326F1
  8
0
 10
557.91892698014806
 20
571.38514507703167
 30
0.0
 70
    32
  0
VERTEX
  5
326F2
  8
0
 10
557.59435308447598
 20
571.46598973028995
 30
0.0
 70
    32
  0
SEQEND
  5
326F3
  8
0
  0
POLYLINE
  5
326F4
  8
0
 66
     1
 10
0.0
 20
0.0
 30
0.0
 70
     8
  0
VERTEX
  5
326F5
  8
0
 10
557.59435308447598
 20
575.64715031145886
 30
0.0
 70
    32
  0
VERTEX
  5
326F6
  8
0
 10
557.91892698014806
 20
575.7279949647168
 30
0.0
 70
    32
  0
VERTEX
  5
326F7
  8
0
 10
558.52848755891955
 20
575.84260530347001
 30
0.0
 70
    32
  0
VERTEX
  5
326F8
  8
0
 10
559.11089573049594
 20
575.89937988725433
 30
0.0
 70
    32
  0
VERTEX
  5
326F9
  8
0
 10
559.40097830181537
 20
575.90657002087426
 30
0.0
 70
    32
  0
SEQEND
  5
326FA
  8
0
  0
LINE
  5
326FB
  8
0
 10
561.20760351915385
 20
571.46598973028995
 30
0.0
 11
561.20760351915385
 21
575.64715031145886
 31
0.0
  0
POLYLINE
  5
326FC
  8
0
 66
     1
 10
0.0
 20
0.0
 30
0.0
 70
     8
  0
VERTEX
  5
326FD
  8
0
 10
553.98110264979721
 20
575.90657002087426
 30
0.0
 70
    32
  0
VERTEX
  5
326FE
  8
0
 10
554.5612677924363
 20
575.89937988725433
 30
0.0
 70
    32
  0
VERTEX
  5
326FF
  8
0
 10
555.72608413558737
 20
575.84260530347001
 30
0.0
 70
    32
  0
VERTEX
  5
32700
  8
0
 10
556.94520529313195
 20
575.72799496471725
 30
0.0
 70
    32
  0
VERTEX
  5
32701
  8
0
 10
557.59435308447598
 20
575.64715031145886
 30
0.0
 70
    32
  0
SEQEND
  5
32702
  8
0
  0
LINE
  5
32703
  8
0
 10
557.59435308447598
 20
571.46598973028995
 30
0.0
 11
557.59435308447598
 21
575.64715031145886
 31
0.0
  0
POLYLINE
  5
32704
  8
0
 66
     1
 10
0.0
 20
0.0
 30
0.0
 70
     8
  0
VERTEX
  5
32705
  8
0
 10
557.59435308447598
 20
571.46598973028995
 30
0.0
 70
    32
  0
VERTEX
  5
32706
  8
0
 10
556.94520529313195
 20
571.38514507703167
 30
0.0
 70
    32
  0
VERTEX
  5
32707
  8
0
 10
555.72608413558737
 20
571.2705347382788
 30
0.0
 70
    32
  0
VERTEX
  5
32708
  8
0
 10
554.5612677924363
 20
571.21376015449414
 30
0.0
 70
    32
  0
VERTEX
  5
32709
  8
0
 10
553.98110264979721
 20
571.20657002087398
 30
0.0
 70
    32
  0
SEQEND
  5
3270A
  8
0
  0
POLYLINE
  5
3270B
  8
0
 66
     1
 10
0.0
 20
0.0
 30
0.0
 70
     8
  0
VERTEX
  5
3270C
  8
0
 10
553.98110264979721
 20
571.20657002087398
 30
0.0
 70
    32
  0
VERTEX
  5
3270D
  8
0
 10
553.40093750715823
 20
571.21376015449414
 30
0.0
 70
    32
  0
VERTEX
  5
3270E
  8
0
 10
552.23612116400716
 20
571.2705347382788
 30
0.0
 70
    32
  0
VERTEX
  5
3270F
  8
0
 10
551.01700000646349
 20
571.38514507703167
 30
0.0
 70
    32
  0
VERTEX
  5
32710
  8
0
 10
550.36785221511946
 20
571.46598973028995
 30
0.0
 70
    32
  0
SEQEND
  5
32711
  8
0
  0
LINE
  5
32712
  8
0
 10
550.36785221511946
 20
571.46598973028995
 30
0.0
 11
550.36785221511946
 21
575.64715031145886
 31
0.0
  0
POLYLINE
  5
32713
  8
0
 66
     1
 10
0.0
 20
0.0
 30
0.0
 70
     8
  0
VERTEX
  5
32714
  8
0
 10
550.36785221511946
 20
575.64715031145886
 30
0.0
 70
    32
  0
VERTEX
  5
32715
  8
0
 10
551.01700000646349
 20
575.72799496471725
 30
0.0
 70
    32
  0
VERTEX
  5
32716
  8
0
 10
552.23612116400716
 20
575.84260530347001
 30
0.0
 70
    32
  0
VERTEX
  5
32717
  8
0
 10
553.40093750715823
 20
575.89937988725433
 30
0.0
 70
    32
  0
VERTEX
  5
32718
  8
0
 10
553.98110264979721
 20
575.90657002087426
 30
0.0
 70
    32
  0
SEQEND
  5
32719
  8
0
  0
LINE
  5
3271A
  8
0
 10
559.79610264979783
 20
652.50657002087428
 30
0.0
 11
548.16610264979772
 21
652.50657002087428
 31
0.0
  0
LINE
  5
3271B
  8
0
 10
560.23943598313053
 20
650.00657002087416
 30
0.0
 11
547.72276931646411
 21
650.00657002087416
 31
0.0
  0
POLYLINE
  5
3271C
  8
0
 66
     1
 10
0.0
 20
0.0
 30
0.0
 70
     8
  0
VERTEX
  5
3271D
  8
0
 10
550.36785221511946
 20
644.76598973029013
 30
0.0
 70
    32
  0
VERTEX
  5
3271E
  8
0
 10
550.04327831946455
 20
644.68514507703594
 30
0.0
 70
    32
  0
VERTEX
  5
3271F
  8
0
 10
549.43371774072511
 20
644.57053473828591
 30
0.0
 70
    32
  0
VERTEX
  5
32720
  8
0
 10
548.85130956918044
 20
644.51376015449841
 30
0.0
 70
    32
  0
VERTEX
  5
32721
  8
0
 10
548.56122699787829
 20
644.50657002087428
 30
0.0
 70
    32
  0
SEQEND
  5
32722
  8
0
  0
POLYLINE
  5
32723
  8
0
 66
     1
 10
0.0
 20
0.0
 30
0.0
 70
     8
  0
VERTEX
  5
32724
  8
0
 10
548.56122699777995
 20
644.50657002087428
 30
0.0
 70
    32
  0
VERTEX
  5
32725
  8
0
 10
548.27114442646052
 20
644.51376015449432
 30
0.0
 70
    32
  0
VERTEX
  5
32726
  8
0
 10
547.68873625488504
 20
644.57053473827864
 30
0.0
 70
    32
  0
VERTEX
  5
32727
  8
0
 10
547.07917567611275
 20
644.68514507703185
 30
0.0
 70
    32
  0
VERTEX
  5
32728
  8
0
 10
546.75460178044068
 20
644.76598973029013
 30
0.0
 70
    32
  0
SEQEND
  5
32729
  8
0
  0
POLYLINE
  5
3272A
  8
0
 66
     1
 10
0.0
 20
0.0
 30
0.0
 70
     8
  0
VERTEX
  5
3272B
  8
0
 10
546.75460178044068
 20
649.74715031145888
 30
0.0
 70
    32
  0
VERTEX
  5
3272C
  8
0
 10
547.07917567611275
 20
649.82799496471705
 30
0.0
 70
    32
  0
VERTEX
  5
3272D
  8
0
 10
547.68873625488504
 20
649.94260530346992
 30
0.0
 70
    32
  0
VERTEX
  5
3272E
  8
0
 10
548.27114442646052
 20
649.99937988725458
 30
0.0
 70
    32
  0
VERTEX
  5
3272F
  8
0
 10
548.56122699777995
 20
650.00657002087416
 30
0.0
 70
    32
  0
SEQEND
  5
32730
  8
0
  0
POLYLINE
  5
32731
  8
0
 66
     1
 10
0.0
 20
0.0
 30
0.0
 70
     8
  0
VERTEX
  5
32732
  8
0
 10
548.56122699777995
 20
650.00657002087416
 30
0.0
 70
    32
  0
VERTEX
  5
32733
  8
0
 10
548.85130956909961
 20
649.99937988725458
 30
0.0
 70
    32
  0
VERTEX
  5
32734
  8
0
 10
549.43371774067509
 20
649.94260530346992
 30
0.0
 70
    32
  0
VERTEX
  5
32735
  8
0
 10
550.04327831944636
 20
649.82799496471705
 30
0.0
 70
    32
  0
VERTEX
  5
32736
  8
0
 10
550.36785221511946
 20
649.74715031145888
 30
0.0
 70
    32
  0
SEQEND
  5
32737
  8
0
  0
LINE
  5
32738
  8
0
 10
546.75460178044068
 20
644.76598973029013
 30
0.0
 11
546.75460178044068
 21
649.74715031145888
 31
0.0
  0
POLYLINE
  5
32739
  8
0
 66
     1
 10
0.0
 20
0.0
 30
0.0
 70
     8
  0
VERTEX
  5
3273A
  8
0
 10
559.40097830181537
 20
650.00657002087416
 30
0.0
 70
    32
  0
VERTEX
  5
3273B
  8
0
 10
559.69106087313412
 20
649.99937988725458
 30
0.0
 70
    32
  0
VERTEX
  5
3273C
  8
0
 10
560.27346904471051
 20
649.94260530346992
 30
0.0
 70
    32
  0
VERTEX
  5
3273D
  8
0
 10
560.88302962348189
 20
649.82799496471705
 30
0.0
 70
    32
  0
VERTEX
  5
3273E
  8
0
 10
561.20760351915385
 20
649.74715031145888
 30
0.0
 70
    32
  0
SEQEND
  5
3273F
  8
0
  0
POLYLINE
  5
32740
  8
0
 66
     1
 10
0.0
 20
0.0
 30
0.0
 70
     8
  0
VERTEX
  5
32741
  8
0
 10
561.20760351915385
 20
644.76598973029013
 30
0.0
 70
    32
  0
VERTEX
  5
32742
  8
0
 10
560.88302962350372
 20
644.68514507703628
 30
0.0
 70
    32
  0
VERTEX
  5
32743
  8
0
 10
560.27346904477054
 20
644.57053473828717
 30
0.0
 70
    32
  0
VERTEX
  5
32744
  8
0
 10
559.69106087323325
 20
644.51376015449932
 30
0.0
 70
    32
  0
VERTEX
  5
32745
  8
0
 10
559.40097830193372
 20
644.50657002087428
 30
0.0
 70
    32
  0
SEQEND
  5
32746
  8
0
  0
POLYLINE
  5
32747
  8
0
 66
     1
 10
0.0
 20
0.0
 30
0.0
 70
     8
  0
VERTEX
  5
32748
  8
0
 10
559.40097830181537
 20
644.50657002087428
 30
0.0
 70
    32
  0
VERTEX
  5
32749
  8
0
 10
559.11089573049594
 20
644.51376015449432
 30
0.0
 70
    32
  0
VERTEX
  5
3274A
  8
0
 10
558.52848755891955
 20
644.57053473827864
 30
0.0
 70
    32
  0
VERTEX
  5
3274B
  8
0
 10
557.91892698014806
 20
644.68514507703185
 30
0.0
 70
    32
  0
VERTEX
  5
3274C
  8
0
 10
557.59435308447598
 20
644.76598973029013
 30
0.0
 70
    32
  0
SEQEND
  5
3274D
  8
0
  0
POLYLINE
  5
3274E
  8
0
 66
     1
 10
0.0
 20
0.0
 30
0.0
 70
     8
  0
VERTEX
  5
3274F
  8
0
 10
557.59435308447598
 20
649.74715031145888
 30
0.0
 70
    32
  0
VERTEX
  5
32750
  8
0
 10
557.91892698014806
 20
649.82799496471705
 30
0.0
 70
    32
  0
VERTEX
  5
32751
  8
0
 10
558.52848755891955
 20
649.94260530346992
 30
0.0
 70
    32
  0
VERTEX
  5
32752
  8
0
 10
559.11089573049594
 20
649.99937988725458
 30
0.0
 70
    32
  0
VERTEX
  5
32753
  8
0
 10
559.40097830181537
 20
650.00657002087416
 30
0.0
 70
    32
  0
SEQEND
  5
32754
  8
0
  0
LINE
  5
32755
  8
0
 10
561.20760351915385
 20
644.76598973029013
 30
0.0
 11
561.20760351915385
 21
649.74715031145888
 31
0.0
  0
POLYLINE
  5
32756
  8
0
 66
     1
 10
0.0
 20
0.0
 30
0.0
 70
     8
  0
VERTEX
  5
32757
  8
0
 10
553.98110264979721
 20
650.00657002087416
 30
0.0
 70
    32
  0
VERTEX
  5
32758
  8
0
 10
554.5612677924363
 20
649.99937988725424
 30
0.0
 70
    32
  0
VERTEX
  5
32759
  8
0
 10
555.72608413558737
 20
649.94260530346992
 30
0.0
 70
    32
  0
VERTEX
  5
3275A
  8
0
 10
556.94520529313104
 20
649.82799496471705
 30
0.0
 70
    32
  0
VERTEX
  5
3275B
  8
0
 10
557.59435308447598
 20
649.74715031145888
 30
0.0
 70
    32
  0
SEQEND
  5
3275C
  8
0
  0
LINE
  5
3275D
  8
0
 10
557.59435308447598
 20
644.76598973029013
 30
0.0
 11
557.59435308447598
 21
649.74715031145888
 31
0.0
  0
POLYLINE
  5
3275E
  8
0
 66
     1
 10
0.0
 20
0.0
 30
0.0
 70
     8
  0
VERTEX
  5
3275F
  8
0
 10
557.59435308447598
 20
644.76598973029013
 30
0.0
 70
    32
  0
VERTEX
  5
32760
  8
0
 10
556.9452052931556
 20
644.68514507703458
 30
0.0
 70
    32
  0
VERTEX
  5
32761
  8
0
 10
555.72608413565649
 20
644.57053473828364
 30
0.0
 70
    32
  0
VERTEX
  5
32762
  8
0
 10
554.56126779254828
 20
644.51376015449705
 30
0.0
 70
    32
  0
VERTEX
  5
32763
  8
0
 10
553.98110264993284
 20
644.50657002087428
 30
0.0
 70
    32
  0
SEQEND
  5
32764
  8
0
  0
POLYLINE
  5
32765
  8
0
 66
     1
 10
0.0
 20
0.0
 30
0.0
 70
     8
  0
VERTEX
  5
32766
  8
0
 10
553.98110264979721
 20
644.50657002087428
 30
0.0
 70
    32
  0
VERTEX
  5
32767
  8
0
 10
553.40093750715823
 20
644.51376015449432
 30
0.0
 70
    32
  0
VERTEX
  5
32768
  8
0
 10
552.23612116400716
 20
644.57053473827864
 30
0.0
 70
    32
  0
VERTEX
  5
32769
  8
0
 10
551.01700000646349
 20
644.68514507703185
 30
0.0
 70
    32
  0
VERTEX
  5
3276A
  8
0
 10
550.36785221511946
 20
644.76598973029013
 30
0.0
 70
    32
  0
SEQEND
  5
3276B
  8
0
  0
LINE
  5
3276C
  8
0
 10
550.36785221511946
 20
644.76598973029013
 30
0.0
 11
550.36785221511946
 21
649.74715031145888
 31
0.0
  0
POLYLINE
  5
3276D
  8
0
 66
     1
 10
0.0
 20
0.0
 30
0.0
 70
     8
  0
VERTEX
  5
3276E
  8
0
 10
550.36785221511946
 20
649.74715031145888
 30
0.0
 70
    32
  0
VERTEX
  5
3276F
  8
0
 10
551.01700000646349
 20
649.82799496471705
 30
0.0
 70
    32
  0
VERTEX
  5
32770
  8
0
 10
552.23612116400716
 20
649.94260530346992
 30
0.0
 70
    32
  0
VERTEX
  5
32771
  8
0
 10
553.40093750715823
 20
649.99937988725424
 30
0.0
 70
    32
  0
VERTEX
  5
32772
  8
0
 10
553.98110264979721
 20
650.00657002087416
 30
0.0
 70
    32
  0
SEQEND
  5
32773
  8
0
  0
LINE
  5
327DB
  8
0
 10
453.98110264979721
 20
613.50657002087416
 30
0.0
 11
453.98110264979721
 21
607.50657002087416
 31
0.0
  0
ARC
  5
327DC
  8
0
 10
454.28110264979739
 20
613.50657002087416
 30
0.0
 40
0.3000000000000074
 50
90.0
 51
180.0
  0
LINE
  5
327DD
  8
0
 10
454.28110264979739
 20
616.20657002087455
 30
0.0
 11
454.28110264979739
 21
613.80657002087435
 31
0.0
  0
ARC
  5
327DE
  8
0
 10
454.28110264979739
 20
616.50657002087416
 30
0.0
 40
0.3000000000000114
 50
180.0
 51
270.0
  0
LINE
  5
327DF
  8
0
 10
453.98110264979721
 20
621.02017242139073
 30
0.0
 11
453.98110264979721
 21
616.50657002087416
 31
0.0
  0
ARC
  5
327E0
  8
0
 10
454.98110264979732
 20
621.02017242139073
 30
0.0
 40
1.0000000000000191
 50
108.99999999998759
 51
180.0
  0
LINE
  5
327E1
  8
0
 10
463.4977631481924
 20
625.01031448518825
 30
0.0
 11
454.65553449534031
 21
621.96569099698991
 31
0.0
  0
LINE
  5
327EA
  8
0
 10
454.65553449534031
 20
599.04744904475865
 30
0.0
 11
463.4977631481924
 21
596.00282555656077
 31
0.0
  0
ARC
  5
327EB
  8
0
 10
454.98110264979732
 20
599.99296762035783
 30
0.0
 40
1.0000000000000131
 50
180.0
 51
251.00000000001239
  0
LINE
  5
327EC
  8
0
 10
453.98110264979721
 20
604.50657002087416
 30
0.0
 11
453.98110264979721
 21
599.99296762035783
 31
0.0
  0
ARC
  5
327ED
  8
0
 10
454.28110264979739
 20
604.50657002087416
 30
0.0
 40
0.3000000000000087
 50
90.0
 51
180.0
  0
LINE
  5
327EE
  8
0
 10
454.28110264979739
 20
607.20657002087455
 30
0.0
 11
454.28110264979739
 21
604.80657002087435
 31
0.0
  0
ARC
  5
327EF
  8
0
 10
454.28110264979739
 20
607.50657002087416
 30
0.0
 40
0.3000000000000114
 50
180.0
 51
270.0
  0
LINE
  5
327F2
  8
0
 10
619.42088552955101
 20
613.80657002087435
 30
0.0
 11
600.55126168334016
 21
613.80657002087435
 31
0.0
  0
LINE
  5
327F3
  8
0
 10
463.4977631481924
 20
613.80657002087435
 30
0.0
 11
454.28110264979739
 21
613.80657002087435
 31
0.0
  0
LINE
  5
327F4
  8
0
 10
618.23435695533772
 20
616.20657002087398
 30
0.0
 11
601.78513520353215
 21
616.20657002087398
 31
0.0
  0
LINE
  5
327F5
  8
0
 10
463.4977631481924
 20
616.20657002087455
 30
0.0
 11
454.28110264979739
 21
616.20657002087455
 31
0.0
  0
LINE
  5
32806
  8
0
 10
618.23435695533863
 20
604.80657002087435
 30
0.0
 11
601.78513520353215
 21
604.80657002087435
 31
0.0
  0
LINE
  5
32807
  8
0
 10
463.4977631481924
 20
604.80657002087435
 30
0.0
 11
454.28110264979739
 21
604.80657002087435
 31
0.0
  0
LINE
  5
3280A
  8
0
 10
619.42088552955101
 20
607.2065700208741
 30
0.0
 11
600.55126168334016
 21
607.2065700208741
 31
0.0
  0
LINE
  5
3280B
  8
0
 10
463.4977631481924
 20
607.20657002087455
 30
0.0
 11
454.28110264979739
 21
607.20657002087455
 31
0.0
  0
LINE
  5
3584F
  8
3
 10
557.21410264979738
 20
654.50657002087416
 30
0.0
 11
557.21410264979738
 21
652.50657002087428
 31
0.0
  0
LINE
  5
35850
  8
3
 10
550.74810264979715
 20
654.50657002087416
 30
0.0
 11
550.74810264979715
 21
652.50657002087428
 31
0.0
  0
LINE
  5
35853
  8
0
 10
550.36785221511855
 20
275.34922433496922
 30
0.0
 11
546.75460178044068
 21
269.09089100163601
 31
0.0
  0
LINE
  5
35854
  8
0
 10
546.75460178044068
 20
269.09089100163601
 30
0.0
 11
550.36785221511855
 21
262.8325576683028
 31
0.0
  0
LINE
  5
35855
  8
0
 10
550.36785221511855
 20
262.8325576683028
 30
0.0
 11
557.59435308447598
 21
262.8325576683028
 31
0.0
  0
LINE
  5
35856
  8
0
 10
561.20760351915385
 20
269.09089100163601
 30
0.0
 11
557.59435308447598
 21
275.34922433496922
 31
0.0
  0
LINE
  5
35857
  8
0
 10
557.59435308447598
 20
262.8325576683028
 30
0.0
 11
561.20760351915385
 21
269.09089100163601
 31
0.0
  0
LINE
  5
35858
  8
0
 10
557.59435308447598
 20
275.34922433496922
 30
0.0
 11
550.36785221511855
 21
275.34922433496922
 31
0.0
  0
CIRCLE
  5
35859
  8
0
 10
553.98110264979721
 20
269.09089100163601
 30
0.0
 40
6.25833333333334
  0
LINE
  5
3585A
  8
1
 10
436.98957567775221
 20
269.09089100163601
 30
0.0
 11
670.9726296218422
 21
269.09089100163601
 31
0.0
  0
LINE
  5
3585D
  8
1
 10
553.98110264979721
 20
152.09936402959099
 30
0.0
 11
553.98110264979721
 21
356.35141819582532
 31
0.0
  0
ARC
  5
3585E
  8
0
 10
553.98110264979721
 20
269.09089100163601
 30
0.0
 40
83.253509064729869
 50
92.068281447467328
 51
45.530824862293443
  0
ARC
  5
3585F
  8
0
 10
553.98110264979721
 20
269.09089100163601
 30
0.0
 40
88.093860527522935
 50
91.505873707583206
 51
46.061746433482718
  0
ARC
  5
35860
  8
0
 10
553.98110264979721
 20
269.09089100163601
 30
0.0
 40
49.999999999999957
 50
98.972632962236588
 51
39.023219890255213
  0
ARC
  5
35861
  8
0
 10
553.98110264979721
 20
269.35576166575311
 30
0.0
 40
60.251195068558872
 50
95.970236308454616
 51
41.668020067612467
  0
ARC
  5
35862
  8
0
 10
553.98110264979721
 20
269.09089100163601
 30
0.0
 40
79.999999999999972
 50
92.485191614759842
 51
45.137320455208709
  0
ARC
  5
35863
  8
0
 10
553.98110264979721
 20
269.09089100163601
 30
0.0
 40
100.0
 50
106.26020470829729
 51
47.146601737247117
  0
LINE
  5
35865
  8
1
 10
822.74846750196775
 20
269.09089100163601
 30
0.0
 11
928.27380546799384
 21
269.09089100163601
 31
0.0
  0
LINE
  5
35866
  8
1
 10
875.51113648498085
 20
152.09936402959099
 30
0.0
 11
875.51113648498085
 21
422.08241797368089
 31
0.0
  0
LINE
  5
35B8F
  8
3
 10
919.51113648498074
 20
272.32389100163618
 30
0.0
 11
917.51113648498085
 21
272.32389100163618
 31
0.0
  0
LINE
  5
35B90
  8
3
 10
919.51113648498074
 20
265.85789100163589
 30
0.0
 11
917.51113648498085
 21
265.85789100163589
 31
0.0
  0
LINE
  5
35B9B
  8
0
 10
264.07132322899179
 20
365.09089100163601
 30
0.0
 11
259.57132322899179
 21
365.09089100163601
 31
0.0
  0
LINE
  5
35B9C
  8
0
 10
200.57132322899179
 20
365.09089100163601
 30
0.0
 11
196.07132322899179
 21
365.09089100163601
 31
0.0
  0
LINE
  5
35BA1
  8
0
 10
264.07132322899179
 20
378.09089100163601
 30
0.0
 11
255.07132322899179
 21
378.09089100163652
 31
0.0
  0
LINE
  5
35BA3
  8
0
 10
264.07132322899179
 20
391.29089100163583
 30
0.0
 11
264.07132322899179
 21
277.60720501423748
 31
0.0
  0
LINE
  5
35BA4
  8
0
 10
196.07132322899179
 20
391.29089100163583
 30
0.0
 11
264.07132322899179
 21
391.29089100163583
 31
0.0
  0
LINE
  5
35BA5
  8
0
 10
196.07132322899179
 20
277.60720501423748
 30
0.0
 11
196.07132322899179
 21
391.29089100163583
 31
0.0
  0
LINE
  5
35BA6
  8
0
 10
182.57132322899179
 20
325.1741939030635
 30
0.0
 11
182.57132322899179
 21
393.29089100163583
 31
0.0
  0
LINE
  5
35BA7
  8
0
 10
277.57132322899179
 20
393.29089100163583
 30
0.0
 11
277.57132322899179
 21
325.1741939030635
 31
0.0
  0
LINE
  5
35BA8
  8
0
 10
217.32132322899179
 20
401.79089100163583
 30
0.0
 11
217.32132322899179
 21
405.0908910016359
 31
0.0
  0
LINE
  5
35BA9
  8
0
 10
242.82132322899179
 20
405.0908910016359
 30
0.0
 11
242.82132322899179
 21
401.79089100163583
 31
0.0
  0
ARC
  5
35BAA
  8
0
 10
270.42132322899221
 20
398.79089100163583
 30
0.0
 40
3.000000000000028
 50
0.0
 51
90.0
  0
ARC
  5
35BAB
  8
0
 10
189.7213232289923
 20
398.79089100163583
 30
0.0
 40
3.000000000000036
 50
90.0
 51
180.0
  0
LINE
  5
35BAC
  8
0
 10
186.72132322899139
 20
398.29089100163583
 30
0.0
 11
186.72132322899139
 21
398.79089100163583
 31
0.0
  0
LINE
  5
35BAD
  8
0
 10
273.42132322899209
 20
398.79089100163583
 30
0.0
 11
273.42132322899209
 21
398.29089100163583
 31
0.0
  0
ARC
  5
35BAE
  8
0
 10
277.07132322899179
 20
394.29089100163583
 30
0.0
 40
4.000000000000056
 50
0.0
 51
90.0
  0
ARC
  5
35BAF
  8
0
 10
183.07132322899179
 20
394.29089100163583
 30
0.0
 40
4.0000000000000488
 50
90.0
 51
180.0
  0
LINE
  5
35BB0
  8
0
 10
179.07132322899179
 20
393.29089100163583
 30
0.0
 11
179.07132322899179
 21
394.29089100163583
 31
0.0
  0
LINE
  5
35BB1
  8
0
 10
281.07132322899179
 20
394.29089100163583
 30
0.0
 11
281.07132322899179
 21
393.29089100163583
 31
0.0
  0
LINE
  5
35BB2
  8
0
 10
264.07132322899179
 20
259.09089100163601
 30
0.0
 11
264.07132322899179
 21
277.60720501423748
 31
0.0
  0
LINE
  5
35BB3
  8
0
 10
264.07132322899179
 20
259.09089100163601
 30
0.0
 11
259.57132322899179
 21
259.09089100163601
 31
0.0
  0
LINE
  5
35BB4
  8
0
 10
200.57132322899179
 20
259.09089100163601
 30
0.0
 11
196.07132322899179
 21
259.09089100163601
 31
0.0
  0
LINE
  5
35C6C
  8
0
 10
259.57132322899179
 20
259.09089100163601
 30
0.0
 11
259.57132322899179
 21
378.09089100163652
 31
0.0
  0
LINE
  5
35C6E
  8
0
 10
196.07132322899179
 20
277.60720501423748
 30
0.0
 11
196.07132322899179
 21
259.09089100163601
 31
0.0
  0
LINE
  5
35C6F
  8
0
 10
200.57132322899179
 20
378.09089100163652
 30
0.0
 11
200.57132322899179
 21
259.09089100163601
 31
0.0
  0
POLYLINE
  5
35CCC
  8
0
 66
     1
 10
0.0
 20
0.0
 30
0.0
 70
     8
  0
VERTEX
  5
35CCD
  8
0
 10
182.57132322899179
 20
325.1741939030635
 30
0.0
 70
    32
  0
VERTEX
  5
35CCE
  8
0
 10
182.58227409540899
 20
323.71160934943458
 30
0.0
 70
    32
  0
VERTEX
  5
35CCF
  8
0
 10
182.66985073312199
 20
320.78913745848058
 30
0.0
 70
    32
  0
VERTEX
  5
35CD0
  8
0
 10
182.8448425046299
 20
317.87475224238369
 30
0.0
 70
    32
  0
VERTEX
  5
35CD1
  8
0
 10
182.96502450155089
 20
316.42227253671717
 30
0.0
 70
    32
  0
VERTEX
  5
35CD2
  8
0
 10
183.10692669993571
 20
314.97382824670422
 30
0.0
 70
    32
  0
VERTEX
  5
35CD3
  8
0
 10
183.45561999808251
 20
312.0917151925774
 30
0.0
 70
    32
  0
VERTEX
  5
35CD4
  8
0
 10
183.89027935846929
 20
309.23372811105543
 30
0.0
 70
    32
  0
VERTEX
  5
35CD5
  8
0
 10
184.4101032067137
 20
306.40513754142597
 30
0.0
 70
    32
  0
VERTEX
  5
35CD6
  8
0
 10
185.01413291286369
 20
303.61115981158167
 30
0.0
 70
    32
  0
VERTEX
  5
35CD7
  8
0
 10
185.70125455925421
 20
300.85694741835869
 30
0.0
 70
    32
  0
VERTEX
  5
35CD8
  8
0
 10
186.07558479900311
 20
299.49634358337062
 30
0.0
 70
    32
  0
VERTEX
  5
35CD9
  8
0
 10
186.47020099472951
 20
298.14757952559239
 30
0.0
 70
    32
  0
VERTEX
  5
35CDA
  8
0
 10
187.31955417145221
 20
295.48805259740902
 30
0.0
 70
    32
  0
VERTEX
  5
35CDB
  8
0
 10
188.24774775998861
 20
292.8832711840268
 30
0.0
 70
    32
  0
VERTEX
  5
35CDC
  8
0
 10
189.25307003784559
 20
290.33803887705881
 30
0.0
 70
    32
  0
VERTEX
  5
35CDD
  8
0
 10
190.33366704612939
 20
287.85704945100127
 30
0.0
 70
    32
  0
VERTEX
  5
35CDE
  8
0
 10
191.48754600851859
 20
285.44487820723589
 30
0.0
 70
    32
  0
VERTEX
  5
35CDF
  8
0
 10
192.09130642125359
 20
284.26599470925061
 30
0.0
 70
    32
  0
VERTEX
  5
35CE0
  8
0
 10
192.71257900622459
 20
283.10597353651752
 30
0.0
 70
    32
  0
VERTEX
  5
35CE1
  8
0
 10
194.0065069021839
 20
280.84464871550108
 30
0.0
 70
    32
  0
VERTEX
  5
35CE2
  8
0
 10
195.36694350723059
 20
278.66507395243889
 30
0.0
 70
    32
  0
VERTEX
  5
35CE3
  8
0
 10
196.07132322899179
 20
277.60720501423748
 30
0.0
 70
    32
  0
SEQEND
  5
35CE4
  8
0
  0
POLYLINE
  5
35CE5
  8
0
 66
     1
 10
0.0
 20
0.0
 30
0.0
 70
     8
  0
VERTEX
  5
35CE6
  8
0
 10
264.07132322899179
 20
277.60720501423748
 30
0.0
 70
    32
  0
VERTEX
  5
35CE7
  8
0
 10
264.77570295075287
 20
278.66507395243889
 30
0.0
 70
    32
  0
VERTEX
  5
35CE8
  8
0
 10
266.13613955579967
 20
280.84464871550108
 30
0.0
 70
    32
  0
VERTEX
  5
35CE9
  8
0
 10
267.43006745175899
 20
283.10597353651752
 30
0.0
 70
    32
  0
VERTEX
  5
35CEA
  8
0
 10
268.05134003672993
 20
284.26599470925061
 30
0.0
 70
    32
  0
VERTEX
  5
35CEB
  8
0
 10
268.65510044946501
 20
285.44487820723589
 30
0.0
 70
    32
  0
VERTEX
  5
35CEC
  8
0
 10
269.80897941185412
 20
287.85704945100127
 30
0.0
 70
    32
  0
VERTEX
  5
35CED
  8
0
 10
270.88957642013793
 20
290.33803887705881
 30
0.0
 70
    32
  0
VERTEX
  5
35CEE
  8
0
 10
271.8948986979949
 20
292.8832711840268
 30
0.0
 70
    32
  0
VERTEX
  5
35CEF
  8
0
 10
272.82309228653139
 20
295.48805259740902
 30
0.0
 70
    32
  0
VERTEX
  5
35CF0
  8
0
 10
273.67244546325401
 20
298.14757952559239
 30
0.0
 70
    32
  0
VERTEX
  5
35CF1
  8
0
 10
274.06706165898049
 20
299.49634358337062
 30
0.0
 70
    32
  0
VERTEX
  5
35CF2
  8
0
 10
274.44139189872931
 20
300.85694741835869
 30
0.0
 70
    32
  0
VERTEX
  5
35CF3
  8
0
 10
275.1285135451198
 20
303.61115981158167
 30
0.0
 70
    32
  0
VERTEX
  5
35CF4
  8
0
 10
275.73254325126982
 20
306.40513754142597
 30
0.0
 70
    32
  0
VERTEX
  5
35CF5
  8
0
 10
276.25236709951417
 20
309.23372811105543
 30
0.0
 70
    32
  0
VERTEX
  5
35CF6
  8
0
 10
276.68702645990112
 20
312.0917151925774
 30
0.0
 70
    32
  0
VERTEX
  5
35CF7
  8
0
 10
277.03571975804789
 20
314.97382824670422
 30
0.0
 70
    32
  0
VERTEX
  5
35CF8
  8
0
 10
277.17762195643257
 20
316.42227253671717
 30
0.0
 70
    32
  0
VERTEX
  5
35CF9
  8
0
 10
277.29780395335371
 20
317.87475224238369
 30
0.0
 70
    32
  0
VERTEX
  5
35CFA
  8
0
 10
277.4727957248615
 20
320.78913745848058
 30
0.0
 70
    32
  0
VERTEX
  5
35CFB
  8
0
 10
277.56037236257453
 20
323.71160934943458
 30
0.0
 70
    32
  0
VERTEX
  5
35CFC
  8
0
 10
277.57132322899179
 20
325.1741939030635
 30
0.0
 70
    32
  0
SEQEND
  5
35CFD
  8
0
  0
LINE
  5
35D53
  8
0
 10
242.82132322899179
 20
405.0908910016359
 30
0.0
 11
217.32132322899179
 21
405.0908910016359
 31
0.0
  0
LINE
  5
35D54
  8
0
 10
270.42132322899221
 20
401.79089100163583
 30
0.0
 11
189.72132322899139
 21
401.79089100163583
 31
0.0
  0
LINE
  5
35D55
  8
0
 10
277.07132322899179
 20
398.29089100163583
 30
0.0
 11
183.07132322899179
 21
398.29089100163583
 31
0.0
  0
LINE
  5
35D56
  8
0
 10
281.07132322899179
 20
393.29089100163583
 30
0.0
 11
179.07132322899179
 21
393.29089100163583
 31
0.0
  0
POLYLINE
  5
35D57
  8
2
 66
     1
 10
0.0
 20
0.0
 30
0.0
 70
     8
  0
VERTEX
  5
35D58
  8
2
 10
269.11190351957612
 20
275.34922433496922
 30
0.0
 70
    32
  0
VERTEX
  5
35D59
  8
2
 10
269.1927481728344
 20
274.7870458568546
 30
0.0
 70
    32
  0
VERTEX
  5
35D5A
  8
2
 10
269.30735851158721
 20
273.73125596413053
 30
0.0
 70
    32
  0
VERTEX
  5
35D5B
  8
2
 10
269.36413309537153
 20
272.72249542021842
 30
0.0
 70
    32
  0
VERTEX
  5
35D5C
  8
2
 10
269.37132322899191
 20
272.22005766830262
 30
0.0
 70
    32
  0
SEQEND
  5
35D5D
  8
2
  0
POLYLINE
  5
35D5E
  8
2
 66
     1
 10
0.0
 20
0.0
 30
0.0
 70
     8
  0
VERTEX
  5
35D5F
  8
2
 10
264.67132322899221
 20
272.22005766830262
 30
0.0
 70
    32
  0
VERTEX
  5
35D60
  8
2
 10
264.67851336261168
 20
272.72249542021842
 30
0.0
 70
    32
  0
VERTEX
  5
35D61
  8
2
 10
264.735287946396
 20
273.73125596413053
 30
0.0
 70
    32
  0
VERTEX
  5
35D62
  8
2
 10
264.84989828514881
 20
274.7870458568546
 30
0.0
 70
    32
  0
VERTEX
  5
35D63
  8
2
 10
264.93074293840709
 20
275.34922433496922
 30
0.0
 70
    32
  0
SEQEND
  5
35D64
  8
2
  0
POLYLINE
  5
35D65
  8
2
 66
     1
 10
0.0
 20
0.0
 30
0.0
 70
     8
  0
VERTEX
  5
35D66
  8
2
 10
264.93074293840709
 20
262.8325576683028
 30
0.0
 70
    32
  0
VERTEX
  5
35D67
  8
2
 10
264.84989828514881
 20
263.39473614641747
 30
0.0
 70
    32
  0
VERTEX
  5
35D68
  8
2
 10
264.735287946396
 20
264.45052603914161
 30
0.0
 70
    32
  0
VERTEX
  5
35D69
  8
2
 10
264.67851336261168
 20
265.45928658305371
 30
0.0
 70
    32
  0
VERTEX
  5
35D6A
  8
2
 10
264.67132322899221
 20
265.9617243349694
 30
0.0
 70
    32
  0
SEQEND
  5
35D6B
  8
2
  0
POLYLINE
  5
35D6C
  8
2
 66
     1
 10
0.0
 20
0.0
 30
0.0
 70
     8
  0
VERTEX
  5
35D6D
  8
2
 10
196.07132322899179
 20
272.22005766830262
 30
0.0
 70
    32
  0
VERTEX
  5
35D6E
  8
2
 10
196.0641330953722
 20
271.71761991638732
 30
0.0
 70
    32
  0
VERTEX
  5
35D6F
  8
2
 10
196.0073585115878
 20
270.70885937247482
 30
0.0
 70
    32
  0
VERTEX
  5
35D70
  8
2
 10
195.89274817283419
 20
269.65306947975068
 30
0.0
 70
    32
  0
VERTEX
  5
35D71
  8
2
 10
195.81190351957591
 20
269.09089100163601
 30
0.0
 70
    32
  0
SEQEND
  5
35D72
  8
2
  0
POLYLINE
  5
35D73
  8
2
 66
     1
 10
0.0
 20
0.0
 30
0.0
 70
     8
  0
VERTEX
  5
35D74
  8
2
 10
190.83074293840761
 20
269.09089100163601
 30
0.0
 70
    32
  0
VERTEX
  5
35D75
  8
2
 10
190.7498982851493
 20
269.65306947975068
 30
0.0
 70
    32
  0
VERTEX
  5
35D76
  8
2
 10
190.63528794639569
 20
270.70885937247482
 30
0.0
 70
    32
  0
VERTEX
  5
35D77
  8
2
 10
190.5785133626114
 20
271.71761991638732
 30
0.0
 70
    32
  0
VERTEX
  5
35D78
  8
2
 10
190.57132322899179
 20
272.22005766830262
 30
0.0
 70
    32
  0
SEQEND
  5
35D79
  8
2
  0
POLYLINE
  5
35D7A
  8
2
 66
     1
 10
0.0
 20
0.0
 30
0.0
 70
     8
  0
VERTEX
  5
35D7B
  8
2
 10
196.07132322899179
 20
265.9617243349694
 30
0.0
 70
    32
  0
VERTEX
  5
35D7C
  8
2
 10
196.0641330953722
 20
265.45928658305371
 30
0.0
 70
    32
  0
VERTEX
  5
35D7D
  8
2
 10
196.0073585115878
 20
264.45052603914161
 30
0.0
 70
    32
  0
VERTEX
  5
35D7E
  8
2
 10
195.89274817283419
 20
263.39473614641747
 30
0.0
 70
    32
  0
VERTEX
  5
35D7F
  8
2
 10
195.81190351957591
 20
262.8325576683028
 30
0.0
 70
    32
  0
SEQEND
  5
35D80
  8
2
  0
POLYLINE
  5
35D81
  8
2
 66
     1
 10
0.0
 20
0.0
 30
0.0
 70
     8
  0
VERTEX
  5
35D82
  8
2
 10
190.57132322899179
 20
265.9617243349694
 30
0.0
 70
    32
  0
VERTEX
  5
35D83
  8
2
 10
190.5785133626114
 20
266.4641620868847
 30
0.0
 70
    32
  0
VERTEX
  5
35D84
  8
2
 10
190.63528794639569
 20
267.4729226307972
 30
0.0
 70
    32
  0
VERTEX
  5
35D85
  8
2
 10
190.7498982851493
 20
268.52871252352128
 30
0.0
 70
    32
  0
VERTEX
  5
35D86
  8
2
 10
190.83074293840761
 20
269.09089100163601
 30
0.0
 70
    32
  0
SEQEND
  5
35D87
  8
2
  0
LINE
  5
35D88
  8
0
 10
264.07132322899179
 20
274.90589100163612
 30
0.0
 11
264.67132322899221
 21
274.90589100163612
 31
0.0
  0
LINE
  5
35D89
  8
0
 10
264.67132322899221
 20
263.2758910016359
 30
0.0
 11
264.07132322899179
 21
263.2758910016359
 31
0.0
  0
LINE
  5
35D8A
  8
0
 10
186.83832322899161
 20
273.09089100163601
 30
0.0
 11
188.07132322899179
 21
273.09089100163601
 31
0.0
  0
LINE
  5
35D8B
  8
0
 10
188.07132322899179
 20
265.09089100163601
 30
0.0
 11
186.83832322899161
 21
265.09089100163601
 31
0.0
  0
LINE
  5
35D8C
  8
0
 10
186.0713232289917
 20
272.32389100163618
 30
0.0
 11
186.83832322899161
 21
273.09089100163601
 31
0.0
  0
LINE
  5
35D8D
  8
0
 10
186.83832322899161
 20
265.09089100163601
 30
0.0
 11
186.0713232289917
 21
265.85789100163589
 31
0.0
  0
LINE
  5
35D8E
  8
0
 10
188.07132322899179
 20
274.90589100163612
 30
0.0
 11
190.57132322899179
 21
274.90589100163612
 31
0.0
  0
LINE
  5
35D8F
  8
0
 10
190.57132322899179
 20
263.2758910016359
 30
0.0
 11
188.07132322899179
 21
263.2758910016359
 31
0.0
  0
LINE
  5
35D90
  8
0
 10
200.57132322899179
 20
279.09089100163601
 30
0.0
 11
205.07132322899179
 21
279.09089100163601
 31
0.0
  0
LINE
  5
35D91
  8
0
 10
255.07132322899179
 20
279.09089100163601
 30
0.0
 11
259.57132322899179
 21
279.09089100163601
 31
0.0
  0
LINE
  5
35D92
  8
0
 10
259.57132322899179
 20
259.09089100163601
 30
0.0
 11
255.07132322899179
 21
259.09089100163601
 31
0.0
  0
LINE
  5
35D93
  8
0
 10
205.07132322899179
 20
259.09089100163601
 30
0.0
 11
200.57132322899179
 21
259.09089100163601
 31
0.0
  0
LINE
  5
35D94
  8
0
 10
186.83832322899161
 20
265.09089100163601
 30
0.0
 11
186.83832322899161
 21
273.09089100163601
 31
0.0
  0
LINE
  5
35D95
  8
0
 10
186.0713232289917
 20
265.85789100163589
 30
0.0
 11
186.0713232289917
 21
272.32389100163618
 31
0.0
  0
LINE
  5
35D96
  8
0
 10
269.37132322899191
 20
262.8325576683028
 30
0.0
 11
269.37132322899191
 21
275.34922433496922
 31
0.0
  0
LINE
  5
35D97
  8
0
 10
264.67132322899221
 20
262.8325576683028
 30
0.0
 11
264.67132322899221
 21
275.34922433496922
 31
0.0
  0
LINE
  5
35D98
  8
0
 10
269.37132322899191
 20
262.8325576683028
 30
0.0
 11
264.67132322899221
 21
262.8325576683028
 31
0.0
  0
POLYLINE
  5
35D99
  8
0
 66
     1
 10
0.0
 20
0.0
 30
0.0
 70
     8
  0
VERTEX
  5
35D9A
  8
0
 10
264.67132322899221
 20
272.22005766830262
 30
0.0
 70
    32
  0
VERTEX
  5
35D9B
  8
0
 10
264.67851336261168
 20
271.71761991638732
 30
0.0
 70
    32
  0
VERTEX
  5
35D9C
  8
0
 10
264.735287946396
 20
270.70885937247482
 30
0.0
 70
    32
  0
VERTEX
  5
35D9D
  8
0
 10
264.84989828514881
 20
269.65306947975068
 30
0.0
 70
    32
  0
VERTEX
  5
35D9E
  8
0
 10
264.93074293840709
 20
269.09089100163601
 30
0.0
 70
    32
  0
SEQEND
  5
35D9F
  8
0
  0
POLYLINE
  5
35DA0
  8
0
 66
     1
 10
0.0
 20
0.0
 30
0.0
 70
     8
  0
VERTEX
  5
35DA1
  8
0
 10
269.11190351957612
 20
269.09089100163601
 30
0.0
 70
    32
  0
VERTEX
  5
35DA2
  8
0
 10
269.1927481728344
 20
269.65306947975068
 30
0.0
 70
    32
  0
VERTEX
  5
35DA3
  8
0
 10
269.30735851158721
 20
270.70885937247482
 30
0.0
 70
    32
  0
VERTEX
  5
35DA4
  8
0
 10
269.36413309537153
 20
271.71761991638732
 30
0.0
 70
    32
  0
VERTEX
  5
35DA5
  8
0
 10
269.37132322899191
 20
272.22005766830262
 30
0.0
 70
    32
  0
SEQEND
  5
35DA6
  8
0
  0
POLYLINE
  5
35DA7
  8
0
 66
     1
 10
0.0
 20
0.0
 30
0.0
 70
     8
  0
VERTEX
  5
35DA8
  8
0
 10
269.37132322899191
 20
272.22005766830262
 30
0.0
 70
    32
  0
VERTEX
  5
35DA9
  8
0
 10
269.36413309537153
 20
272.72249542021842
 30
0.0
 70
    32
  0
VERTEX
  5
35DAA
  8
0
 10
269.30735851158721
 20
273.73125596413053
 30
0.0
 70
    32
  0
VERTEX
  5
35DAB
  8
0
 10
269.1927481728344
 20
274.7870458568546
 30
0.0
 70
    32
  0
VERTEX
  5
35DAC
  8
0
 10
269.11190351957612
 20
275.34922433496922
 30
0.0
 70
    32
  0
SEQEND
  5
35DAD
  8
0
  0
POLYLINE
  5
35DAE
  8
0
 66
     1
 10
0.0
 20
0.0
 30
0.0
 70
     8
  0
VERTEX
  5
35DAF
  8
0
 10
264.93074293840709
 20
275.34922433496922
 30
0.0
 70
    32
  0
VERTEX
  5
35DB0
  8
0
 10
264.84989828514881
 20
274.7870458568546
 30
0.0
 70
    32
  0
VERTEX
  5
35DB1
  8
0
 10
264.735287946396
 20
273.73125596413053
 30
0.0
 70
    32
  0
VERTEX
  5
35DB2
  8
0
 10
264.67851336261168
 20
272.72249542021842
 30
0.0
 70
    32
  0
VERTEX
  5
35DB3
  8
0
 10
264.67132322899221
 20
272.22005766830262
 30
0.0
 70
    32
  0
SEQEND
  5
35DB4
  8
0
  0
POLYLINE
  5
35DB5
  8
0
 66
     1
 10
0.0
 20
0.0
 30
0.0
 70
     8
  0
VERTEX
  5
35DB6
  8
0
 10
264.67132322899221
 20
265.9617243349694
 30
0.0
 70
    32
  0
VERTEX
  5
35DB7
  8
0
 10
264.67851336261168
 20
265.45928658305371
 30
0.0
 70
    32
  0
VERTEX
  5
35DB8
  8
0
 10
264.735287946396
 20
264.45052603914161
 30
0.0
 70
    32
  0
VERTEX
  5
35DB9
  8
0
 10
264.84989828514881
 20
263.39473614641747
 30
0.0
 70
    32
  0
VERTEX
  5
35DBA
  8
0
 10
264.93074293840709
 20
262.8325576683028
 30
0.0
 70
    32
  0
SEQEND
  5
35DBB
  8
0
  0
POLYLINE
  5
35DBC
  8
0
 66
     1
 10
0.0
 20
0.0
 30
0.0
 70
     8
  0
VERTEX
  5
35DBD
  8
0
 10
269.11190351957612
 20
262.8325576683028
 30
0.0
 70
    32
  0
VERTEX
  5
35DBE
  8
0
 10
269.1927481728344
 20
263.39473614641747
 30
0.0
 70
    32
  0
VERTEX
  5
35DBF
  8
0
 10
269.30735851158721
 20
264.45052603914161
 30
0.0
 70
    32
  0
VERTEX
  5
35DC0
  8
0
 10
269.36413309537153
 20
265.45928658305371
 30
0.0
 70
    32
  0
VERTEX
  5
35DC1
  8
0
 10
269.37132322899191
 20
265.9617243349694
 30
0.0
 70
    32
  0
SEQEND
  5
35DC2
  8
0
  0
POLYLINE
  5
35DC3
  8
0
 66
     1
 10
0.0
 20
0.0
 30
0.0
 70
     8
  0
VERTEX
  5
35DC4
  8
0
 10
269.37132322899191
 20
265.9617243349694
 30
0.0
 70
    32
  0
VERTEX
  5
35DC5
  8
0
 10
269.36413309537153
 20
266.4641620868847
 30
0.0
 70
    32
  0
VERTEX
  5
35DC6
  8
0
 10
269.30735851158721
 20
267.4729226307972
 30
0.0
 70
    32
  0
VERTEX
  5
35DC7
  8
0
 10
269.1927481728344
 20
268.52871252352128
 30
0.0
 70
    32
  0
VERTEX
  5
35DC8
  8
0
 10
269.11190351957612
 20
269.09089100163601
 30
0.0
 70
    32
  0
SEQEND
  5
35DC9
  8
0
  0
LINE
  5
35DCA
  8
0
 10
269.11190351957612
 20
269.09089100163601
 30
0.0
 11
264.93074293840709
 21
269.09089100163601
 31
0.0
  0
POLYLINE
  5
35DCB
  8
0
 66
     1
 10
0.0
 20
0.0
 30
0.0
 70
     8
  0
VERTEX
  5
35DCC
  8
0
 10
264.93074293840709
 20
269.09089100163601
 30
0.0
 70
    32
  0
VERTEX
  5
35DCD
  8
0
 10
264.84989828514881
 20
268.52871252352128
 30
0.0
 70
    32
  0
VERTEX
  5
35DCE
  8
0
 10
264.735287946396
 20
267.4729226307972
 30
0.0
 70
    32
  0
VERTEX
  5
35DCF
  8
0
 10
264.67851336261168
 20
266.4641620868847
 30
0.0
 70
    32
  0
VERTEX
  5
35DD0
  8
0
 10
264.67132322899221
 20
265.9617243349694
 30
0.0
 70
    32
  0
SEQEND
  5
35DD1
  8
0
  0
LINE
  5
35DD2
  8
0
 10
264.67132322899221
 20
275.34922433496922
 30
0.0
 11
269.37132322899191
 21
275.34922433496922
 31
0.0
  0
LINE
  5
35DD3
  8
0
 10
188.07132322899179
 20
263.2758910016359
 30
0.0
 11
188.07132322899179
 21
274.90589100163612
 31
0.0
  0
LINE
  5
35DD4
  8
0
 10
190.57132322899179
 20
262.8325576683028
 30
0.0
 11
190.57132322899179
 21
275.34922433496922
 31
0.0
  0
LINE
  5
35DD5
  8
0
 10
196.07132322899179
 20
262.8325576683028
 30
0.0
 11
190.57132322899179
 21
262.8325576683028
 31
0.0
  0
POLYLINE
  5
35DD6
  8
0
 66
     1
 10
0.0
 20
0.0
 30
0.0
 70
     8
  0
VERTEX
  5
35DD7
  8
0
 10
190.57132322899179
 20
272.22005766830262
 30
0.0
 70
    32
  0
VERTEX
  5
35DD8
  8
0
 10
190.5785133626114
 20
271.71761991638732
 30
0.0
 70
    32
  0
VERTEX
  5
35DD9
  8
0
 10
190.63528794639569
 20
270.70885937247482
 30
0.0
 70
    32
  0
VERTEX
  5
35DDA
  8
0
 10
190.7498982851493
 20
269.65306947975068
 30
0.0
 70
    32
  0
VERTEX
  5
35DDB
  8
0
 10
190.83074293840761
 20
269.09089100163601
 30
0.0
 70
    32
  0
SEQEND
  5
35DDC
  8
0
  0
POLYLINE
  5
35DDD
  8
0
 66
     1
 10
0.0
 20
0.0
 30
0.0
 70
     8
  0
VERTEX
  5
35DDE
  8
0
 10
195.81190351957591
 20
269.09089100163601
 30
0.0
 70
    32
  0
VERTEX
  5
35DDF
  8
0
 10
195.89274817283149
 20
269.65306947972982
 30
0.0
 70
    32
  0
VERTEX
  5
35DE0
  8
0
 10
196.0073585115824
 20
270.70885937241519
 30
0.0
 70
    32
  0
VERTEX
  5
35DE1
  8
0
 10
196.0641330953695
 20
271.71761991629
 30
0.0
 70
    32
  0
VERTEX
  5
35DE2
  8
0
 10
196.07132322899179
 20
272.22005766818529
 30
0.0
 70
    32
  0
SEQEND
  5
35DE3
  8
0
  0
POLYLINE
  5
35DE4
  8
0
 66
     1
 10
0.0
 20
0.0
 30
0.0
 70
     8
  0
VERTEX
  5
35DE5
  8
0
 10
196.07132322899179
 20
272.22005766830262
 30
0.0
 70
    32
  0
VERTEX
  5
35DE6
  8
0
 10
196.0641330953722
 20
272.72249542021842
 30
0.0
 70
    32
  0
VERTEX
  5
35DE7
  8
0
 10
196.0073585115878
 20
273.73125596413053
 30
0.0
 70
    32
  0
VERTEX
  5
35DE8
  8
0
 10
195.89274817283419
 20
274.7870458568546
 30
0.0
 70
    32
  0
VERTEX
  5
35DE9
  8
0
 10
195.81190351957591
 20
275.34922433496922
 30
0.0
 70
    32
  0
SEQEND
  5
35DEA
  8
0
  0
POLYLINE
  5
35DEB
  8
0
 66
     1
 10
0.0
 20
0.0
 30
0.0
 70
     8
  0
VERTEX
  5
35DEC
  8
0
 10
190.83074293840761
 20
275.34922433496922
 30
0.0
 70
    32
  0
VERTEX
  5
35DED
  8
0
 10
190.7498982851493
 20
274.7870458568546
 30
0.0
 70
    32
  0
VERTEX
  5
35DEE
  8
0
 10
190.63528794639569
 20
273.73125596413053
 30
0.0
 70
    32
  0
VERTEX
  5
35DEF
  8
0
 10
190.5785133626114
 20
272.72249542021842
 30
0.0
 70
    32
  0
VERTEX
  5
35DF0
  8
0
 10
190.57132322899179
 20
272.22005766830262
 30
0.0
 70
    32
  0
SEQEND
  5
35DF1
  8
0
  0
POLYLINE
  5
35DF2
  8
0
 66
     1
 10
0.0
 20
0.0
 30
0.0
 70
     8
  0
VERTEX
  5
35DF3
  8
0
 10
190.57132322899179
 20
265.9617243349694
 30
0.0
 70
    32
  0
VERTEX
  5
35DF4
  8
0
 10
190.5785133626114
 20
265.45928658305371
 30
0.0
 70
    32
  0
VERTEX
  5
35DF5
  8
0
 10
190.63528794639569
 20
264.45052603914161
 30
0.0
 70
    32
  0
VERTEX
  5
35DF6
  8
0
 10
190.7498982851493
 20
263.39473614641747
 30
0.0
 70
    32
  0
VERTEX
  5
35DF7
  8
0
 10
190.83074293840761
 20
262.8325576683028
 30
0.0
 70
    32
  0
SEQEND
  5
35DF8
  8
0
  0
POLYLINE
  5
35DF9
  8
0
 66
     1
 10
0.0
 20
0.0
 30
0.0
 70
     8
  0
VERTEX
  5
35DFA
  8
0
 10
195.81190351957591
 20
262.8325576683028
 30
0.0
 70
    32
  0
VERTEX
  5
35DFB
  8
0
 10
195.89274817283061
 20
263.3947361463874
 30
0.0
 70
    32
  0
VERTEX
  5
35DFC
  8
0
 10
196.00735851158061
 20
264.45052603905702
 30
0.0
 70
    32
  0
VERTEX
  5
35DFD
  8
0
 10
196.06413309536759
 20
265.45928658291592
 30
0.0
 70
    32
  0
VERTEX
  5
35DFE
  8
0
 10
196.07132322899179
 20
265.96172433480302
 30
0.0
 70
    32
  0
SEQEND
  5
35DFF
  8
0
  0
POLYLINE
  5
35E00
  8
0
 66
     1
 10
0.0
 20
0.0
 30
0.0
 70
     8
  0
VERTEX
  5
35E01
  8
0
 10
196.07132322899179
 20
265.9617243349694
 30
0.0
 70
    32
  0
VERTEX
  5
35E02
  8
0
 10
196.0641330953722
 20
266.4641620868847
 30
0.0
 70
    32
  0
VERTEX
  5
35E03
  8
0
 10
196.0073585115878
 20
267.4729226307972
 30
0.0
 70
    32
  0
VERTEX
  5
35E04
  8
0
 10
195.89274817283419
 20
268.52871252352128
 30
0.0
 70
    32
  0
VERTEX
  5
35E05
  8
0
 10
195.81190351957591
 20
269.09089100163601
 30
0.0
 70
    32
  0
SEQEND
  5
35E06
  8
0
  0
LINE
  5
35E07
  8
0
 10
195.81190351957591
 20
269.09089100163601
 30
0.0
 11
190.83074293840761
 21
269.09089100163601
 31
0.0
  0
POLYLINE
  5
35E08
  8
0
 66
     1
 10
0.0
 20
0.0
 30
0.0
 70
     8
  0
VERTEX
  5
35E09
  8
0
 10
190.83074293840761
 20
269.09089100163601
 30
0.0
 70
    32
  0
VERTEX
  5
35E0A
  8
0
 10
190.7498982851493
 20
268.52871252352128
 30
0.0
 70
    32
  0
VERTEX
  5
35E0B
  8
0
 10
190.63528794639569
 20
267.4729226307972
 30
0.0
 70
    32
  0
VERTEX
  5
35E0C
  8
0
 10
190.5785133626114
 20
266.4641620868847
 30
0.0
 70
    32
  0
VERTEX
  5
35E0D
  8
0
 10
190.57132322899179
 20
265.9617243349694
 30
0.0
 70
    32
  0
SEQEND
  5
35E0E
  8
0
  0
LINE
  5
35E0F
  8
0
 10
190.57132322899179
 20
275.34922433496922
 30
0.0
 11
196.07132322899179
 21
275.34922433496922
 31
0.0
  0
LINE
  5
35E10
  8
0
 10
259.57132322899179
 20
259.09089100163601
 30
0.0
 11
259.57132322899179
 21
263.37096052166999
 31
0.0
  0
LINE
  5
35E11
  8
0
 10
200.57132322899179
 20
259.09089100163601
 30
0.0
 11
200.57132322899179
 21
263.37096052166999
 31
0.0
  0
LINE
  5
35E12
  8
0
 10
227.07132322899179
 20
369.09089100163601
 30
0.0
 11
233.07132322899179
 21
369.09089100163601
 31
0.0
  0
LINE
  5
35E13
  8
0
 10
233.07132322899179
 20
169.09089100163601
 30
0.0
 11
227.07132322899179
 21
169.09089100163601
 31
0.0
  0
ARC
  5
35E14
  8
0
 10
227.07132322899179
 20
169.39089100163619
 30
0.0
 40
0.3000000000000114
 50
180.0
 51
270.0
  0
ARC
  5
35E15
  8
0
 10
227.07132322899179
 20
368.79089100163583
 30
0.0
 40
0.3000000000000074
 50
90.0
 51
180.0
  0
LINE
  5
35E16
  8
0
 10
224.371323228992
 20
368.79089100163583
 30
0.0
 11
226.7713232289916
 21
368.79089100163583
 31
0.0
  0
LINE
  5
35E17
  8
0
 10
226.7713232289916
 20
169.39089100163619
 30
0.0
 11
224.371323228992
 21
169.39089100163619
 31
0.0
  0
ARC
  5
35E18
  8
0
 10
224.07132322899179
 20
169.39089100163619
 30
0.0
 40
0.3000000000000034
 50
270.0
 51
0.0
  0
ARC
  5
35E19
  8
0
 10
224.07132322899179
 20
368.79089100163583
 30
0.0
 40
0.3000000000000114
 50
0.0
 51
90.0
  0
LINE
  5
35E1A
  8
0
 10
219.55772082847579
 20
369.09089100163601
 30
0.0
 11
224.07132322899179
 21
369.09089100163601
 31
0.0
  0
LINE
  5
35E1B
  8
0
 10
224.07132322899179
 20
169.09089100163601
 30
0.0
 11
219.55772082847579
 21
169.09089100163601
 31
0.0
  0
ARC
  5
35E1C
  8
0
 10
219.55772082847579
 20
170.09089100163601
 30
0.0
 40
1.0000000000000131
 50
198.9999999999711
 51
270.0
  0
ARC
  5
35E1D
  8
0
 10
219.55772082847579
 20
368.09089100163601
 30
0.0
 40
1.0000000000000151
 50
90.0
 51
161.0000000000289
  0
LINE
  5
35E1E
  8
0
 10
215.45465310132019
 20
359.2462705633493
 30
0.0
 11
218.61220225287619
 21
368.41645915609303
 31
0.0
  0
LINE
  5
35E1F
  8
0
 10
218.61220225287619
 20
169.76532284717899
 30
0.0
 11
215.45465310132019
 21
178.93551143992269
 31
0.0
  0
ARC
  5
35E20
  8
0
 10
218.29120882811819
 20
179.912215903294
 30
0.0
 40
2.9999999999998721
 50
179.99999914622629
 51
198.9999999999711
  0
ARC
  5
35E21
  8
0
 10
218.29120882811819
 20
358.26956609997791
 30
0.0
 40
2.999999999999869
 50
161.0000000000289
 51
180.0
  0
ARC
  5
35E22
  8
0
 10
214.45787549478521
 20
181.8303638074467
 30
0.0
 40
0.8333333333333374
 50
180.0
 51
0.0000008537736463
  0
ARC
  5
35E23
  8
0
 10
214.45787549478521
 20
356.35141819582532
 30
0.0
 40
0.8333333333333322
 50
0.0000008537736463
 51
180.0
  0
ARC
  5
35E24
  8
0
 10
212.79120882811819
 20
186.6707152702393
 30
0.0
 40
0.8333333333333322
 50
180.0
 51
0.0
  0
ARC
  5
35E25
  8
0
 10
212.79120882811819
 20
351.51106673303269
 30
0.0
 40
0.8333333333333322
 50
0.0
 51
180.0
  0
LINE
  5
35E26
  8
0
 10
205.23476750219379
 20
329.56556763776331
 30
0.0
 11
211.95787549478521
 21
349.09089100163601
 31
0.0
  0
LINE
  5
35E27
  8
0
 10
211.95787549478521
 20
189.09089100163601
 30
0.0
 11
205.23476750219379
 21
208.6162143655088
 31
0.0
  0
ARC
  5
35E28
  8
0
 10
208.07132322899179
 20
209.5929188288801
 30
0.0
 40
2.9999999999999178
 50
180.0
 51
198.9999999999711
  0
ARC
  5
35E29
  8
0
 10
208.07132322899179
 20
328.58886317439192
 30
0.0
 40
2.9999999999999138
 50
161.0000000000289
 51
180.0
  0
ARC
  5
35E2A
  8
0
 10
252.07132322899179
 20
209.5929188288801
 30
0.0
 40
2.9999999999995981
 50
341.00000000002888
 51
0.0
  0
ARC
  5
35E2B
  8
0
 10
252.07132322899179
 20
328.58886317439192
 30
0.0
 40
2.9999999999995981
 50
0.0
 51
18.99999999997107
  0
LINE
  5
35E2C
  8
0
 10
248.18477096319839
 20
349.09089100163601
 30
0.0
 11
254.90787895578981
 21
329.56556763776331
 31
0.0
  0
LINE
  5
35E2D
  8
0
 10
254.90787895578981
 20
208.6162143655088
 30
0.0
 11
248.18477096319839
 21
189.09089100163601
 31
0.0
  0
ARC
  5
35E2E
  8
0
 10
247.35143762986539
 20
186.6707152702393
 30
0.0
 40
0.8333333333333357
 50
180.0
 51
0.0
  0
ARC
  5
35E2F
  8
0
 10
247.35143762986539
 20
351.51106673303269
 30
0.0
 40
0.8333333333333357
 50
0.0
 51
180.0
  0
ARC
  5
35E30
  8
0
 10
245.68477096319839
 20
181.8303638074467
 30
0.0
 40
0.8333333333333322
 50
180.0
 51
0.0
  0
ARC
  5
35E31
  8
0
 10
245.68477096319839
 20
356.35141819582532
 30
0.0
 40
0.8333333333333303
 50
0.0000008537736463
 51
179.99999914622629
  0
ARC
  5
35E32
  8
0
 10
241.85143762986539
 20
179.912215903294
 30
0.0
 40
3.0000000000000382
 50
341.00000000002888
 51
0.0
  0
ARC
  5
35E33
  8
0
 10
241.85143762986539
 20
358.26956609997791
 30
0.0
 40
2.9999999999998739
 50
0.0
 51
18.99999999997107
  0
LINE
  5
35E34
  8
0
 10
241.53044420510739
 20
368.41645915609303
 30
0.0
 11
244.68799335666341
 21
359.2462705633493
 31
0.0
  0
LINE
  5
35E35
  8
0
 10
244.68799335666341
 20
178.93551143992269
 30
0.0
 11
241.53044420510739
 21
169.76532284717899
 31
0.0
  0
ARC
  5
35E36
  8
0
 10
240.58492562950781
 20
170.09089100163601
 30
0.0
 40
1.0000000000000131
 50
270.0
 51
341.00000000002888
  0
ARC
  5
35E37
  8
0
 10
240.58492562950781
 20
368.09089100163601
 30
0.0
 40
1.0000000000000131
 50
18.99999999997107
 51
90.0
  0
LINE
  5
35E38
  8
0
 10
236.07132322899179
 20
369.09089100163601
 30
0.0
 11
240.58492562950781
 21
369.09089100163601
 31
0.0
  0
LINE
  5
35E39
  8
0
 10
240.58492562950781
 20
169.09089100163601
 30
0.0
 11
236.07132322899179
 21
169.09089100163601
 31
0.0
  0
ARC
  5
35E3A
  8
0
 10
236.07132322899179
 20
169.39089100163619
 30
0.0
 40
0.3000000000000114
 50
180.0
 51
270.0
  0
ARC
  5
35E3B
  8
0
 10
236.07132322899179
 20
368.79089100163583
 30
0.0
 40
0.3000000000000078
 50
90.0
 51
180.0
  0
LINE
  5
35E3C
  8
0
 10
233.371323228992
 20
368.79089100163583
 30
0.0
 11
235.7713232289916
 21
368.79089100163583
 31
0.0
  0
LINE
  5
35E3D
  8
0
 10
235.7713232289916
 20
169.39089100163619
 30
0.0
 11
233.371323228992
 21
169.39089100163619
 31
0.0
  0
ARC
  5
35E3E
  8
0
 10
233.07132322899179
 20
169.39089100163619
 30
0.0
 40
0.3000000000000038
 50
270.0
 51
0.0
  0
ARC
  5
35E3F
  8
0
 10
233.07132322899179
 20
368.79089100163583
 30
0.0
 40
0.3000000000000114
 50
0.0
 51
90.0
  0
LINE
  5
35E40
  8
0
 10
226.7713232289916
 20
169.39089100163619
 30
0.0
 11
226.7713232289916
 21
368.79089100163583
 31
0.0
  0
LINE
  5
35E41
  8
0
 10
224.371323228992
 20
169.39089100163619
 30
0.0
 11
224.371323228992
 21
368.79089100163583
 31
0.0
  0
LINE
  5
35E42
  8
0
 10
215.29120882811819
 20
179.912215903294
 30
0.0
 11
215.29120882811819
 21
358.26956609997791
 31
0.0
  0
LINE
  5
35E43
  8
0
 10
213.62454216145221
 20
181.83036380744619
 30
0.0
 11
213.62454216145221
 21
356.35141819582577
 31
0.0
  0
LINE
  5
35E44
  8
0
 10
211.95787549478521
 20
186.6707152702393
 30
0.0
 11
211.95787549478521
 21
351.51106673303269
 31
0.0
  0
LINE
  5
35E45
  8
0
 10
205.07132322899179
 20
209.5929188288801
 30
0.0
 11
205.07132322899179
 21
328.58886317439192
 31
0.0
  0
LINE
  5
35E46
  8
0
 10
255.07132322899179
 20
209.5929188288801
 30
0.0
 11
255.07132322899179
 21
328.58886317439192
 31
0.0
  0
LINE
  5
35E47
  8
0
 10
248.18477096319839
 20
186.6707152702393
 30
0.0
 11
248.18477096319839
 21
351.51106673303269
 31
0.0
  0
LINE
  5
35E48
  8
0
 10
246.51810429653139
 20
181.83036380744619
 30
0.0
 11
246.51810429653139
 21
356.35141819582577
 31
0.0
  0
LINE
  5
35E49
  8
0
 10
244.8514376298653
 20
179.912215903294
 30
0.0
 11
244.8514376298653
 21
358.26956609997791
 31
0.0
  0
LINE
  5
35E4A
  8
0
 10
235.7713232289916
 20
169.39089100163619
 30
0.0
 11
235.7713232289916
 21
368.79089100163583
 31
0.0
  0
LINE
  5
35E4B
  8
0
 10
233.371323228992
 20
169.39089100163619
 30
0.0
 11
233.371323228992
 21
368.79089100163583
 31
0.0
  0
LINE
  5
35E4C
  8
1
 10
282.83399221200489
 20
269.09089100163601
 30
0.0
 11
177.30865424597869
 21
269.09089100163601
 31
0.0
  0
LINE
  5
35E4D
  8
1
 10
230.07132322899179
 20
152.09936402959099
 30
0.0
 11
230.07132322899179
 21
422.08241797368089
 31
0.0
  0
LINE
  5
35E4E
  8
3
 10
186.0713232289917
 20
272.32389100163618
 30
0.0
 11
188.07132322899179
 21
272.32389100163618
 31
0.0
  0
LINE
  5
35E4F
  8
3
 10
186.0713232289917
 20
265.85789100163589
 30
0.0
 11
188.07132322899179
 21
265.85789100163589
 31
0.0
  0
LINE
  5
35EA6
  8
0
 10
490.49776314819252
 20
379.017980135784
 30
0.0
 11
490.88924300676553
 21
375.8471884124844
 31
0.0
  0
LINE
  5
35EA7
  8
0
 10
493.33997551946771
 20
379.36889214585563
 30
0.0
 11
490.49776314819252
 21
379.017980135784
 31
0.0
  0
LINE
  5
35EA8
  8
0
 10
493.33997551946771
 20
379.36889214585523
 30
0.0
 11
493.56562038770602
 21
377.54128118465309
 31
0.0
  0
LINE
  5
35EA9
  8
0
 10
493.56562038770602
 20
377.5412811846536
 30
0.0
 11
493.64706030301079
 21
377.53370643442838
 31
0.0
  0
LINE
  5
35EAA
  8
0
 10
463.49776314819121
 20
378.86210699901397
 30
0.0
 11
470.47434795237001
 21
374.68765938878732
 31
0.0
  0
LINE
  5
35EAB
  8
0
 10
464.78140067674258
 20
381.00739828350112
 30
0.0
 11
463.49776314819121
 21
378.86210699901397
 31
0.0
  0
LINE
  5
35EAC
  8
0
 10
470.47434795237001
 20
377.60101667746812
 30
0.0
 11
464.78140067674258
 21
381.00739828350112
 31
0.0
  0
LINE
  5
35EAD
  8
0
 10
494.17458782705319
 20
375.56494691231097
 30
0.0
 11
470.47434795237001
 21
377.60101667746812
 31
0.0
  0
LINE
  5
35EAE
  8
0
 10
470.47434795237001
 20
374.68765938878732
 30
0.0
 11
495.01777345002222
 21
372.41813532717958
 31
0.0
  0
LINE
  5
35EAF
  8
0
 10
490.49776314819252
 20
595.50657002087382
 30
0.0
 11
490.49776314819252
 21
625.50657002087382
 31
0.0
  0
LINE
  5
35EB0
  8
0
 10
493.4977631481924
 20
585.50657002087382
 30
0.0
 11
470.49776314819161
 21
585.50657002087382
 31
0.0
  0
LINE
  5
35EB1
  8
0
 10
493.4977631481924
 20
635.50657002087382
 30
0.0
 11
470.49776314819161
 21
635.50657002087382
 31
0.0
  0
LINE
  5
35EB2
  8
0
 10
463.4977631481924
 20
595.50657002087382
 30
0.0
 11
463.4977631481924
 21
625.5065700208761
 31
0.0
  0
LINE
  5
35EB3
  8
0
 10
493.4977631481924
 20
595.50657002087382
 30
0.0
 11
490.49776314819252
 21
595.50657002087382
 31
0.0
  0
LINE
  5
35EB4
  8
0
 10
493.4977631481924
 20
625.50657002087382
 30
0.0
 11
490.49776314819252
 21
625.50657002087382
 31
0.0
  0
ARC
  5
35EB5
  8
0
 10
476.88039943957108
 20
597.42441542483903
 30
0.0
 40
13.519359640931841
 50
188.1554438521041
 51
241.82859654500189
  0
ARC
  5
35EB6
  8
0
 10
476.88039943957108
 20
623.58872461690851
 30
0.0
 40
13.519359640931841
 50
118.1714034549981
 51
171.8445561478959
  0
LINE
  5
35EB7
  8
0
 10
470.49776314819161
 20
585.50657002087382
 30
0.0
 11
470.49776314819161
 21
635.50657002087382
 31
0.0
  0
POLYLINE
  5
360F2
  8
0
 66
     1
 10
0.0
 20
0.0
 30
0.0
 70
     8
  0
VERTEX
  5
360F4
  8
0
 10
204.31651886456169
 20
378.09089100163601
 30
0.0
 70
    32
  0
VERTEX
  5
360F5
  8
0
 10
204.260383593195
 20
378.03539233533593
 30
0.0
 70
    32
  0
VERTEX
  5
360F6
  8
0
 10
203.72699870934409
 20
377.4914762494227
 30
0.0
 70
    32
  0
VERTEX
  5
360F7
  8
0
 10
202.67705892359939
 20
376.37056048778231
 30
0.0
 70
    32
  0
VERTEX
  5
360F8
  8
0
 10
201.6502974203795
 20
375.20632748879137
 30
0.0
 70
    32
  0
VERTEX
  5
360F9
  8
0
 10
200.6475829424235
 20
373.99976230979883
 30
0.0
 70
    32
  0
VERTEX
  5
360FA
  8
0
 10
200.57132322899179
 20
373.90244092656258
 30
0.0
 70
    32
  0
SEQEND
  5
360F3
  8
0
  0
POLYLINE
  5
360FB
  8
0
 66
     1
 10
0.0
 20
0.0
 30
0.0
 70
     8
  0
VERTEX
  5
360FD
  8
0
 10
259.57132322899179
 20
373.90244092656258
 30
0.0
 70
    32
  0
VERTEX
  5
360FE
  8
0
 10
259.4950635155601
 20
373.99976230979883
 30
0.0
 70
    32
  0
VERTEX
  5
360FF
  8
0
 10
258.49234903760407
 20
375.20632748879137
 30
0.0
 70
    32
  0
VERTEX
  5
36100
  8
0
 10
257.46558753438421
 20
376.37056048778231
 30
0.0
 70
    32
  0
VERTEX
  5
36101
  8
0
 10
256.4156477486394
 20
377.4914762494227
 30
0.0
 70
    32
  0
VERTEX
  5
36102
  8
0
 10
255.8822628647886
 20
378.03539233533593
 30
0.0
 70
    32
  0
VERTEX
  5
36103
  8
0
 10
255.82612759342189
 20
378.09089100163601
 30
0.0
 70
    32
  0
SEQEND
  5
360FC
  8
0
  0
LINE
  5
36104
  8
0
 10
255.07132322899179
 20
372.41813532717958
 30
0.0
 11
205.07132322899179
 21
372.41813532717998
 31
0.0
  0
LINE
  5
36105
  8
0
 10
255.07132322899179
 20
381.00739828350112
 30
0.0
 11
255.0713232289917
 21
372.41813532717958
 31
0.0
  0
LINE
  5
36106
  8
0
 10
205.07132322899179
 20
381.00739828350112
 30
0.0
 11
205.07132322899179
 21
372.43230247576372
 31
0.0
  0
LINE
  5
36107
  8
0
 10
255.07132322899179
 20
381.00739828350112
 30
0.0
 11
205.07132322899179
 21
381.00739828350112
 31
0.0
  0
LINE
  5
3610A
  8
0
 10
205.07132322899179
 20
378.09089100163652
 30
0.0
 11
196.07132322899179
 21
378.09089100163601
 31
0.0
  0
LINE
  5
3610B
  8
0
 10
900.51113648498085
 20
372.41813532717958
 30
0.0
 11
850.51113648498085
 21
372.41813532717998
 31
0.0
  0
LINE
  5
3610C
  8
0
 10
900.51113648498085
 20
375.67607643591242
 30
0.0
 11
900.51113648498085
 21
372.41813532717958
 31
0.0
  0
LINE
  5
3610D
  8
0
 10
850.51113648497994
 20
375.67607643591282
 30
0.0
 11
850.51113648498063
 21
372.41813532717998
 31
0.0
  0
LINE
  5
385B8
  8
0
 10
205.07132322899179
 20
378.86210699901397
 30
0.0
 11
255.07132322899179
 21
378.86210699901397
 31
0.0
  0
TEXT
  5
38639
  8
0
 62
     3
 10
0.0
 20
0.0
 30
0.0
 40
10.0
  1
CAE3-200FBF
  7
STANDARD1
  0
ENDSEC
  0
EOF
