  0
SECTION
  2
HEADER
  9
$ACADVER
  1
AC1009
  9
$INSBASE
 10
0.0
 20
0.0
 30
0.0
  9
$EXTMIN
 10
0.0
 20
-2.960436562073669
 30
0.0
  9
$EXTMAX
 10
537.6450873826434
 20
445.83149092845508
 30
0.0
  9
$LIMMIN
 10
0.0
 20
0.0
  9
$LIMMAX
 10
375.0
 20
270.0
  9
$ORTHOMODE
 70
     1
  9
$REGENMODE
 70
     1
  9
$FILLMODE
 70
     1
  9
$QTEXTMODE
 70
     0
  9
$MIRRTEXT
 70
     1
  9
$DRAGMODE
 70
     2
  9
$LTSCALE
 40
10.0
  9
$OSMODE
 70
  3071
  9
$ATTMODE
 70
     1
  9
$TEXTSIZE
 40
5.0
  9
$TRACEWID
 40
0.05
  9
$TEXTSTYLE
  7
STANDARD
  9
$CLAYER
  8
0
  9
$CELTYPE
  6
BYLAYER
  9
$CECOLOR
 62
     6
  9
$DIMSCALE
 40
2.0
  9
$DIMASZ
 40
3.0
  9
$DIMEXO
 40
2.0
  9
$DIMDLI
 40
0.38
  9
$DIMRND
 40
0.0
  9
$DIMDLE
 40
0.0
  9
$DIMEXE
 40
2.0
  9
$DIMTP
 40
0.0
  9
$DIMTM
 40
0.0
  9
$DIMTXT
 40
3.2000000000000002
  9
$DIMCEN
 40
0.0
  9
$DIMTSZ
 40
0.0
  9
$DIMTOL
 70
     0
  9
$DIMLIM
 70
     0
  9
$DIMTIH
 70
     0
  9
$DIMTOH
 70
     0
  9
$DIMSE1
 70
     0
  9
$DIMSE2
 70
     0
  9
$DIMTAD
 70
     1
  9
$DIMZIN
 70
     8
  9
$DIMBLK
  1

  9
$DIMASO
 70
     0
  9
$DIMSHO
 70
     0
  9
$DIMPOST
  1

  9
$DIMAPOST
  1

  9
$DIMALT
 70
     0
  9
$DIMALTD
 70
     2
  9
$DIMALTF
 40
25.399999999999999
  9
$DIMLFAC
 40
1.0
  9
$DIMTOFL
 70
     0
  9
$DIMTVP
 40
1.6000000000000001
  9
$DIMTIX
 70
     1
  9
$DIMSOXD
 70
     0
  9
$DIMSAH
 70
     0
  9
$DIMBLK1
  1

  9
$DIMBLK2
  1

  9
$DIMSTYLE
  2
STANDARD
  9
$DIMCLRD
 70
     0
  9
$DIMCLRE
 70
     0
  9
$DIMCLRT
 70
     0
  9
$DIMTFAC
 40
1.0
  9
$DIMGAP
 40
1.1999999999999991
  9
$LUNITS
 70
     2
  9
$LUPREC
 70
     4
  9
$SKETCHINC
 40
0.1
  9
$FILLETRAD
 40
0.0
  9
$AUNITS
 70
     0
  9
$AUPREC
 70
     4
  9
$MENU
  1
ACAD
  9
$ELEVATION
 40
0.0
  9
$PELEVATION
 40
0.0
  9
$THICKNESS
 40
0.0
  9
$LIMCHECK
 70
     0
  9
$BLIPMODE
 70
     0
  9
$CHAMFERA
 40
0.0
  9
$CHAMFERB
 40
0.0
  9
$SKPOLY
 70
     0
  9
$TDCREATE
 40
2448055.7149187499
  9
$TDUPDATE
 40
2456598.5591744329
  9
$TDINDWG
 40
4.6806786689999997
  9
$TDUSRTIMER
 40
4.6806786689999997
  9
$USRTIMER
 70
     1
  9
$ANGBASE
 50
0.0
  9
$ANGDIR
 70
     0
  9
$PDMODE
 70
     0
  9
$PDSIZE
 40
0.0
  9
$PLINEWID
 40
0.0
  9
$COORDS
 70
     1
  9
$SPLFRAME
 70
     0
  9
$SPLINETYPE
 70
     6
  9
$SPLINESEGS
 70
     8
  9
$ATTDIA
 70
     0
  9
$ATTREQ
 70
     1
  9
$HANDLING
 70
     1
  9
$HANDSEED
  5
44B22
  9
$SURFTAB1
 70
     6
  9
$SURFTAB2
 70
     6
  9
$SURFTYPE
 70
     6
  9
$SURFU
 70
     6
  9
$SURFV
 70
     6
  9
$UCSNAME
  2

  9
$UCSORG
 10
0.0
 20
0.0
 30
0.0
  9
$UCSXDIR
 10
1.0
 20
0.0
 30
0.0
  9
$UCSYDIR
 10
0.0
 20
1.0
 30
0.0
  9
$PUCSNAME
  2

  9
$PUCSORG
 10
0.0
 20
0.0
 30
0.0
  9
$PUCSXDIR
 10
1.0
 20
0.0
 30
0.0
  9
$PUCSYDIR
 10
0.0
 20
1.0
 30
0.0
  9
$USERI1
 70
     0
  9
$USERI2
 70
     0
  9
$USERI3
 70
     0
  9
$USERI4
 70
     0
  9
$USERI5
 70
     0
  9
$USERR1
 40
0.0
  9
$USERR2
 40
0.0
  9
$USERR3
 40
0.0
  9
$USERR4
 40
0.0
  9
$USERR5
 40
0.0
  9
$WORLDVIEW
 70
     1
  9
$SHADEDGE
 70
     3
  9
$SHADEDIF
 70
    70
  9
$TILEMODE
 70
     1
  9
$MAXACTVP
 70
    16
  9
$PLIMCHECK
 70
     0
  9
$PEXTMIN
 10
1.0000000000000000E+020
 20
1.0000000000000000E+020
 30
1.0000000000000000E+020
  9
$PEXTMAX
 10
-1.0000000000000000E+020
 20
-1.0000000000000000E+020
 30
-1.0000000000000000E+020
  9
$PLIMMIN
 10
0.0
 20
0.0
  9
$PLIMMAX
 10
12.0
 20
9.0
  9
$UNITMODE
 70
     0
  9
$VISRETAIN
 70
     0
  9
$PLINEGEN
 70
     1
  9
$PSLTSCALE
 70
     0
  0
ENDSEC
  0
SECTION
  2
TABLES
  0
TABLE
  2
VPORT
 70
     1
  0
VPORT
  2
*ACTIVE
 70
     0
 10
0.0
 20
0.0
 11
1.0
 21
1.0
 12
281.25880543921141
 22
221.43612691318179
 13
0.0
 23
0.0
 14
5.0
 24
5.0
 15
10.0
 25
10.0
 16
0.0
 26
0.0
 36
1.0
 17
0.0
 27
0.0
 37
0.0
 40
452.84321451930231
 41
1.831871345029239
 42
50.0
 43
0.0
 44
0.0
 50
0.0
 51
0.0
 71
     0
 72
   500
 73
     1
 74
     1
 75
     0
 76
     0
 77
     0
 78
     2
  0
ENDTAB
  0
TABLE
  2
LTYPE
 70
     3
  0
LTYPE
  2
CONTINUOUS
 70
     0
  3
実線
 72
    65
 73
     0
 40
0.0
  0
LTYPE
  2
CENTER
 70
     0
  3
____ _ ____ _ ____ _ ____ _ ____ _ ____ _ ____
 72
    65
 73
     4
 40
2.0
 49
1.25
 49
-0.25
 49
0.25
 49
-0.25
  0
LTYPE
  2
PHANTOM2
 70
     0
  3
___ _ _ ___ _ _ ___ _ _ ___ _ _
 72
    65
 73
     6
 40
1.25
 49
0.625
 49
-0.125
 49
0.125
 49
-0.125
 49
0.125
 49
-0.125
  0
ENDTAB
  0
TABLE
  2
LAYER
 70
     4
  0
LAYER
  2
0
 70
     0
 62
     7
  6
CONTINUOUS
  0
LAYER
  2
1
 70
     0
 62
     1
  6
CENTER
  0
LAYER
  2
DEFPOINTS
 70
     0
 62
     7
  6
CONTINUOUS
  0
LAYER
  2
3
 70
     0
 62
     3
  6
CONTINUOUS
  0
ENDTAB
  0
TABLE
  2
STYLE
 70
     3
  0
STYLE
  2
STANDARD
 70
     0
 40
0.0
 41
1.0
 50
0.0
 71
     0
 42
5.0
  3
simplex.shx
  4
bigfont.shx
  0
STYLE
  2
07500
 70
     0
 40
0.0
 41
0.75
 50
0.0
 71
     0
 42
0.2
  3
simplex.shx
  4
bigfont.shx
  0
STYLE
  2
STANDARD1
 70
     0
 40
0.0
 41
1.0
 50
0.0
 71
     0
 42
3.0
  3
txt
  4

  0
ENDTAB
  0
TABLE
  2
VIEW
 70
     2
  0
VIEW
  2
ALL
 70
     0
 40
270.0
 10
220.99159663865549
 20
135.0
 41
0.0
 11
0.0
 21
0.0
 31
1.0
 12
0.0
 22
0.0
 32
0.0
 42
0.0
 43
0.0
 44
0.0
 50
0.0
 71
     0
  0
VIEW
  2
OLE1
 70
     0
 40
168.2487151179721
 10
2892.3009567448912
 20
702.51600084347126
 41
162.5749581879237
 11
0.0
 21
0.0
 31
1.0
 12
0.0
 22
0.0
 32
0.0
 42
50.0
 43
0.0
 44
0.0
 50
0.0
 71
     0
  0
ENDTAB
  0
TABLE
  2
UCS
 70
     0
  0
ENDTAB
  0
TABLE
  2
APPID
 70
    48
  0
APPID
  2
ACAD
 70
     0
  0
APPID
  2
DCO15
 70
     0
  0
APPID
  2
GENIUS_GENOREF_13
 70
     0
  0
APPID
  2
GENIUS_GENOENT_13
 70
     0
  0
APPID
  2
GENIUS_GENBH_13
 70
     0
  0
APPID
  2
GENIUS_GENOBJ_13
 70
     0
  0
APPID
  2
GENIUS_GENODEF_13
 70
     0
  0
APPID
  2
GENIUS_GENOLIS_13
 70
     0
  0
APPID
  2
GENIUS_GENOBJ-NBEHI-BHF_13
 70
     0
  0
APPID
  2
GENIUS_GENOBJ-NBEHI-BHB_13
 70
     0
  0
APPID
  2
GENIUS_GENOBJ-F-PART_13
 70
     0
  0
APPID
  2
GENIUS_GEFSTDP_13
 70
     0
  0
APPID
  2
GENIUS_GENOBJ-N-RSSYM_13
 70
     0
  0
APPID
  2
GENIUS_GENSYMENT_13
 70
     0
  0
APPID
  2
GENIUS_GENOBJ-N-TIT_13
 70
     0
  0
APPID
  2
GENIUS_GENTITLE_13
 70
     0
  0
APPID
  2
GENIUS_GENZVEED_13
 70
     0
  0
APPID
  2
GENIUS_GENOBJ-N-LEADER_13
 70
     0
  0
APPID
  2
GENIUS_GENOBJ-N-FIL_13
 70
     0
  0
APPID
  2
GENIUS_GENOBJ-N-SEC_13
 70
     0
  0
APPID
  2
GENIUS_GENOBJ-N-CRS_13
 70
     0
  0
APPID
  2
GENIUS_GENOBJ-N-ZOO_13
 70
     0
  0
APPID
  2
GENIUS_GENZOO_13
 70
     0
  0
APPID
  2
GENIUS_GENOBJ-F-TOL_13
 70
     0
  0
APPID
  2
GENIUS_GENFIL_13
 70
     0
  0
APPID
  2
GENIUS_GENOBJ-N-CHA_13
 70
     0
  0
APPID
  2
_CALL_MAC$
 70
     0
  0
APPID
  2
ASM_BASE
 70
     0
  0
APPID
  2
ASM_EXPLO_VER_2_00
 70
     0
  0
APPID
  2
ASM_CADM_VER_12_00
 70
     0
  0
APPID
  2
ASM_BASEFORO
 70
     0
  0
APPID
  2
ASM_BASETRAVI
 70
     0
  0
APPID
  2
ASM_BASETRAVI1
 70
     0
  0
APPID
  2
ASM_GRUPPI
 70
     0
  0
APPID
  2
ASM_CADM_ALBERO
 70
     0
  0
APPID
  2
ASM_GOLE
 70
     0
  0
APPID
  2
ACAD_MLEADERVER
 70
     0
  0
APPID
  2
ACAD_DSTYLE_DIMJAG
 70
     0
  0
APPID
  2
ACAD_DSTYLE_DIMTALN
 70
     0
  0
APPID
  2
ACAD_EXEMPT_FROM_CAD_STANDARDS
 70
     0
  0
APPID
  2
ACAD_DSTYLE_DIMRADIAL_EXTENSION
 70
     0
  0
APPID
  2
ACAD_PSEXT
 70
     0
  0
APPID
  2
ACAD_DSTYLE_DIMBREAK
 70
     0
  0
APPID
  2
ACAECLAYERSTANDARD
 70
     0
  0
APPID
  2
ACCMTRANSPARENCY
 70
     0
  0
APPID
  2
GRADIENTCOLOR1ACI
 70
     0
  0
APPID
  2
GRADIENTCOLOR2ACI
 70
     0
  0
APPID
  2
ACAD_NAV_VCDISPLAY
 70
     0
  0
ENDTAB
  0
TABLE
  2
DIMSTYLE
 70
     1
  0
DIMSTYLE
  2
STANDARD
 70
     0
  3

  4

  5

  6

  7

 40
1.0
 41
0.18
 42
0.0625
 43
0.38
 44
0.18
 45
0.0
 46
0.0
 47
0.0
 48
0.0
140
0.18
141
0.09
142
0.0
143
25.399999999999999
144
1.0
145
0.0
146
1.0
147
0.09
 71
     0
 72
     0
 73
     1
 74
     1
 75
     0
 76
     0
 77
     0
 78
     0
170
     0
171
     2
172
     0
173
     0
174
     0
175
     0
176
     0
177
     0
178
     0
  0
ENDTAB
  0
ENDSEC
  0
SECTION
  2
BLOCKS
  0
BLOCK
  8
0
  2
$MODEL_SPACE
 70
     0
 10
0.0
 20
0.0
 30
0.0
  3
$MODEL_SPACE
  1

  0
ENDBLK
  5
36
  8
0
  0
BLOCK
 67
     1
  8
0
  2
$PAPER_SPACE
 70
     0
 10
0.0
 20
0.0
 30
0.0
  3
$PAPER_SPACE
  1

  0
ENDBLK
  5
34
 67
     1
  8
0
  0
ENDSEC
  0
SECTION
  2
ENTITIES
  0
LINE
  5
44332
  8
0
 10
306.425070665242
 20
264.44368873142258
 30
0.0
 11
307.92385000126387
 21
255.9436887314225
 31
0.0
  0
LINE
  5
44333
  8
0
 10
376.92629132922002
 20
255.9436887314225
 30
0.0
 11
378.42507066524189
 21
264.44368873142258
 31
0.0
  0
LINE
  5
44334
  8
0
 10
307.62507066524199
 20
265.24368873142259
 30
0.0
 11
307.62507066524199
 21
264.44368873142258
 31
0.0
  0
LINE
  5
44335
  8
0
 10
377.2250706652419
 20
264.44368873142258
 30
0.0
 11
377.2250706652419
 21
265.24368873142259
 31
0.0
  0
LINE
  5
44336
  8
0
 10
309.42507066524189
 20
255.9436887314225
 30
0.0
 11
309.42507066524189
 21
253.74368873142259
 31
0.0
  0
LINE
  5
44337
  8
0
 10
375.42507066524189
 20
250.24368873142251
 30
0.0
 11
375.42507066524189
 21
255.9436887314225
 31
0.0
  0
ARC
  5
44339
  8
0
 10
307.42507066524189
 20
189.74368873142259
 30
0.0
 40
41.952105438838061
 50
115.06945374538
 51
32.578418639825223
  0
ARC
  5
4433B
  8
0
 10
307.42507066524189
 20
189.74368873142259
 30
0.0
 40
44.856316316514082
 50
122.0970406080442
 51
33.687249857920207
  0
CIRCLE
  5
4433C
  8
0
 10
307.42507066524189
 20
189.74368873142259
 30
0.0
 40
6.2583333333333249
  0
LINE
  5
4433D
  8
0
 10
303.67229391550927
 20
183.24368873142259
 30
0.0
 11
311.17784741497439
 21
183.24368873142259
 31
0.0
  0
LINE
  5
4433E
  8
0
 10
299.91951716577682
 20
189.74368873142271
 30
0.0
 11
303.67229391550927
 21
183.24368873142259
 31
0.0
  0
LINE
  5
4433F
  8
0
 10
303.6722939155095
 20
196.24368873142259
 30
0.0
 11
299.91951716577682
 21
189.74368873142271
 31
0.0
  0
LINE
  5
44340
  8
0
 10
311.17784741497462
 20
196.24368873142251
 30
0.0
 11
303.6722939155095
 21
196.24368873142259
 31
0.0
  0
LINE
  5
44341
  8
0
 10
314.93062416470713
 20
189.74368873142259
 30
0.0
 11
311.17784741497462
 21
196.24368873142251
 31
0.0
  0
LINE
  5
44342
  8
0
 10
311.17784741497439
 20
183.24368873142259
 30
0.0
 11
314.93062416470713
 21
189.74368873142259
 31
0.0
  0
LINE
  5
44343
  8
0
 10
392.42507066524189
 20
265.24368873142259
 30
0.0
 11
392.42507066524189
 21
267.74368873142259
 31
0.0
  0
LINE
  5
44348
  8
0
 10
292.42507066524189
 20
265.24368873142259
 30
0.0
 11
292.42507066524189
 21
267.74368873142259
 31
0.0
  0
LINE
  5
44349
  8
0
 10
292.42507066524189
 20
265.24368873142259
 30
0.0
 11
392.42507066524189
 21
265.24368873142259
 31
0.0
  0
LINE
  5
4434A
  8
0
 10
292.42507066524189
 20
267.74368873142259
 30
0.0
 11
392.42507066524189
 21
267.74368873142259
 31
0.0
  0
LINE
  5
4434D
  8
0
 10
307.92385000126387
 20
255.9436887314225
 30
0.0
 11
376.92629132922002
 21
255.9436887314225
 31
0.0
  0
LINE
  5
4434F
  8
0
 10
306.425070665242
 20
264.44368873142258
 30
0.0
 11
378.42507066524189
 21
264.44368873142258
 31
0.0
  0
LINE
  5
44351
  8
0
 10
320.31737969580757
 20
253.74368873142259
 30
0.0
 11
320.31737969580757
 21
186.25446842328009
 31
0.0
  0
LINE
  5
44352
  8
0
 10
375.42507066524189
 20
250.24368873142251
 30
0.0
 11
320.31737969580757
 21
186.25446842328029
 31
0.0
  0
LINE
  5
44353
  8
0
 10
244.94173116363689
 20
240.74368873142259
 30
0.0
 11
248.42507066524189
 21
227.74368873142271
 31
0.0
  0
LINE
  5
44354
  8
0
 10
320.31737969580757
 20
253.74368873142259
 30
0.0
 11
293.45839166203291
 21
253.74368873142259
 31
0.0
  0
ARC
  5
44355
  8
0
 10
310.12507066524148
 20
189.7436887314245
 30
0.0
 40
10.000000000001929
 50
270.0
 51
319.26487930295161
  0
LINE
  5
44356
  8
0
 10
300.7250706652419
 20
179.74368873142259
 30
0.0
 11
310.12507066524148
 21
179.74368873142259
 31
0.0
  0
ARC
  5
44357
  8
0
 10
300.72507066524122
 20
189.74368873142171
 30
0.0
 40
9.9999999999991473
 50
173.62234466032791
 51
270.00000000000648
  0
LINE
  5
44358
  8
0
 10
248.42507066524189
 20
227.74368873142271
 30
0.0
 11
294.91017603350679
 21
227.74368873142271
 31
0.0
  0
LINE
  5
44359
  8
0
 10
294.91017603350679
 20
227.74368873142271
 30
0.0
 11
290.78695751402068
 21
190.85450239424739
 31
0.0
  0
LINE
  5
4435A
  8
0
 10
293.45839166203291
 20
253.74368873142259
 30
0.0
 11
244.94173116363689
 21
240.74368873142259
 31
0.0
  0
LINE
  5
4435B
  8
0
 10
317.70241542386589
 20
183.21805876880899
 30
0.0
 11
320.31737969580757
 21
186.25446842328009
 31
0.0
  0
ARC
  5
44368
  8
0
 10
307.42507066524189
 20
189.74368873142259
 30
0.0
 40
40.000000000000043
 50
108.2338519723731
 51
31.738367044347761
  0
ARC
  5
4436A
  8
0
 10
307.42507066524189
 20
189.74368873142259
 30
0.0
 40
50.000000000000078
 50
130.535802111322
 51
35.324171486832341
  0
LINE
  5
4437F
  8
0
 10
525.08033299447277
 20
183.24368873142259
 30
0.0
 11
525.1450873826434
 21
183.4853553980893
 31
0.0
  0
LINE
  5
44380
  8
0
 10
519.64508738264328
 20
183.4853553980893
 30
0.0
 11
519.70984177081436
 21
183.24368873142259
 31
0.0
  0
LINE
  5
44381
  8
0
 10
465.14508738264328
 20
183.4853553980893
 30
0.0
 11
465.20984177081442
 21
183.24368873142259
 31
0.0
  0
LINE
  5
44382
  8
0
 10
472.6450873826434
 20
183.74368873142259
 30
0.0
 11
473.1450873826434
 21
183.74368873142259
 31
0.0
  0
LINE
  5
44383
  8
0
 10
517.1450873826434
 20
183.74368873142259
 30
0.0
 11
517.6450873826434
 21
183.74368873142259
 31
0.0
  0
LINE
  5
44384
  8
0
 10
517.6450873826434
 20
195.74368873142259
 30
0.0
 11
517.1450873826434
 21
195.74368873142259
 31
0.0
  0
LINE
  5
44385
  8
0
 10
473.1450873826434
 20
195.74368873142259
 30
0.0
 11
472.6450873826434
 21
195.74368873142259
 31
0.0
  0
LINE
  5
44386
  8
0
 10
525.1450873826434
 20
183.9286887314226
 30
0.0
 11
527.64508738264328
 21
183.9286887314226
 31
0.0
  0
LINE
  5
44387
  8
0
 10
527.64508738264328
 20
195.55868873142251
 30
0.0
 11
525.1450873826434
 21
195.55868873142251
 31
0.0
  0
LINE
  5
4438A
  8
0
 10
459.1450873826434
 20
264.44368873142258
 30
0.0
 11
460.64386671866532
 21
255.9436887314225
 31
0.0
  0
LINE
  5
4438B
  8
0
 10
529.64630804662147
 20
255.9436887314225
 30
0.0
 11
531.1450873826434
 21
264.44368873142258
 31
0.0
  0
LINE
  5
4438C
  8
0
 10
460.34508738264321
 20
265.24368873142259
 30
0.0
 11
460.34508738264321
 21
264.44368873142258
 31
0.0
  0
LINE
  5
4438D
  8
0
 10
529.94508738264358
 20
264.44368873142258
 30
0.0
 11
529.94508738264358
 21
265.24368873142259
 31
0.0
  0
LINE
  5
4438E
  8
0
 10
462.14508738264328
 20
255.9436887314225
 30
0.0
 11
462.14508738264328
 21
211.92518485253709
 31
0.0
  0
LINE
  5
4438F
  8
0
 10
528.14508738264328
 20
211.92518485253669
 30
0.0
 11
528.14508738264328
 21
255.9436887314225
 31
0.0
  0
ARC
  5
44390
  8
0
 10
502.54524204895228
 20
140.74368873142359
 30
0.0
 40
1.00000000000108
 50
270.00000000004559
 51
340.99999999997073
  0
ARC
  5
44391
  8
0
 10
502.54524204895228
 20
238.74368873142151
 30
0.0
 40
1.000000000001096
 50
19.00000000003978
 51
89.999999999954397
  0
LINE
  5
44392
  8
0
 10
501.1450873826434
 20
139.74368873142259
 30
0.0
 11
502.54524204895318
 21
139.74368873142259
 31
0.0
  0
LINE
  5
44393
  8
0
 10
502.54524204895318
 20
239.74368873142251
 30
0.0
 11
501.1450873826434
 21
239.74368873142251
 31
0.0
  0
ARC
  5
44394
  8
0
 10
501.1450873826434
 20
140.04368873142241
 30
0.0
 40
0.2999999999998977
 50
179.99999999997721
 51
270.00000000002598
  0
ARC
  5
44395
  8
0
 10
501.1450873826434
 20
239.4436887314227
 30
0.0
 40
0.2999999999998835
 50
89.999999999973952
 51
180.00000000000981
  0
LINE
  5
44396
  8
0
 10
492.1450873826434
 20
139.74368873142259
 30
0.0
 11
498.1450873826434
 21
139.74368873142259
 31
0.0
  0
LINE
  5
44397
  8
0
 10
498.1450873826434
 20
239.74368873142251
 30
0.0
 11
492.1450873826434
 21
239.74368873142251
 31
0.0
  0
ARC
  5
44398
  8
0
 10
498.14508738264379
 20
140.04368873142241
 30
0.0
 40
0.2999999999998977
 50
269.99999999998039
 51
0.0000000000195413
  0
ARC
  5
44399
  8
0
 10
498.14508738264379
 20
239.4436887314227
 30
0.0
 40
0.2999999999998835
 50
359.99999999999022
 51
90.000000000019526
  0
ARC
  5
4439A
  8
0
 10
492.1450873826434
 20
140.04368873142241
 30
0.0
 40
0.2999999999998977
 50
179.99999999997721
 51
270.00000000001961
  0
ARC
  5
4439B
  8
0
 10
492.1450873826434
 20
239.4436887314227
 30
0.0
 40
0.2999999999998692
 50
89.99999999998046
 51
180.00000000000981
  0
ARC
  5
4439C
  8
0
 10
489.14508738264379
 20
140.04368873142241
 30
0.0
 40
0.2999999999998977
 50
269.99999999998039
 51
0.0000000000195413
  0
ARC
  5
4439D
  8
0
 10
489.14508738264379
 20
239.4436887314227
 30
0.0
 40
0.2999999999998835
 50
359.99999999999022
 51
90.000000000019526
  0
LINE
  5
4439E
  8
0
 10
487.74493271633401
 20
139.74368873142259
 30
0.0
 11
489.1450873826434
 21
139.74368873142259
 31
0.0
  0
LINE
  5
4439F
  8
0
 10
489.1450873826434
 20
239.74368873142251
 30
0.0
 11
487.74493271633401
 21
239.74368873142251
 31
0.0
  0
ARC
  5
443A0
  8
0
 10
487.7449327163344
 20
140.74368873142359
 30
0.0
 40
1.00000000000108
 50
199.00000000003271
 51
269.99999999995441
  0
ARC
  5
443A1
  8
0
 10
487.7449327163344
 20
238.74368873142151
 30
0.0
 40
1.0000000000010769
 50
90.000000000045588
 51
160.99999999996359
  0
LINE
  5
443A2
  8
0
 10
498.44508738264352
 20
140.04368873142249
 30
0.0
 11
500.84508738264361
 21
140.04368873142249
 31
0.0
  0
LINE
  5
443A3
  8
0
 10
500.84508738264361
 20
239.44368873142261
 30
0.0
 11
498.44508738264352
 21
239.44368873142261
 31
0.0
  0
LINE
  5
443A4
  8
0
 10
489.44508738264358
 20
140.04368873142249
 30
0.0
 11
491.84508738264361
 21
140.04368873142249
 31
0.0
  0
LINE
  5
443A5
  8
0
 10
491.84508738264361
 20
239.44368873142261
 30
0.0
 11
489.44508738264358
 21
239.44368873142261
 31
0.0
  0
LINE
  5
443A6
  8
0
 10
503.49076062455242
 20
140.41812057696561
 30
0.0
 11
504.53836697654458
 21
143.46059033994351
 31
0.0
  0
LINE
  5
443A7
  8
0
 10
504.53836697654458
 20
236.0267871229016
 30
0.0
 11
503.49076062455242
 21
239.06925688587961
 31
0.0
  0
LINE
  5
443A8
  8
0
 10
486.79941414073431
 20
239.06925688587961
 30
0.0
 11
485.75180778874198
 21
236.0267871229016
 31
0.0
  0
LINE
  5
443A9
  8
0
 10
485.75180778874198
 20
143.46059033994351
 30
0.0
 11
486.79941414073431
 21
140.41812057696561
 31
0.0
  0
ARC
  5
443AA
  8
0
 10
501.70181124973891
 20
144.43729480331621
 30
0.0
 40
3.0000000000080851
 50
341.00000000003263
 51
359.99999999999352
  0
ARC
  5
443AB
  8
0
 10
501.70181124973891
 20
235.0500826595289
 30
0.0
 40
3.0000000000080851
 50
0.0000000000065138
 51
18.999999999970768
  0
ARC
  5
443AC
  8
0
 10
488.58836351554822
 20
144.43729480331621
 30
0.0
 40
3.0000000000081708
 50
180.00000000000651
 51
198.99999999997081
  0
ARC
  5
443AD
  8
0
 10
488.58836351554822
 20
235.0500826595289
 30
0.0
 40
3.0000000000081708
 50
161.00000000002919
 51
179.99999999999349
  0
ARC
  5
443AE
  8
0
 10
505.20181124974658
 20
145.38737241490841
 30
0.0
 40
0.4999999999998721
 50
179.99999999998701
 51
0.0000000000130276
  0
ARC
  5
443AF
  8
0
 10
505.20181124974658
 20
234.10000504793669
 30
0.0
 40
0.4999999999998721
 50
359.99999999999352
 51
180.00000000000651
  0
ARC
  5
443B0
  8
0
 10
485.08836351554049
 20
145.38737241490841
 30
0.0
 40
0.4999999999998721
 50
179.99999999998701
 51
0.0000000000130276
  0
ARC
  5
443B1
  8
0
 10
485.08836351554049
 20
234.10000504793669
 30
0.0
 40
0.4999999999998721
 50
359.99999999999352
 51
180.00000000000651
  0
ARC
  5
443B2
  8
0
 10
506.2018112497467
 20
148.29158329258459
 30
0.0
 40
0.5
 50
180.0
 51
0.0
  0
ARC
  5
443B3
  8
0
 10
506.2018112497467
 20
231.19579417026051
 30
0.0
 40
0.5
 50
0.0
 51
180.0
  0
ARC
  5
443B4
  8
0
 10
484.08836351554049
 20
148.29158329258459
 30
0.0
 40
0.5
 50
180.0
 51
0.0
  0
ARC
  5
443B5
  8
0
 10
484.08836351554049
 20
231.19579417026051
 30
0.0
 40
0.5
 50
0.0
 51
180.0
  0
LINE
  5
443B6
  8
0
 10
506.7018112497467
 20
149.74368873142259
 30
0.0
 11
509.98164310944139
 21
159.26901209529561
 31
0.0
  0
LINE
  5
443B7
  8
0
 10
509.98164310944139
 20
220.21836536754961
 30
0.0
 11
506.7018112497467
 21
229.74368873142259
 31
0.0
  0
LINE
  5
443B8
  8
0
 10
483.58836351554049
 20
229.74368873142271
 30
0.0
 11
480.3085316558454
 21
220.21836536754961
 31
0.0
  0
LINE
  5
443B9
  8
0
 10
480.3085316558454
 20
159.26901209529561
 30
0.0
 11
483.58836351554049
 21
149.74368873142259
 31
0.0
  0
ARC
  5
443BA
  8
0
 10
507.14508738266841
 20
160.24571655866271
 30
0.0
 40
2.9999999999750031
 50
340.9999999999223
 51
0.0000000000390827
  0
ARC
  5
443BB
  8
0
 10
507.14508738266841
 20
219.24166090418251
 30
0.0
 40
2.9999999999750031
 50
359.99999999996419
 51
19.000000000077691
  0
ARC
  5
443BC
  8
0
 10
483.14508738261839
 20
160.24571655866271
 30
0.0
 40
2.9999999999749671
 50
179.99999999996089
 51
199.0000000000777
  0
ARC
  5
443BD
  8
0
 10
483.14508738261839
 20
219.24166090418251
 30
0.0
 40
2.9999999999749671
 50
160.9999999999223
 51
180.00000000003581
  0
LINE
  5
443BE
  8
0
 10
510.1450873826434
 20
176.74368873142291
 30
0.0
 11
515.74972209325995
 21
177.13560296884449
 31
0.0
  0
LINE
  5
443BF
  8
0
 10
515.74972209325995
 20
202.35177449400069
 30
0.0
 11
510.1450873826434
 21
202.74368873142231
 31
0.0
  0
LINE
  5
443C0
  8
0
 10
480.1450873826434
 20
202.74368873142231
 30
0.0
 11
474.54045267202667
 21
202.35177449400069
 31
0.0
  0
LINE
  5
443C1
  8
0
 10
474.54045267202667
 20
177.13560296884449
 30
0.0
 11
480.1450873826434
 21
176.74368873142291
 31
0.0
  0
ARC
  5
443C2
  8
0
 10
515.64508738264385
 20
178.63194904423381
 30
0.0
 40
1.4999999999995159
 50
274.0000000000029
 51
0.0
  0
ARC
  5
443C3
  8
0
 10
515.64508738264385
 20
200.8554284186115
 30
0.0
 40
1.4999999999995159
 50
0.0
 51
85.999999999996987
  0
ARC
  5
443C4
  8
0
 10
474.64508738264288
 20
178.63194904423381
 30
0.0
 40
1.4999999999995159
 50
180.0
 51
265.99999999999699
  0
ARC
  5
443C5
  8
0
 10
474.64508738264288
 20
200.85542841861141
 30
0.0
 40
1.499999999999549
 50
94.000000000003027
 51
180.0
  0
POLYLINE
  5
443C6
  8
0
 66
     1
 10
0.0
 20
0.0
 30
0.0
 70
   128
  0
VERTEX
  5
44806
  8
0
 10
519.97927901894207
 20
183.24368873142259
 30
0.0
  0
VERTEX
  5
44807
  8
0
 10
519.77313103524284
 20
184.9624212159716
 30
0.0
  0
VERTEX
  5
44808
  8
0
 10
519.72285765011293
 20
186.36636142150701
 30
0.0
  0
SEQEND
  5
44809
  8
0
  0
LINE
  5
443C7
  8
0
 10
524.81089574634495
 20
189.74368873142259
 30
0.0
 11
522.05390326331417
 21
189.74368873142259
 31
0.0
  0
ARC
  5
443C8
  8
0
 10
505.16227149229871
 20
186.49368873142259
 30
0.0
 40
19.915595272968851
 50
350.6079717949296
 51
9.3920282050704014
  0
LINE
  5
443C9
  8
0
 10
525.08033299447277
 20
183.24368873142259
 30
0.0
 11
519.70984177081436
 21
183.24368873142259
 31
0.0
  0
LINE
  5
443CA
  8
0
 10
525.1450873826434
 20
183.4853553980893
 30
0.0
 11
525.1450873826434
 21
195.96178080322289
 31
0.0
  0
ARC
  5
443CC
  8
0
 10
506.31797181607539
 20
192.94552376154641
 30
0.0
 40
18.768057519382669
 50
350.17728016756212
 51
7.8392558444978544
  0
ARC
  5
443CE
  8
0
 10
485.1299811946264
 20
186.49368873142271
 30
0.0
 40
19.917645342696488
 50
170.6089472423663
 51
189.39105275763691
  0
LINE
  5
443CF
  8
0
 10
468.23627150197302
 20
189.74368873142259
 30
0.0
 11
465.47927901894212
 21
189.74368873142259
 31
0.0
  0
LINE
  5
443D0
  8
0
 10
470.64508738264328
 20
183.24368873142259
 30
0.0
 11
465.20984177081442
 21
183.24368873142259
 31
0.0
  0
ARC
  5
443D1
  8
0
 10
483.93843604349189
 20
192.94475630538949
 30
0.0
 40
18.734655365660942
 50
172.22545574773011
 51
189.8380247895748
  0
LINE
  5
443D2
  8
0
 10
465.14508738264328
 20
183.4853553980893
 30
0.0
 11
465.14508738264328
 21
195.96178080322289
 31
0.0
  0
LINE
  5
443D4
  8
0
 10
527.64508738264328
 20
183.9286887314226
 30
0.0
 11
527.64508738264328
 21
195.55868873142251
 31
0.0
  0
LINE
  5
443D6
  8
0
 10
537.6450873826434
 20
265.24368873142259
 30
0.0
 11
537.6450873826434
 21
267.74368873142259
 31
0.0
  0
LINE
  5
443DD
  8
0
 10
452.64508738264328
 20
265.24368873142259
 30
0.0
 11
452.64508738264328
 21
267.74368873142259
 31
0.0
  0
LINE
  5
443DE
  8
0
 10
452.64508738264328
 20
265.24368873142259
 30
0.0
 11
537.6450873826434
 21
265.24368873142259
 31
0.0
  0
LINE
  5
443DF
  8
0
 10
452.64508738264328
 20
267.74368873142259
 30
0.0
 11
537.6450873826434
 21
267.74368873142259
 31
0.0
  0
LINE
  5
443E0
  8
0
 10
460.64386671866532
 20
255.9436887314225
 30
0.0
 11
529.64630804662147
 21
255.9436887314225
 31
0.0
  0
LINE
  5
443E1
  8
0
 10
459.1450873826434
 20
264.44368873142258
 30
0.0
 11
531.1450873826434
 21
264.44368873142258
 31
0.0
  0
POLYLINE
  5
443E2
  8
0
 10
519.64508738264362
 20
186.25446842328051
 30
0.0
 66
     1
 70
     8
  0
VERTEX
  8
0
  5
44816
 10
519.645
 20
186.254
 30
0.000000
  70
    32
  0
VERTEX
  8
0
  5
44817
 10
520.425
 20
187.295
 30
0.000000
  70
    32
  0
VERTEX
  8
0
  5
44818
 10
521.173
 20
188.368
 30
0.000000
  70
    32
  0
VERTEX
  8
0
  5
44819
 10
521.886
 20
189.472
 30
0.000000
  70
    32
  0
VERTEX
  8
0
  5
4481A
 10
522.565
 20
190.604
 30
0.000000
  70
    32
  0
VERTEX
  8
0
  5
4481B
 10
523.208
 20
191.765
 30
0.000000
  70
    32
  0
VERTEX
  8
0
  5
4481C
 10
523.815
 20
192.951
 30
0.000000
  70
    32
  0
VERTEX
  8
0
  5
4481D
 10
524.385
 20
194.162
 30
0.000000
  70
    32
  0
VERTEX
  8
0
  5
4481E
 10
524.917
 20
195.396
 30
0.000000
  70
    32
  0
VERTEX
  8
0
  5
4481F
 10
525.410
 20
196.652
 30
0.000000
  70
    32
  0
VERTEX
  8
0
  5
44820
 10
525.864
 20
197.927
 30
0.000000
  70
    32
  0
VERTEX
  8
0
  5
44821
 10
526.278
 20
199.220
 30
0.000000
  70
    32
  0
VERTEX
  8
0
  5
44822
 10
526.652
 20
200.530
 30
0.000000
  70
    32
  0
VERTEX
  8
0
  5
44823
 10
526.985
 20
201.855
 30
0.000000
  70
    32
  0
VERTEX
  8
0
  5
44824
 10
527.277
 20
203.193
 30
0.000000
  70
    32
  0
VERTEX
  8
0
  5
44825
 10
527.527
 20
204.542
 30
0.000000
  70
    32
  0
VERTEX
  8
0
  5
44826
 10
527.735
 20
205.900
 30
0.000000
  70
    32
  0
VERTEX
  8
0
  5
44827
 10
527.900
 20
207.267
 30
0.000000
  70
    32
  0
VERTEX
  8
0
  5
44828
 10
528.024
 20
208.639
 30
0.000000
  70
    32
  0
VERTEX
  8
0
  5
44829
 10
528.104
 20
210.016
 30
0.000000
  70
    32
  0
VERTEX
  8
0
  5
4482A
 10
528.142
 20
211.395
 30
0.000000
  70
    32
  0
VERTEX
  8
0
  5
4482B
 10
528.137
 20
212.775
 30
0.000000
  70
    32
  0
VERTEX
  8
0
  5
4482C
 10
528.089
 20
214.154
 30
0.000000
  70
    32
  0
VERTEX
  8
0
  5
4482D
 10
527.999
 20
215.530
 30
0.000000
  70
    32
  0
VERTEX
  8
0
  5
4482E
 10
527.866
 20
216.901
 30
0.000000
  70
    32
  0
VERTEX
  8
0
  5
4482F
 10
527.690
 20
218.266
 30
0.000000
  70
    32
  0
VERTEX
  8
0
  5
44830
 10
527.472
 20
219.623
 30
0.000000
  70
    32
  0
VERTEX
  8
0
  5
44831
 10
527.213
 20
220.969
 30
0.000000
  70
    32
  0
VERTEX
  8
0
  5
44832
 10
526.912
 20
222.304
 30
0.000000
  70
    32
  0
VERTEX
  8
0
  5
44833
 10
526.569
 20
223.625
 30
0.000000
  70
    32
  0
VERTEX
  8
0
  5
44834
 10
526.186
 20
224.932
 30
0.000000
  70
    32
  0
VERTEX
  8
0
  5
44835
 10
525.762
 20
226.221
 30
0.000000
  70
    32
  0
VERTEX
  8
0
  5
44836
 10
525.299
 20
227.492
 30
0.000000
  70
    32
  0
VERTEX
  8
0
  5
44837
 10
524.797
 20
228.743
 30
0.000000
  70
    32
  0
VERTEX
  8
0
  5
44838
 10
524.256
 20
229.971
 30
0.000000
  70
    32
  0
VERTEX
  8
0
  5
44839
 10
523.678
 20
231.177
 30
0.000000
  70
    32
  0
VERTEX
  8
0
  5
4483A
 10
523.062
 20
232.357
 30
0.000000
  70
    32
  0
VERTEX
  8
0
  5
4483B
 10
522.411
 20
233.511
 30
0.000000
  70
    32
  0
VERTEX
  8
0
  5
4483C
 10
521.724
 20
234.637
 30
0.000000
  70
    32
  0
VERTEX
  8
0
  5
4483D
 10
521.002
 20
235.734
 30
0.000000
  70
    32
  0
VERTEX
  8
0
  5
4483E
 10
520.247
 20
236.799
 30
0.000000
  70
    32
  0
VERTEX
  8
0
  5
4483F
 10
519.460
 20
237.833
 30
0.000000
  70
    32
  0
VERTEX
  8
0
  5
44840
 10
518.640
 20
238.832
 30
0.000000
  70
    32
  0
VERTEX
  8
0
  5
44841
 10
517.791
 20
239.797
 30
0.000000
  70
    32
  0
VERTEX
  8
0
  5
44842
 10
516.912
 20
240.726
 30
0.000000
  70
    32
  0
VERTEX
  8
0
  5
44843
 10
516.005
 20
241.617
 30
0.000000
  70
    32
  0
VERTEX
  8
0
  5
44844
 10
515.070
 20
242.470
 30
0.000000
  70
    32
  0
VERTEX
  8
0
  5
44845
 10
514.110
 20
243.284
 30
0.000000
  70
    32
  0
VERTEX
  8
0
  5
44846
 10
513.126
 20
244.056
 30
0.000000
  70
    32
  0
VERTEX
  8
0
  5
44847
 10
512.118
 20
244.787
 30
0.000000
  70
    32
  0
VERTEX
  8
0
  5
44848
 10
511.088
 20
245.475
 30
0.000000
  70
    32
  0
VERTEX
  8
0
  5
44849
 10
510.037
 20
246.120
 30
0.000000
  70
    32
  0
VERTEX
  8
0
  5
4484A
 10
508.967
 20
246.721
 30
0.000000
  70
    32
  0
VERTEX
  8
0
  5
4484B
 10
507.879
 20
247.276
 30
0.000000
  70
    32
  0
VERTEX
  8
0
  5
4484C
 10
506.775
 20
247.785
 30
0.000000
  70
    32
  0
VERTEX
  8
0
  5
4484D
 10
505.655
 20
248.248
 30
0.000000
  70
    32
  0
VERTEX
  8
0
  5
4484E
 10
504.522
 20
248.664
 30
0.000000
  70
    32
  0
VERTEX
  8
0
  5
4484F
 10
503.377
 20
249.032
 30
0.000000
  70
    32
  0
VERTEX
  8
0
  5
44850
 10
502.221
 20
249.353
 30
0.000000
  70
    32
  0
VERTEX
  8
0
  5
44851
 10
501.055
 20
249.624
 30
0.000000
  70
    32
  0
VERTEX
  8
0
  5
44852
 10
499.883
 20
249.847
 30
0.000000
  70
    32
  0
VERTEX
  8
0
  5
44853
 10
498.704
 20
250.020
 30
0.000000
  70
    32
  0
VERTEX
  8
0
  5
44854
 10
497.520
 20
250.144
 30
0.000000
  70
    32
  0
VERTEX
  8
0
  5
44855
 10
496.333
 20
250.219
 30
0.000000
  70
    32
  0
VERTEX
  8
0
  5
44856
 10
495.145
 20
250.244
 30
0.000000
  70
    32
  0
VERTEX
  8
0
  5
44857
 10
493.957
 20
250.219
 30
0.000000
  70
    32
  0
VERTEX
  8
0
  5
44858
 10
492.770
 20
250.144
 30
0.000000
  70
    32
  0
VERTEX
  8
0
  5
44859
 10
491.587
 20
250.020
 30
0.000000
  70
    32
  0
VERTEX
  8
0
  5
4485A
 10
490.408
 20
249.847
 30
0.000000
  70
    32
  0
VERTEX
  8
0
  5
4485B
 10
489.235
 20
249.624
 30
0.000000
  70
    32
  0
VERTEX
  8
0
  5
4485C
 10
488.070
 20
249.353
 30
0.000000
  70
    32
  0
VERTEX
  8
0
  5
4485D
 10
486.914
 20
249.032
 30
0.000000
  70
    32
  0
VERTEX
  8
0
  5
4485E
 10
485.768
 20
248.664
 30
0.000000
  70
    32
  0
VERTEX
  8
0
  5
4485F
 10
484.635
 20
248.248
 30
0.000000
  70
    32
  0
VERTEX
  8
0
  5
44860
 10
483.516
 20
247.785
 30
0.000000
  70
    32
  0
VERTEX
  8
0
  5
44861
 10
482.411
 20
247.276
 30
0.000000
  70
    32
  0
VERTEX
  8
0
  5
44862
 10
481.323
 20
246.721
 30
0.000000
  70
    32
  0
VERTEX
  8
0
  5
44863
 10
480.253
 20
246.120
 30
0.000000
  70
    32
  0
VERTEX
  8
0
  5
44864
 10
479.203
 20
245.475
 30
0.000000
  70
    32
  0
VERTEX
  8
0
  5
44865
 10
478.173
 20
244.787
 30
0.000000
  70
    32
  0
VERTEX
  8
0
  5
44866
 10
477.165
 20
244.056
 30
0.000000
  70
    32
  0
VERTEX
  8
0
  5
44867
 10
476.180
 20
243.284
 30
0.000000
  70
    32
  0
VERTEX
  8
0
  5
44868
 10
475.220
 20
242.470
 30
0.000000
  70
    32
  0
VERTEX
  8
0
  5
44869
 10
474.286
 20
241.617
 30
0.000000
  70
    32
  0
VERTEX
  8
0
  5
4486A
 10
473.378
 20
240.726
 30
0.000000
  70
    32
  0
VERTEX
  8
0
  5
4486B
 10
472.499
 20
239.797
 30
0.000000
  70
    32
  0
VERTEX
  8
0
  5
4486C
 10
471.650
 20
238.832
 30
0.000000
  70
    32
  0
VERTEX
  8
0
  5
4486D
 10
470.831
 20
237.833
 30
0.000000
  70
    32
  0
VERTEX
  8
0
  5
4486E
 10
470.043
 20
236.799
 30
0.000000
  70
    32
  0
VERTEX
  8
0
  5
4486F
 10
469.288
 20
235.734
 30
0.000000
  70
    32
  0
VERTEX
  8
0
  5
44870
 10
468.566
 20
234.637
 30
0.000000
  70
    32
  0
VERTEX
  8
0
  5
44871
 10
467.879
 20
233.511
 30
0.000000
  70
    32
  0
VERTEX
  8
0
  5
44872
 10
467.228
 20
232.357
 30
0.000000
  70
    32
  0
VERTEX
  8
0
  5
44873
 10
466.612
 20
231.177
 30
0.000000
  70
    32
  0
VERTEX
  8
0
  5
44874
 10
466.034
 20
229.971
 30
0.000000
  70
    32
  0
VERTEX
  8
0
  5
44875
 10
465.493
 20
228.743
 30
0.000000
  70
    32
  0
VERTEX
  8
0
  5
44876
 10
464.991
 20
227.492
 30
0.000000
  70
    32
  0
VERTEX
  8
0
  5
44877
 10
464.528
 20
226.221
 30
0.000000
  70
    32
  0
VERTEX
  8
0
  5
44878
 10
464.104
 20
224.932
 30
0.000000
  70
    32
  0
VERTEX
  8
0
  5
44879
 10
463.721
 20
223.625
 30
0.000000
  70
    32
  0
VERTEX
  8
0
  5
4487A
 10
463.379
 20
222.304
 30
0.000000
  70
    32
  0
VERTEX
  8
0
  5
4487B
 10
463.077
 20
220.969
 30
0.000000
  70
    32
  0
VERTEX
  8
0
  5
4487C
 10
462.818
 20
219.623
 30
0.000000
  70
    32
  0
VERTEX
  8
0
  5
4487D
 10
462.600
 20
218.266
 30
0.000000
  70
    32
  0
VERTEX
  8
0
  5
4487E
 10
462.425
 20
216.901
 30
0.000000
  70
    32
  0
VERTEX
  8
0
  5
4487F
 10
462.291
 20
215.530
 30
0.000000
  70
    32
  0
VERTEX
  8
0
  5
44880
 10
462.201
 20
214.154
 30
0.000000
  70
    32
  0
VERTEX
  8
0
  5
44881
 10
462.153
 20
212.775
 30
0.000000
  70
    32
  0
VERTEX
  8
0
  5
44882
 10
462.148
 20
211.395
 30
0.000000
  70
    32
  0
VERTEX
  8
0
  5
44883
 10
462.186
 20
210.016
 30
0.000000
  70
    32
  0
VERTEX
  8
0
  5
44884
 10
462.267
 20
208.639
 30
0.000000
  70
    32
  0
VERTEX
  8
0
  5
44885
 10
462.390
 20
207.267
 30
0.000000
  70
    32
  0
VERTEX
  8
0
  5
44886
 10
462.556
 20
205.900
 30
0.000000
  70
    32
  0
VERTEX
  8
0
  5
44887
 10
462.764
 20
204.542
 30
0.000000
  70
    32
  0
VERTEX
  8
0
  5
44888
 10
463.013
 20
203.193
 30
0.000000
  70
    32
  0
VERTEX
  8
0
  5
44889
 10
463.305
 20
201.855
 30
0.000000
  70
    32
  0
VERTEX
  8
0
  5
4488A
 10
463.638
 20
200.530
 30
0.000000
  70
    32
  0
VERTEX
  8
0
  5
4488B
 10
464.012
 20
199.220
 30
0.000000
  70
    32
  0
VERTEX
  8
0
  5
4488C
 10
464.426
 20
197.927
 30
0.000000
  70
    32
  0
VERTEX
  8
0
  5
4488D
 10
464.880
 20
196.652
 30
0.000000
  70
    32
  0
VERTEX
  8
0
  5
4488E
 10
465.373
 20
195.396
 30
0.000000
  70
    32
  0
VERTEX
  8
0
  5
4488F
 10
465.905
 20
194.162
 30
0.000000
  70
    32
  0
VERTEX
  8
0
  5
44890
 10
466.475
 20
192.951
 30
0.000000
  70
    32
  0
VERTEX
  8
0
  5
44891
 10
467.082
 20
191.765
 30
0.000000
  70
    32
  0
VERTEX
  8
0
  5
44892
 10
467.725
 20
190.604
 30
0.000000
  70
    32
  0
VERTEX
  8
0
  5
44893
 10
468.404
 20
189.472
 30
0.000000
  70
    32
  0
VERTEX
  8
0
  5
44894
 10
469.118
 20
188.368
 30
0.000000
  70
    32
  0
VERTEX
  8
0
  5
44895
 10
469.865
 20
187.295
 30
0.000000
  70
    32
  0
VERTEX
  8
0
  5
44896
 10
470.645
 20
186.254
 30
0.000000
  70
    32
  0
SEQEND
  8
0
  5
44897
  0
LINE
  5
443E3
  8
0
 10
470.64508738264328
 20
179.74368873142259
 30
0.0
 11
470.64508738264328
 21
186.25446842328009
 31
0.0
  0
LINE
  5
443E4
  8
0
 10
519.64508738264328
 20
179.74368873142259
 30
0.0
 11
519.64508738264328
 21
186.25446842328009
 31
0.0
  0
LINE
  5
443E5
  8
0
 10
517.6450873826434
 20
183.21805876880899
 30
0.0
 11
519.64508738264328
 21
183.21805876880899
 31
0.0
  0
POLYLINE
  5
443E7
  8
0
 10
517.64508738264362
 20
187.16345632309429
 30
0.0
 66
     1
 70
     8
  0
VERTEX
  8
0
  5
44898
 10
517.645
 20
187.163
 30
0.000000
  70
    32
  0
VERTEX
  8
0
  5
44899
 10
518.406
 20
188.131
 30
0.000000
  70
    32
  0
VERTEX
  8
0
  5
4489A
 10
519.136
 20
189.129
 30
0.000000
  70
    32
  0
VERTEX
  8
0
  5
4489B
 10
519.835
 20
190.158
 30
0.000000
  70
    32
  0
VERTEX
  8
0
  5
4489C
 10
520.501
 20
191.216
 30
0.000000
  70
    32
  0
VERTEX
  8
0
  5
4489D
 10
521.133
 20
192.301
 30
0.000000
  70
    32
  0
VERTEX
  8
0
  5
4489E
 10
521.731
 20
193.412
 30
0.000000
  70
    32
  0
VERTEX
  8
0
  5
4489F
 10
522.293
 20
194.547
 30
0.000000
  70
    32
  0
VERTEX
  8
0
  5
448A0
 10
522.820
 20
195.706
 30
0.000000
  70
    32
  0
VERTEX
  8
0
  5
448A1
 10
523.310
 20
196.886
 30
0.000000
  70
    32
  0
VERTEX
  8
0
  5
448A2
 10
523.762
 20
198.086
 30
0.000000
  70
    32
  0
VERTEX
  8
0
  5
448A3
 10
524.177
 20
199.304
 30
0.000000
  70
    32
  0
VERTEX
  8
0
  5
448A4
 10
524.553
 20
200.539
 30
0.000000
  70
    32
  0
VERTEX
  8
0
  5
448A5
 10
524.891
 20
201.790
 30
0.000000
  70
    32
  0
VERTEX
  8
0
  5
448A6
 10
525.189
 20
203.053
 30
0.000000
  70
    32
  0
VERTEX
  8
0
  5
448A7
 10
525.447
 20
204.328
 30
0.000000
  70
    32
  0
VERTEX
  8
0
  5
448A8
 10
525.665
 20
205.614
 30
0.000000
  70
    32
  0
VERTEX
  8
0
  5
448A9
 10
525.842
 20
206.908
 30
0.000000
  70
    32
  0
VERTEX
  8
0
  5
448AA
 10
525.979
 20
208.208
 30
0.000000
  70
    32
  0
VERTEX
  8
0
  5
448AB
 10
526.075
 20
209.513
 30
0.000000
  70
    32
  0
VERTEX
  8
0
  5
448AC
 10
526.131
 20
210.822
 30
0.000000
  70
    32
  0
VERTEX
  8
0
  5
448AD
 10
526.145
 20
212.132
 30
0.000000
  70
    32
  0
VERTEX
  8
0
  5
448AE
 10
526.118
 20
213.441
 30
0.000000
  70
    32
  0
VERTEX
  8
0
  5
448AF
 10
526.050
 20
214.749
 30
0.000000
  70
    32
  0
VERTEX
  8
0
  5
448B0
 10
525.941
 20
216.053
 30
0.000000
  70
    32
  0
VERTEX
  8
0
  5
448B1
 10
525.791
 20
217.352
 30
0.000000
  70
    32
  0
VERTEX
  8
0
  5
448B2
 10
525.600
 20
218.643
 30
0.000000
  70
    32
  0
VERTEX
  8
0
  5
448B3
 10
525.370
 20
219.925
 30
0.000000
  70
    32
  0
VERTEX
  8
0
  5
448B4
 10
525.099
 20
221.197
 30
0.000000
  70
    32
  0
VERTEX
  8
0
  5
448B5
 10
524.789
 20
222.457
 30
0.000000
  70
    32
  0
VERTEX
  8
0
  5
448B6
 10
524.439
 20
223.702
 30
0.000000
  70
    32
  0
VERTEX
  8
0
  5
448B7
 10
524.051
 20
224.932
 30
0.000000
  70
    32
  0
VERTEX
  8
0
  5
448B8
 10
523.624
 20
226.145
 30
0.000000
  70
    32
  0
VERTEX
  8
0
  5
448B9
 10
523.159
 20
227.339
 30
0.000000
  70
    32
  0
VERTEX
  8
0
  5
448BA
 10
522.658
 20
228.512
 30
0.000000
  70
    32
  0
VERTEX
  8
0
  5
448BB
 10
522.120
 20
229.664
 30
0.000000
  70
    32
  0
VERTEX
  8
0
  5
448BC
 10
521.546
 20
230.792
 30
0.000000
  70
    32
  0
VERTEX
  8
0
  5
448BD
 10
520.937
 20
231.895
 30
0.000000
  70
    32
  0
VERTEX
  8
0
  5
448BE
 10
520.294
 20
232.971
 30
0.000000
  70
    32
  0
VERTEX
  8
0
  5
448BF
 10
519.618
 20
234.020
 30
0.000000
  70
    32
  0
VERTEX
  8
0
  5
448C0
 10
518.910
 20
235.039
 30
0.000000
  70
    32
  0
VERTEX
  8
0
  5
448C1
 10
518.169
 20
236.028
 30
0.000000
  70
    32
  0
VERTEX
  8
0
  5
448C2
 10
517.399
 20
236.985
 30
0.000000
  70
    32
  0
VERTEX
  8
0
  5
448C3
 10
516.599
 20
237.909
 30
0.000000
  70
    32
  0
VERTEX
  8
0
  5
448C4
 10
515.770
 20
238.798
 30
0.000000
  70
    32
  0
VERTEX
  8
0
  5
448C5
 10
514.914
 20
239.652
 30
0.000000
  70
    32
  0
VERTEX
  8
0
  5
448C6
 10
514.032
 20
240.469
 30
0.000000
  70
    32
  0
VERTEX
  8
0
  5
448C7
 10
513.125
 20
241.248
 30
0.000000
  70
    32
  0
VERTEX
  8
0
  5
448C8
 10
512.195
 20
241.988
 30
0.000000
  70
    32
  0
VERTEX
  8
0
  5
448C9
 10
511.241
 20
242.689
 30
0.000000
  70
    32
  0
VERTEX
  8
0
  5
448CA
 10
510.266
 20
243.348
 30
0.000000
  70
    32
  0
VERTEX
  8
0
  5
448CB
 10
509.272
 20
243.967
 30
0.000000
  70
    32
  0
VERTEX
  8
0
  5
448CC
 10
508.258
 20
244.542
 30
0.000000
  70
    32
  0
VERTEX
  8
0
  5
448CD
 10
507.227
 20
245.075
 30
0.000000
  70
    32
  0
VERTEX
  8
0
  5
448CE
 10
506.181
 20
245.563
 30
0.000000
  70
    32
  0
VERTEX
  8
0
  5
448CF
 10
505.119
 20
246.007
 30
0.000000
  70
    32
  0
VERTEX
  8
0
  5
448D0
 10
504.044
 20
246.406
 30
0.000000
  70
    32
  0
VERTEX
  8
0
  5
448D1
 10
502.958
 20
246.759
 30
0.000000
  70
    32
  0
VERTEX
  8
0
  5
448D2
 10
501.861
 20
247.066
 30
0.000000
  70
    32
  0
VERTEX
  8
0
  5
448D3
 10
500.755
 20
247.327
 30
0.000000
  70
    32
  0
VERTEX
  8
0
  5
448D4
 10
499.642
 20
247.541
 30
0.000000
  70
    32
  0
VERTEX
  8
0
  5
448D5
 10
498.523
 20
247.707
 30
0.000000
  70
    32
  0
VERTEX
  8
0
  5
448D6
 10
497.400
 20
247.826
 30
0.000000
  70
    32
  0
VERTEX
  8
0
  5
448D7
 10
496.273
 20
247.898
 30
0.000000
  70
    32
  0
VERTEX
  8
0
  5
448D8
 10
495.145
 20
247.921
 30
0.000000
  70
    32
  0
VERTEX
  8
0
  5
448D9
 10
494.017
 20
247.898
 30
0.000000
  70
    32
  0
VERTEX
  8
0
  5
448DA
 10
492.890
 20
247.826
 30
0.000000
  70
    32
  0
VERTEX
  8
0
  5
448DB
 10
491.767
 20
247.707
 30
0.000000
  70
    32
  0
VERTEX
  8
0
  5
448DC
 10
490.648
 20
247.541
 30
0.000000
  70
    32
  0
VERTEX
  8
0
  5
448DD
 10
489.535
 20
247.327
 30
0.000000
  70
    32
  0
VERTEX
  8
0
  5
448DE
 10
488.429
 20
247.066
 30
0.000000
  70
    32
  0
VERTEX
  8
0
  5
448DF
 10
487.332
 20
246.759
 30
0.000000
  70
    32
  0
VERTEX
  8
0
  5
448E0
 10
486.246
 20
246.406
 30
0.000000
  70
    32
  0
VERTEX
  8
0
  5
448E1
 10
485.171
 20
246.007
 30
0.000000
  70
    32
  0
VERTEX
  8
0
  5
448E2
 10
484.110
 20
245.563
 30
0.000000
  70
    32
  0
VERTEX
  8
0
  5
448E3
 10
483.063
 20
245.075
 30
0.000000
  70
    32
  0
VERTEX
  8
0
  5
448E4
 10
482.032
 20
244.542
 30
0.000000
  70
    32
  0
VERTEX
  8
0
  5
448E5
 10
481.018
 20
243.967
 30
0.000000
  70
    32
  0
VERTEX
  8
0
  5
448E6
 10
480.024
 20
243.348
 30
0.000000
  70
    32
  0
VERTEX
  8
0
  5
448E7
 10
479.049
 20
242.689
 30
0.000000
  70
    32
  0
VERTEX
  8
0
  5
448E8
 10
478.096
 20
241.988
 30
0.000000
  70
    32
  0
VERTEX
  8
0
  5
448E9
 10
477.165
 20
241.248
 30
0.000000
  70
    32
  0
VERTEX
  8
0
  5
448EA
 10
476.258
 20
240.469
 30
0.000000
  70
    32
  0
VERTEX
  8
0
  5
448EB
 10
475.376
 20
239.652
 30
0.000000
  70
    32
  0
VERTEX
  8
0
  5
448EC
 10
474.520
 20
238.798
 30
0.000000
  70
    32
  0
VERTEX
  8
0
  5
448ED
 10
473.691
 20
237.909
 30
0.000000
  70
    32
  0
VERTEX
  8
0
  5
448EE
 10
472.891
 20
236.985
 30
0.000000
  70
    32
  0
VERTEX
  8
0
  5
448EF
 10
472.121
 20
236.028
 30
0.000000
  70
    32
  0
VERTEX
  8
0
  5
448F0
 10
471.381
 20
235.039
 30
0.000000
  70
    32
  0
VERTEX
  8
0
  5
448F1
 10
470.672
 20
234.020
 30
0.000000
  70
    32
  0
VERTEX
  8
0
  5
448F2
 10
469.996
 20
232.971
 30
0.000000
  70
    32
  0
VERTEX
  8
0
  5
448F3
 10
469.353
 20
231.895
 30
0.000000
  70
    32
  0
VERTEX
  8
0
  5
448F4
 10
468.744
 20
230.792
 30
0.000000
  70
    32
  0
VERTEX
  8
0
  5
448F5
 10
468.170
 20
229.664
 30
0.000000
  70
    32
  0
VERTEX
  8
0
  5
448F6
 10
467.632
 20
228.512
 30
0.000000
  70
    32
  0
VERTEX
  8
0
  5
448F7
 10
467.131
 20
227.339
 30
0.000000
  70
    32
  0
VERTEX
  8
0
  5
448F8
 10
466.666
 20
226.145
 30
0.000000
  70
    32
  0
VERTEX
  8
0
  5
448F9
 10
466.240
 20
224.932
 30
0.000000
  70
    32
  0
VERTEX
  8
0
  5
448FA
 10
465.851
 20
223.702
 30
0.000000
  70
    32
  0
VERTEX
  8
0
  5
448FB
 10
465.502
 20
222.457
 30
0.000000
  70
    32
  0
VERTEX
  8
0
  5
448FC
 10
465.191
 20
221.197
 30
0.000000
  70
    32
  0
VERTEX
  8
0
  5
448FD
 10
464.920
 20
219.925
 30
0.000000
  70
    32
  0
VERTEX
  8
0
  5
448FE
 10
464.690
 20
218.643
 30
0.000000
  70
    32
  0
VERTEX
  8
0
  5
448FF
 10
464.499
 20
217.352
 30
0.000000
  70
    32
  0
VERTEX
  8
0
  5
44900
 10
464.350
 20
216.053
 30
0.000000
  70
    32
  0
VERTEX
  8
0
  5
44901
 10
464.241
 20
214.749
 30
0.000000
  70
    32
  0
VERTEX
  8
0
  5
44902
 10
464.173
 20
213.441
 30
0.000000
  70
    32
  0
VERTEX
  8
0
  5
44903
 10
464.146
 20
212.132
 30
0.000000
  70
    32
  0
VERTEX
  8
0
  5
44904
 10
464.160
 20
210.822
 30
0.000000
  70
    32
  0
VERTEX
  8
0
  5
44905
 10
464.215
 20
209.513
 30
0.000000
  70
    32
  0
VERTEX
  8
0
  5
44906
 10
464.311
 20
208.208
 30
0.000000
  70
    32
  0
VERTEX
  8
0
  5
44907
 10
464.448
 20
206.908
 30
0.000000
  70
    32
  0
VERTEX
  8
0
  5
44908
 10
464.625
 20
205.614
 30
0.000000
  70
    32
  0
VERTEX
  8
0
  5
44909
 10
464.843
 20
204.328
 30
0.000000
  70
    32
  0
VERTEX
  8
0
  5
4490A
 10
465.101
 20
203.053
 30
0.000000
  70
    32
  0
VERTEX
  8
0
  5
4490B
 10
465.399
 20
201.790
 30
0.000000
  70
    32
  0
VERTEX
  8
0
  5
4490C
 10
465.737
 20
200.539
 30
0.000000
  70
    32
  0
VERTEX
  8
0
  5
4490D
 10
466.113
 20
199.304
 30
0.000000
  70
    32
  0
VERTEX
  8
0
  5
4490E
 10
466.528
 20
198.086
 30
0.000000
  70
    32
  0
VERTEX
  8
0
  5
4490F
 10
466.980
 20
196.886
 30
0.000000
  70
    32
  0
VERTEX
  8
0
  5
44910
 10
467.470
 20
195.706
 30
0.000000
  70
    32
  0
VERTEX
  8
0
  5
44911
 10
467.997
 20
194.547
 30
0.000000
  70
    32
  0
VERTEX
  8
0
  5
44912
 10
468.559
 20
193.412
 30
0.000000
  70
    32
  0
VERTEX
  8
0
  5
44913
 10
469.157
 20
192.301
 30
0.000000
  70
    32
  0
VERTEX
  8
0
  5
44914
 10
469.789
 20
191.216
 30
0.000000
  70
    32
  0
VERTEX
  8
0
  5
44915
 10
470.455
 20
190.158
 30
0.000000
  70
    32
  0
VERTEX
  8
0
  5
44916
 10
471.154
 20
189.129
 30
0.000000
  70
    32
  0
VERTEX
  8
0
  5
44917
 10
471.884
 20
188.131
 30
0.000000
  70
    32
  0
VERTEX
  8
0
  5
44918
 10
472.645
 20
187.163
 30
0.000000
  70
    32
  0
SEQEND
  8
0
  5
44919
  0
LINE
  5
443E9
  8
0
 10
470.64508738264328
 20
183.21805876880899
 30
0.0
 11
472.6450873826434
 21
183.21805876880899
 31
0.0
  0
LINE
  5
443EA
  8
0
 10
517.6450873826434
 20
236.68691338197959
 30
0.0
 11
517.6450873826434
 21
179.74368873142259
 31
0.0
  0
LINE
  5
443EB
  8
0
 10
472.6450873826434
 20
179.74368873142259
 30
0.0
 11
472.6450873826434
 21
236.68691338197991
 31
0.0
  0
LINE
  5
443EC
  8
0
 10
517.6450873826434
 20
179.74368873142259
 30
0.0
 11
519.64508738264328
 21
179.74368873142259
 31
0.0
  0
LINE
  5
443EF
  8
0
 10
470.64508738264328
 20
179.74368873142259
 30
0.0
 11
472.6450873826434
 21
179.74368873142259
 31
0.0
  0
LINE
  5
443F2
  8
0
 10
503.57939737232249
 20
238.81183707884449
 30
0.0
 11
514.14508738264385
 21
238.81183707884449
 31
0.0
  0
LINE
  5
443F3
  8
0
 10
476.14508738264351
 20
238.81183707884449
 30
0.0
 11
486.7107773929647
 21
238.8118370788446
 31
0.0
  0
LINE
  5
443F5
  8
0
 10
482.49177690446243
 20
244.7862814485616
 30
0.0
 11
507.79839786082402
 21
244.7862814485616
 31
0.0
  0
LINE
  5
443F7
  8
0
 10
477.96579207875271
 20
241.8885039696936
 30
0.0
 11
512.32438268653357
 21
241.8885039696936
 31
0.0
  0
LINE
  5
443FA
  8
0
 10
500.84508738264287
 20
140.04368873142241
 30
0.0
 11
500.84508738264361
 21
239.44368873142261
 31
0.0
  0
LINE
  5
443FC
  8
0
 10
498.44508738264352
 20
140.04368873142241
 30
0.0
 11
498.44508738264352
 21
239.44368873142261
 31
0.0
  0
LINE
  5
443FE
  8
0
 10
491.84508738264282
 20
140.04368873142241
 30
0.0
 11
491.84508738264361
 21
239.44368873142261
 31
0.0
  0
LINE
  5
44400
  8
0
 10
489.44508738264358
 20
140.04368873142241
 30
0.0
 11
489.44508738264358
 21
239.44368873142261
 31
0.0
  0
LINE
  5
44402
  8
0
 10
504.7018112497471
 20
144.43729480331589
 30
0.0
 11
504.70181124974658
 21
235.05008265952961
 31
0.0
  0
LINE
  5
44404
  8
0
 10
485.58836351553998
 20
144.43729480331621
 30
0.0
 11
485.58836351553998
 21
235.05008265952961
 31
0.0
  0
LINE
  5
44406
  8
0
 10
505.70181124974567
 20
145.38737241490841
 30
0.0
 11
505.70181124974658
 21
234.10000504793649
 31
0.0
  0
LINE
  5
44408
  8
0
 10
484.58836351554049
 20
145.38737241490841
 30
0.0
 11
484.58836351554049
 21
234.10000504793649
 31
0.0
  0
LINE
  5
4440A
  8
0
 10
506.70181124974528
 20
148.29158329258459
 30
0.0
 11
506.7018112497467
 21
231.19579417026051
 31
0.0
  0
LINE
  5
4440C
  8
0
 10
483.58836351554038
 20
148.29158329258459
 30
0.0
 11
483.58836351554049
 21
231.19579417026051
 31
0.0
  0
LINE
  5
4440E
  8
0
 10
510.1450873826434
 20
160.24571655866271
 30
0.0
 11
510.1450873826434
 21
219.24166090417859
 31
0.0
  0
LINE
  5
44410
  8
0
 10
480.14508738264351
 20
160.24571655866271
 30
0.0
 11
480.1450873826434
 21
219.24166090417859
 31
0.0
  0
LINE
  5
44412
  8
0
 10
517.1450873826434
 20
178.63194904423381
 30
0.0
 11
517.1450873826434
 21
200.8554284186115
 31
0.0
  0
LINE
  5
44414
  8
0
 10
473.1450873826434
 20
178.63194904423381
 30
0.0
 11
473.1450873826434
 21
200.85542841861141
 31
0.0
  0
LINE
  5
4442E
  8
0
 10
515.74972209325995
 20
177.13560296884449
 30
0.0
 11
515.74972209325995
 21
202.35177449400069
 31
0.0
  0
LINE
  5
44430
  8
0
 10
474.54045267202667
 20
177.13560296884449
 30
0.0
 11
474.54045267202667
 21
202.35177449400069
 31
0.0
  0
LINE
  5
44432
  8
0
 10
89.769808336011224
 20
196.24368873142259
 30
0.0
 11
89.705053947840497
 21
196.00202206475589
 31
0.0
  0
LINE
  5
44433
  8
0
 10
89.705053947840497
 20
183.4853553980893
 30
0.0
 11
89.769808336011224
 21
183.24368873142259
 31
0.0
  0
LINE
  5
44434
  8
0
 10
95.140299559669756
 20
183.24368873142259
 30
0.0
 11
95.205053947840497
 21
183.4853553980893
 31
0.0
  0
LINE
  5
44435
  8
0
 10
95.205053947840497
 20
196.00202206475589
 30
0.0
 11
95.140299559669756
 21
196.24368873142259
 31
0.0
  0
LINE
  5
44436
  8
0
 10
149.6402995596697
 20
183.24368873142259
 30
0.0
 11
149.7050539478405
 21
183.4853553980893
 31
0.0
  0
LINE
  5
44437
  8
0
 10
149.7050539478405
 20
196.00202206475589
 30
0.0
 11
149.6402995596697
 21
196.24368873142259
 31
0.0
  0
LINE
  5
44438
  8
0
 10
142.2050539478405
 20
195.74368873142259
 30
0.0
 11
141.7050539478405
 21
195.74368873142259
 31
0.0
  0
LINE
  5
44439
  8
0
 10
97.705053947840725
 20
195.74368873142259
 30
0.0
 11
97.205053947840725
 21
195.74368873142259
 31
0.0
  0
LINE
  5
4443A
  8
0
 10
97.205053947840725
 20
183.74368873142259
 30
0.0
 11
97.705053947840725
 21
183.74368873142259
 31
0.0
  0
LINE
  5
4443B
  8
0
 10
141.7050539478405
 20
183.74368873142259
 30
0.0
 11
142.2050539478405
 21
183.74368873142259
 31
0.0
  0
LINE
  5
4443C
  8
0
 10
89.705053947840497
 20
195.55868873142251
 30
0.0
 11
87.205053947840497
 21
195.55868873142251
 31
0.0
  0
LINE
  5
4443D
  8
0
 10
87.205053947840497
 20
183.9286887314226
 30
0.0
 11
89.705053947840497
 21
183.9286887314226
 31
0.0
  0
LINE
  5
44440
  8
0
 10
83.70505394784027
 20
264.44368873142258
 30
0.0
 11
85.203833283862437
 21
255.9436887314225
 31
0.0
  0
LINE
  5
44441
  8
0
 10
154.20627461181829
 20
255.9436887314225
 30
0.0
 11
155.7050539478405
 21
264.44368873142258
 31
0.0
  0
LINE
  5
44442
  8
0
 10
84.905053947840543
 20
265.24368873142259
 30
0.0
 11
84.905053947840543
 21
264.44368873142258
 31
0.0
  0
LINE
  5
44443
  8
0
 10
154.50505394784039
 20
264.44368873142258
 30
0.0
 11
154.50505394784039
 21
265.24368873142259
 31
0.0
  0
LINE
  5
44444
  8
0
 10
86.705053947840284
 20
255.9436887314225
 30
0.0
 11
86.705053947840284
 21
211.92518485253709
 31
0.0
  0
LINE
  5
44445
  8
0
 10
152.7050539478405
 20
211.92518485253669
 30
0.0
 11
152.7050539478405
 21
255.9436887314225
 31
0.0
  0
LINE
  5
44446
  8
0
 10
112.30489928153089
 20
139.74368873142259
 30
0.0
 11
113.7050539478405
 21
139.74368873142259
 31
0.0
  0
ARC
  5
44447
  8
0
 10
112.3048992815318
 20
140.74368873142359
 30
0.0
 40
1.00000000000108
 50
199.00000000003271
 51
269.99999999994787
  0
ARC
  5
44448
  8
0
 10
113.7050539478407
 20
140.04368873142241
 30
0.0
 40
0.2999999999998977
 50
269.99999999998039
 51
0.0000000000195413
  0
ARC
  5
44449
  8
0
 10
116.7050539478405
 20
140.04368873142241
 30
0.0
 40
0.2999999999998977
 50
179.99999999997721
 51
270.00000000001961
  0
LINE
  5
4444A
  8
0
 10
116.7050539478405
 20
139.74368873142259
 30
0.0
 11
122.7050539478405
 21
139.74368873142259
 31
0.0
  0
ARC
  5
4444B
  8
0
 10
122.7050539478407
 20
140.04368873142241
 30
0.0
 40
0.2999999999998977
 50
269.99999999998039
 51
0.0000000000195413
  0
ARC
  5
4444C
  8
0
 10
125.7050539478405
 20
140.04368873142241
 30
0.0
 40
0.2999999999998977
 50
179.99999999997721
 51
270.00000000001961
  0
LINE
  5
4444D
  8
0
 10
125.7050539478405
 20
139.74368873142259
 30
0.0
 11
127.1052086141503
 21
139.74368873142259
 31
0.0
  0
ARC
  5
4444E
  8
0
 10
127.1052086141494
 20
140.74368873142359
 30
0.0
 40
1.00000000000108
 50
270.00000000004559
 51
340.99999999996732
  0
LINE
  5
4444F
  8
0
 10
114.00505394784039
 20
140.04368873142249
 30
0.0
 11
116.4050539478405
 21
140.04368873142249
 31
0.0
  0
LINE
  5
44450
  8
0
 10
123.00505394784039
 20
140.04368873142249
 30
0.0
 11
125.4050539478405
 21
140.04368873142249
 31
0.0
  0
LINE
  5
44452
  8
0
 10
110.3117743539392
 20
143.46059033994351
 30
0.0
 11
111.3593807059317
 21
140.41812057696561
 31
0.0
  0
LINE
  5
44453
  8
0
 10
128.05072718974949
 20
140.41812057696561
 30
0.0
 11
129.09833354174179
 21
143.46059033994351
 31
0.0
  0
ARC
  5
44455
  8
0
 10
113.1483300807454
 20
235.0500826595289
 30
0.0
 40
3.0000000000081282
 50
172.70346194376771
 51
179.99999999999019
  0
ARC
  5
44456
  8
0
 10
113.1483300807454
 20
144.43729480331621
 30
0.0
 40
3.0000000000081282
 50
180.00000000000651
 51
198.99999999997081
  0
ARC
  5
44457
  8
0
 10
126.2617778149358
 20
235.0500826595289
 30
0.0
 40
3.0000000000081282
 50
0.0000000000065138
 51
7.2965380562322304
  0
ARC
  5
44458
  8
0
 10
126.2617778149358
 20
144.43729480331621
 30
0.0
 40
3.0000000000081291
 50
341.00000000002922
 51
359.99999999999352
  0
ARC
  5
44459
  8
0
 10
109.6483300807374
 20
234.10000504793669
 30
0.0
 40
0.4999999999998864
 50
359.99999999999352
 51
180.00000000000651
  0
ARC
  5
4445A
  8
0
 10
109.6483300807374
 20
145.38737241490841
 30
0.0
 40
0.4999999999998864
 50
179.99999999998701
 51
0.0000000000130276
  0
ARC
  5
4445B
  8
0
 10
129.7617778149436
 20
234.10000504793669
 30
0.0
 40
0.4999999999998295
 50
359.99999999999352
 51
180.00000000000651
  0
ARC
  5
4445C
  8
0
 10
129.7617778149436
 20
145.38737241490841
 30
0.0
 40
0.4999999999998295
 50
179.99999999998701
 51
0.0000000000130276
  0
ARC
  5
4445D
  8
0
 10
108.6483300807374
 20
231.19579417026051
 30
0.0
 40
0.5
 50
0.0
 51
180.0
  0
ARC
  5
4445E
  8
0
 10
108.6483300807374
 20
148.29158329258459
 30
0.0
 40
0.5
 50
180.0
 51
0.0
  0
ARC
  5
4445F
  8
0
 10
130.7617778149436
 20
231.19579417026051
 30
0.0
 40
0.5
 50
0.0
 51
180.0
  0
ARC
  5
44460
  8
0
 10
130.7617778149436
 20
148.29158329258459
 30
0.0
 40
0.5
 50
180.0
 51
0.0
  0
LINE
  5
44461
  8
0
 10
108.1483300807374
 20
229.74368873142259
 30
0.0
 11
104.8684982210425
 21
220.21836536754961
 31
0.0
  0
LINE
  5
44462
  8
0
 10
104.8684982210425
 20
159.26901209529561
 30
0.0
 11
108.1483300807374
 21
149.74368873142259
 31
0.0
  0
LINE
  5
44463
  8
0
 10
131.26177781494351
 20
149.74368873142259
 30
0.0
 11
134.54160967463849
 21
159.26901209529561
 31
0.0
  0
LINE
  5
44464
  8
0
 10
134.54160967463849
 20
220.21836536754961
 30
0.0
 11
131.26177781494351
 21
229.74368873142271
 31
0.0
  0
ARC
  5
44465
  8
0
 10
107.7050539478155
 20
219.24166090418251
 30
0.0
 40
2.999999999974988
 50
160.9999999999223
 51
180.00000000003581
  0
ARC
  5
44466
  8
0
 10
107.7050539478155
 20
160.24571655866271
 30
0.0
 40
2.999999999974988
 50
179.99999999996089
 51
199.0000000000777
  0
ARC
  5
44467
  8
0
 10
131.70505394786571
 20
219.24166090418251
 30
0.0
 40
2.9999999999749321
 50
359.99999999996419
 51
19.000000000077691
  0
ARC
  5
44468
  8
0
 10
131.70505394786571
 20
160.24571655866271
 30
0.0
 40
2.9999999999749321
 50
340.9999999999223
 51
0.0000000000390827
  0
LINE
  5
44469
  8
0
 10
104.7050539478407
 20
202.74368873142231
 30
0.0
 11
99.100419237223832
 21
202.35177449400069
 31
0.0
  0
LINE
  5
4446A
  8
0
 10
99.100419237223832
 20
177.13560296884449
 30
0.0
 11
104.7050539478407
 21
176.74368873142291
 31
0.0
  0
LINE
  5
4446B
  8
0
 10
134.7050539478407
 20
176.74368873142291
 30
0.0
 11
140.30968865845711
 21
177.13560296884449
 31
0.0
  0
LINE
  5
4446C
  8
0
 10
140.30968865845711
 20
202.35177449400069
 30
0.0
 11
134.7050539478407
 21
202.74368873142231
 31
0.0
  0
ARC
  5
4446D
  8
0
 10
99.205053947840042
 20
200.8554284186115
 30
0.0
 40
1.499999999999492
 50
94.000000000003027
 51
180.0
  0
ARC
  5
4446E
  8
0
 10
99.205053947840042
 20
178.63194904423381
 30
0.0
 40
1.499999999999492
 50
180.0
 51
265.99999999999699
  0
ARC
  5
4446F
  8
0
 10
140.20505394784121
 20
200.85542841861141
 30
0.0
 40
1.499999999999545
 50
0.0
 51
86.000000000003496
  0
ARC
  5
44470
  8
0
 10
140.20505394784121
 20
178.63194904423381
 30
0.0
 40
1.499999999999488
 50
274.0000000000029
 51
0.0
  0
ARC
  5
44471
  8
0
 10
75.222210187795781
 20
192.99368873142259
 30
0.0
 40
19.915622769072609
 50
350.60798487924609
 51
9.3920151207539408
  0
LINE
  5
44472
  8
0
 10
90.039245584139039
 20
189.74368873142259
 30
0.0
 11
94.870862311541941
 21
189.74368873142259
 31
0.0
  0
ARC
  5
44473
  8
0
 10
109.689975172527
 20
192.99368873142259
 30
0.0
 40
19.917672388006331
 50
170.60896010948099
 51
189.3910398905189
  0
ARC
  5
44475
  8
0
 10
75.008101496867539
 20
186.49368873142259
 30
0.0
 40
20.126891642302091
 50
350.70744979238867
 51
9.2925502076112565
  0
ARC
  5
44477
  8
0
 10
109.9051321907946
 20
186.49368873142259
 30
0.0
 40
20.129976419968688
 50
170.7088864262289
 51
189.2911135737744
  0
LINE
  5
44478
  8
0
 10
89.705053947840497
 20
196.00202206475589
 30
0.0
 11
89.705053947840497
 21
183.4853553980893
 31
0.0
  0
LINE
  5
4447B
  8
0
 10
89.769808336011224
 20
183.24368873142259
 30
0.0
 11
95.140299559669756
 21
183.24368873142259
 31
0.0
  0
LINE
  5
4447C
  8
0
 10
95.140299559669756
 20
196.24368873142259
 30
0.0
 11
89.769808336011224
 21
196.24368873142259
 31
0.0
  0
ARC
  5
4447D
  8
0
 10
129.50810149688141
 20
186.49368873142271
 30
0.0
 40
20.12689164228825
 50
350.70744979238208
 51
9.2925502076178823
  0
LINE
  5
4447E
  8
0
 10
144.2050539478405
 20
183.24368873142259
 30
0.0
 11
149.6402995596697
 21
183.24368873142259
 31
0.0
  0
LINE
  5
4447F
  8
0
 10
144.2050539478405
 20
189.74368873142271
 30
0.0
 11
149.37086231154171
 21
189.74368873142271
 31
0.0
  0
ARC
  5
44480
  8
0
 10
129.7222101878103
 20
192.99368873142271
 30
0.0
 40
19.915622769057968
 50
350.60798487923938
 51
9.3920151207605382
  0
LINE
  5
44481
  8
0
 10
144.2050539478405
 20
196.24368873142259
 30
0.0
 11
149.6402995596697
 21
196.24368873142259
 31
0.0
  0
LINE
  5
44482
  8
0
 10
149.7050539478405
 20
196.00202206475589
 30
0.0
 11
149.7050539478405
 21
183.4853553980893
 31
0.0
  0
LINE
  5
44485
  8
0
 10
87.205053947840497
 20
195.55868873142251
 30
0.0
 11
87.205053947840497
 21
183.9286887314226
 31
0.0
  0
LINE
  5
44492
  8
0
 10
144.2050539478407
 20
240.74368873142259
 30
0.0
 11
138.7050539478405
 21
240.74368873142259
 31
0.0
  0
LINE
  5
44493
  8
0
 10
100.7050539478406
 20
240.74368873142259
 30
0.0
 11
95.205053947840725
 21
240.74368873142259
 31
0.0
  0
LINE
  5
44494
  8
0
 10
144.2050539478407
 20
253.74368873142259
 30
0.0
 11
95.205053947840497
 21
253.74368873142259
 31
0.0
  0
LINE
  5
44496
  8
0
 10
100.7050539478405
 20
238.81183707884449
 30
0.0
 11
97.205053947840725
 21
238.81183707884449
 31
0.0
  0
LINE
  5
44498
  8
0
 10
97.205053947840725
 20
227.74368873142271
 30
0.0
 11
95.205053947840725
 21
227.74368873142271
 31
0.0
  0
LINE
  5
4449B
  8
0
 10
144.2050539478407
 20
227.74368873142271
 30
0.0
 11
142.2050539478407
 21
227.74368873142271
 31
0.0
  0
LINE
  5
4449D
  8
0
 10
142.2050539478407
 20
238.81183707884449
 30
0.0
 11
138.70505394784061
 21
238.8118370788446
 31
0.0
  0
LINE
  5
4449E
  8
0
 10
97.205053947840725
 20
190.85450239424739
 30
0.0
 11
95.205053947840725
 21
190.85450239424739
 31
0.0
  0
LINE
  5
4449F
  8
0
 10
97.205053947840725
 20
179.74368873142259
 30
0.0
 11
95.205053947840497
 21
179.74368873142259
 31
0.0
  0
LINE
  5
444A2
  8
0
 10
144.2050539478405
 20
179.74368873142259
 30
0.0
 11
142.2050539478405
 21
179.74368873142259
 31
0.0
  0
LINE
  5
444A3
  8
0
 10
144.2050539478407
 20
190.85450239424739
 30
0.0
 11
142.2050539478407
 21
190.85450239424739
 31
0.0
  0
LINE
  5
444A6
  8
0
 10
97.205053947840725
 20
179.74368873142259
 30
0.0
 11
97.205053947840725
 21
238.81183707884449
 31
0.0
  0
LINE
  5
444A7
  8
0
 10
95.205053947840383
 20
253.74368873142259
 30
0.0
 11
95.205053947840838
 21
179.74368873142259
 31
0.0
  0
LINE
  5
444A8
  8
0
 10
142.2050539478407
 20
238.81183707884449
 30
0.0
 11
142.2050539478407
 21
179.74368873142259
 31
0.0
  0
LINE
  5
444A9
  8
0
 10
144.2050539478407
 20
253.74368873142259
 30
0.0
 11
144.2050539478405
 21
179.74368873142259
 31
0.0
  0
LINE
  5
444AB
  8
0
 10
77.205053947840497
 20
265.24368873142259
 30
0.0
 11
77.205053947840497
 21
267.74368873142259
 31
0.0
  0
LINE
  5
444AC
  8
0
 10
77.205053947840497
 20
265.24368873142259
 30
0.0
 11
162.2050539478407
 21
265.24368873142259
 31
0.0
  0
LINE
  5
444AD
  8
0
 10
77.205053947840497
 20
267.74368873142259
 30
0.0
 11
162.2050539478407
 21
267.74368873142259
 31
0.0
  0
LINE
  5
444B1
  8
0
 10
162.2050539478407
 20
265.24368873142259
 30
0.0
 11
162.2050539478407
 21
267.74368873142259
 31
0.0
  0
LINE
  5
444B4
  8
0
 10
85.203833283862437
 20
255.9436887314225
 30
0.0
 11
154.20627461181829
 21
255.9436887314225
 31
0.0
  0
LINE
  5
444B5
  8
0
 10
83.705053947840497
 20
264.44368873142258
 30
0.0
 11
155.7050539478405
 21
264.44368873142258
 31
0.0
  0
POLYLINE
  5
444B6
  8
0
 10
86.705053947840497
 20
211.92518485253697
 30
0.0
 66
     1
 70
     8
  0
VERTEX
  8
0
  5
4491A
 10
86.7051
 20
211.925
 30
0.000000
  70
    32
  0
VERTEX
  8
0
  5
4491B
 10
86.7052
 20
211.797
 30
0.000000
  70
    32
  0
VERTEX
  8
0
  5
4491C
 10
86.7058
 20
211.668
 30
0.000000
  70
    32
  0
VERTEX
  8
0
  5
4491D
 10
86.7067
 20
211.539
 30
0.000000
  70
    32
  0
VERTEX
  8
0
  5
4491E
 10
86.7080
 20
211.411
 30
0.000000
  70
    32
  0
VERTEX
  8
0
  5
4491F
 10
86.7097
 20
211.282
 30
0.000000
  70
    32
  0
VERTEX
  8
0
  5
44920
 10
86.7117
 20
211.153
 30
0.000000
  70
    32
  0
VERTEX
  8
0
  5
44921
 10
86.7142
 20
211.025
 30
0.000000
  70
    32
  0
VERTEX
  8
0
  5
44922
 10
86.7170
 20
210.896
 30
0.000000
  70
    32
  0
VERTEX
  8
0
  5
44923
 10
86.7201
 20
210.768
 30
0.000000
  70
    32
  0
VERTEX
  8
0
  5
44924
 10
86.7236
 20
210.639
 30
0.000000
  70
    32
  0
VERTEX
  8
0
  5
44925
 10
86.7276
 20
210.511
 30
0.000000
  70
    32
  0
VERTEX
  8
0
  5
44926
 10
86.7318
 20
210.382
 30
0.000000
  70
    32
  0
VERTEX
  8
0
  5
44927
 10
86.7365
 20
210.253
 30
0.000000
  70
    32
  0
VERTEX
  8
0
  5
44928
 10
86.7415
 20
210.125
 30
0.000000
  70
    32
  0
VERTEX
  8
0
  5
44929
 10
86.7469
 20
209.996
 30
0.000000
  70
    32
  0
VERTEX
  8
0
  5
4492A
 10
86.7526
 20
209.868
 30
0.000000
  70
    32
  0
VERTEX
  8
0
  5
4492B
 10
86.7588
 20
209.740
 30
0.000000
  70
    32
  0
VERTEX
  8
0
  5
4492C
 10
86.7653
 20
209.611
 30
0.000000
  70
    32
  0
VERTEX
  8
0
  5
4492D
 10
86.7722
 20
209.483
 30
0.000000
  70
    32
  0
VERTEX
  8
0
  5
4492E
 10
86.7794
 20
209.354
 30
0.000000
  70
    32
  0
VERTEX
  8
0
  5
4492F
 10
86.7870
 20
209.226
 30
0.000000
  70
    32
  0
VERTEX
  8
0
  5
44930
 10
86.7950
 20
209.098
 30
0.000000
  70
    32
  0
VERTEX
  8
0
  5
44931
 10
86.8034
 20
208.969
 30
0.000000
  70
    32
  0
VERTEX
  8
0
  5
44932
 10
86.8121
 20
208.841
 30
0.000000
  70
    32
  0
VERTEX
  8
0
  5
44933
 10
86.8212
 20
208.713
 30
0.000000
  70
    32
  0
VERTEX
  8
0
  5
44934
 10
86.8307
 20
208.585
 30
0.000000
  70
    32
  0
VERTEX
  8
0
  5
44935
 10
86.8405
 20
208.457
 30
0.000000
  70
    32
  0
VERTEX
  8
0
  5
44936
 10
86.8507
 20
208.329
 30
0.000000
  70
    32
  0
VERTEX
  8
0
  5
44937
 10
86.8613
 20
208.201
 30
0.000000
  70
    32
  0
VERTEX
  8
0
  5
44938
 10
86.8723
 20
208.073
 30
0.000000
  70
    32
  0
VERTEX
  8
0
  5
44939
 10
86.8836
 20
207.945
 30
0.000000
  70
    32
  0
VERTEX
  8
0
  5
4493A
 10
86.8953
 20
207.817
 30
0.000000
  70
    32
  0
VERTEX
  8
0
  5
4493B
 10
86.9073
 20
207.689
 30
0.000000
  70
    32
  0
VERTEX
  8
0
  5
4493C
 10
86.9198
 20
207.561
 30
0.000000
  70
    32
  0
VERTEX
  8
0
  5
4493D
 10
86.9326
 20
207.433
 30
0.000000
  70
    32
  0
VERTEX
  8
0
  5
4493E
 10
86.9458
 20
207.306
 30
0.000000
  70
    32
  0
VERTEX
  8
0
  5
4493F
 10
86.9593
 20
207.178
 30
0.000000
  70
    32
  0
VERTEX
  8
0
  5
44940
 10
86.9732
 20
207.050
 30
0.000000
  70
    32
  0
VERTEX
  8
0
  5
44941
 10
86.9875
 20
206.923
 30
0.000000
  70
    32
  0
VERTEX
  8
0
  5
44942
 10
87.0021
 20
206.795
 30
0.000000
  70
    32
  0
VERTEX
  8
0
  5
44943
 10
87.0171
 20
206.668
 30
0.000000
  70
    32
  0
VERTEX
  8
0
  5
44944
 10
87.0325
 20
206.540
 30
0.000000
  70
    32
  0
VERTEX
  8
0
  5
44945
 10
87.0483
 20
206.413
 30
0.000000
  70
    32
  0
VERTEX
  8
0
  5
44946
 10
87.0644
 20
206.286
 30
0.000000
  70
    32
  0
VERTEX
  8
0
  5
44947
 10
87.0809
 20
206.159
 30
0.000000
  70
    32
  0
VERTEX
  8
0
  5
44948
 10
87.0977
 20
206.031
 30
0.000000
  70
    32
  0
VERTEX
  8
0
  5
44949
 10
87.1150
 20
205.904
 30
0.000000
  70
    32
  0
VERTEX
  8
0
  5
4494A
 10
87.1326
 20
205.777
 30
0.000000
  70
    32
  0
VERTEX
  8
0
  5
4494B
 10
87.1505
 20
205.650
 30
0.000000
  70
    32
  0
VERTEX
  8
0
  5
4494C
 10
87.1688
 20
205.524
 30
0.000000
  70
    32
  0
VERTEX
  8
0
  5
4494D
 10
87.1875
 20
205.397
 30
0.000000
  70
    32
  0
VERTEX
  8
0
  5
4494E
 10
87.2066
 20
205.270
 30
0.000000
  70
    32
  0
VERTEX
  8
0
  5
4494F
 10
87.2260
 20
205.143
 30
0.000000
  70
    32
  0
VERTEX
  8
0
  5
44950
 10
87.2458
 20
205.017
 30
0.000000
  70
    32
  0
VERTEX
  8
0
  5
44951
 10
87.2660
 20
204.890
 30
0.000000
  70
    32
  0
VERTEX
  8
0
  5
44952
 10
87.2865
 20
204.764
 30
0.000000
  70
    32
  0
VERTEX
  8
0
  5
44953
 10
87.3074
 20
204.638
 30
0.000000
  70
    32
  0
VERTEX
  8
0
  5
44954
 10
87.3286
 20
204.511
 30
0.000000
  70
    32
  0
VERTEX
  8
0
  5
44955
 10
87.3502
 20
204.385
 30
0.000000
  70
    32
  0
VERTEX
  8
0
  5
44956
 10
87.3722
 20
204.259
 30
0.000000
  70
    32
  0
VERTEX
  8
0
  5
44957
 10
87.3946
 20
204.133
 30
0.000000
  70
    32
  0
VERTEX
  8
0
  5
44958
 10
87.4173
 20
204.007
 30
0.000000
  70
    32
  0
VERTEX
  8
0
  5
44959
 10
87.4403
 20
203.881
 30
0.000000
  70
    32
  0
VERTEX
  8
0
  5
4495A
 10
87.4638
 20
203.756
 30
0.000000
  70
    32
  0
VERTEX
  8
0
  5
4495B
 10
87.4876
 20
203.630
 30
0.000000
  70
    32
  0
VERTEX
  8
0
  5
4495C
 10
87.5117
 20
203.504
 30
0.000000
  70
    32
  0
VERTEX
  8
0
  5
4495D
 10
87.5363
 20
203.379
 30
0.000000
  70
    32
  0
VERTEX
  8
0
  5
4495E
 10
87.5612
 20
203.254
 30
0.000000
  70
    32
  0
VERTEX
  8
0
  5
4495F
 10
87.5864
 20
203.128
 30
0.000000
  70
    32
  0
VERTEX
  8
0
  5
44960
 10
87.6120
 20
203.003
 30
0.000000
  70
    32
  0
VERTEX
  8
0
  5
44961
 10
87.6380
 20
202.878
 30
0.000000
  70
    32
  0
VERTEX
  8
0
  5
44962
 10
87.6643
 20
202.753
 30
0.000000
  70
    32
  0
VERTEX
  8
0
  5
44963
 10
87.6910
 20
202.628
 30
0.000000
  70
    32
  0
VERTEX
  8
0
  5
44964
 10
87.7181
 20
202.504
 30
0.000000
  70
    32
  0
VERTEX
  8
0
  5
44965
 10
87.7455
 20
202.379
 30
0.000000
  70
    32
  0
VERTEX
  8
0
  5
44966
 10
87.7733
 20
202.255
 30
0.000000
  70
    32
  0
VERTEX
  8
0
  5
44967
 10
87.8014
 20
202.130
 30
0.000000
  70
    32
  0
VERTEX
  8
0
  5
44968
 10
87.8299
 20
202.006
 30
0.000000
  70
    32
  0
VERTEX
  8
0
  5
44969
 10
87.8588
 20
201.882
 30
0.000000
  70
    32
  0
VERTEX
  8
0
  5
4496A
 10
87.8880
 20
201.758
 30
0.000000
  70
    32
  0
VERTEX
  8
0
  5
4496B
 10
87.9176
 20
201.634
 30
0.000000
  70
    32
  0
VERTEX
  8
0
  5
4496C
 10
87.9475
 20
201.510
 30
0.000000
  70
    32
  0
VERTEX
  8
0
  5
4496D
 10
87.9778
 20
201.386
 30
0.000000
  70
    32
  0
VERTEX
  8
0
  5
4496E
 10
88.0084
 20
201.262
 30
0.000000
  70
    32
  0
VERTEX
  8
0
  5
4496F
 10
88.0394
 20
201.139
 30
0.000000
  70
    32
  0
VERTEX
  8
0
  5
44970
 10
88.0708
 20
201.016
 30
0.000000
  70
    32
  0
VERTEX
  8
0
  5
44971
 10
88.1025
 20
200.892
 30
0.000000
  70
    32
  0
VERTEX
  8
0
  5
44972
 10
88.1346
 20
200.769
 30
0.000000
  70
    32
  0
VERTEX
  8
0
  5
44973
 10
88.1670
 20
200.646
 30
0.000000
  70
    32
  0
VERTEX
  8
0
  5
44974
 10
88.1998
 20
200.523
 30
0.000000
  70
    32
  0
VERTEX
  8
0
  5
44975
 10
88.2330
 20
200.401
 30
0.000000
  70
    32
  0
VERTEX
  8
0
  5
44976
 10
88.2665
 20
200.278
 30
0.000000
  70
    32
  0
VERTEX
  8
0
  5
44977
 10
88.3003
 20
200.155
 30
0.000000
  70
    32
  0
VERTEX
  8
0
  5
44978
 10
88.3345
 20
200.033
 30
0.000000
  70
    32
  0
VERTEX
  8
0
  5
44979
 10
88.3691
 20
199.911
 30
0.000000
  70
    32
  0
VERTEX
  8
0
  5
4497A
 10
88.4040
 20
199.789
 30
0.000000
  70
    32
  0
VERTEX
  8
0
  5
4497B
 10
88.4392
 20
199.667
 30
0.000000
  70
    32
  0
VERTEX
  8
0
  5
4497C
 10
88.4749
 20
199.545
 30
0.000000
  70
    32
  0
VERTEX
  8
0
  5
4497D
 10
88.5108
 20
199.423
 30
0.000000
  70
    32
  0
VERTEX
  8
0
  5
4497E
 10
88.5471
 20
199.302
 30
0.000000
  70
    32
  0
VERTEX
  8
0
  5
4497F
 10
88.5838
 20
199.180
 30
0.000000
  70
    32
  0
VERTEX
  8
0
  5
44980
 10
88.6208
 20
199.059
 30
0.000000
  70
    32
  0
VERTEX
  8
0
  5
44981
 10
88.6582
 20
198.938
 30
0.000000
  70
    32
  0
VERTEX
  8
0
  5
44982
 10
88.6959
 20
198.817
 30
0.000000
  70
    32
  0
VERTEX
  8
0
  5
44983
 10
88.7340
 20
198.696
 30
0.000000
  70
    32
  0
VERTEX
  8
0
  5
44984
 10
88.7724
 20
198.576
 30
0.000000
  70
    32
  0
VERTEX
  8
0
  5
44985
 10
88.8112
 20
198.455
 30
0.000000
  70
    32
  0
VERTEX
  8
0
  5
44986
 10
88.8503
 20
198.335
 30
0.000000
  70
    32
  0
VERTEX
  8
0
  5
44987
 10
88.8898
 20
198.215
 30
0.000000
  70
    32
  0
VERTEX
  8
0
  5
44988
 10
88.9296
 20
198.095
 30
0.000000
  70
    32
  0
VERTEX
  8
0
  5
44989
 10
88.9697
 20
197.975
 30
0.000000
  70
    32
  0
VERTEX
  8
0
  5
4498A
 10
89.0102
 20
197.855
 30
0.000000
  70
    32
  0
VERTEX
  8
0
  5
4498B
 10
89.0511
 20
197.735
 30
0.000000
  70
    32
  0
VERTEX
  8
0
  5
4498C
 10
89.0923
 20
197.616
 30
0.000000
  70
    32
  0
VERTEX
  8
0
  5
4498D
 10
89.1338
 20
197.497
 30
0.000000
  70
    32
  0
VERTEX
  8
0
  5
4498E
 10
89.1757
 20
197.378
 30
0.000000
  70
    32
  0
VERTEX
  8
0
  5
4498F
 10
89.2180
 20
197.259
 30
0.000000
  70
    32
  0
VERTEX
  8
0
  5
44990
 10
89.2605
 20
197.140
 30
0.000000
  70
    32
  0
VERTEX
  8
0
  5
44991
 10
89.3034
 20
197.021
 30
0.000000
  70
    32
  0
VERTEX
  8
0
  5
44992
 10
89.3467
 20
196.903
 30
0.000000
  70
    32
  0
VERTEX
  8
0
  5
44993
 10
89.3903
 20
196.785
 30
0.000000
  70
    32
  0
VERTEX
  8
0
  5
44994
 10
89.4342
 20
196.667
 30
0.000000
  70
    32
  0
VERTEX
  8
0
  5
44995
 10
89.4785
 20
196.549
 30
0.000000
  70
    32
  0
VERTEX
  8
0
  5
44996
 10
89.5232
 20
196.431
 30
0.000000
  70
    32
  0
VERTEX
  8
0
  5
44997
 10
89.5681
 20
196.313
 30
0.000000
  70
    32
  0
VERTEX
  8
0
  5
44998
 10
89.6134
 20
196.196
 30
0.000000
  70
    32
  0
VERTEX
  8
0
  5
44999
 10
89.6591
 20
196.079
 30
0.000000
  70
    32
  0
VERTEX
  8
0
  5
4499A
 10
89.7051
 20
195.962
 30
0.000000
  70
    32
  0
SEQEND
  8
0
  5
4499B
  0
POLYLINE
  5
444B7
  8
0
 10
149.7050539478407
 20
195.96178080322326
 30
0.0
 66
     1
 70
     8
  0
VERTEX
  8
0
  5
4499C
 10
149.705
 20
195.962
 30
0.000000
  70
    32
  0
VERTEX
  8
0
  5
4499D
 10
149.751
 20
196.079
 30
0.000000
  70
    32
  0
VERTEX
  8
0
  5
4499E
 10
149.797
 20
196.196
 30
0.000000
  70
    32
  0
VERTEX
  8
0
  5
4499F
 10
149.842
 20
196.313
 30
0.000000
  70
    32
  0
VERTEX
  8
0
  5
449A0
 10
149.887
 20
196.431
 30
0.000000
  70
    32
  0
VERTEX
  8
0
  5
449A1
 10
149.932
 20
196.549
 30
0.000000
  70
    32
  0
VERTEX
  8
0
  5
449A2
 10
149.976
 20
196.667
 30
0.000000
  70
    32
  0
VERTEX
  8
0
  5
449A3
 10
150.020
 20
196.785
 30
0.000000
  70
    32
  0
VERTEX
  8
0
  5
449A4
 10
150.063
 20
196.903
 30
0.000000
  70
    32
  0
VERTEX
  8
0
  5
449A5
 10
150.107
 20
197.021
 30
0.000000
  70
    32
  0
VERTEX
  8
0
  5
449A6
 10
150.150
 20
197.140
 30
0.000000
  70
    32
  0
VERTEX
  8
0
  5
449A7
 10
150.192
 20
197.259
 30
0.000000
  70
    32
  0
VERTEX
  8
0
  5
449A8
 10
150.234
 20
197.378
 30
0.000000
  70
    32
  0
VERTEX
  8
0
  5
449A9
 10
150.276
 20
197.497
 30
0.000000
  70
    32
  0
VERTEX
  8
0
  5
449AA
 10
150.318
 20
197.616
 30
0.000000
  70
    32
  0
VERTEX
  8
0
  5
449AB
 10
150.359
 20
197.735
 30
0.000000
  70
    32
  0
VERTEX
  8
0
  5
449AC
 10
150.400
 20
197.855
 30
0.000000
  70
    32
  0
VERTEX
  8
0
  5
449AD
 10
150.440
 20
197.975
 30
0.000000
  70
    32
  0
VERTEX
  8
0
  5
449AE
 10
150.481
 20
198.095
 30
0.000000
  70
    32
  0
VERTEX
  8
0
  5
449AF
 10
150.520
 20
198.215
 30
0.000000
  70
    32
  0
VERTEX
  8
0
  5
449B0
 10
150.560
 20
198.335
 30
0.000000
  70
    32
  0
VERTEX
  8
0
  5
449B1
 10
150.599
 20
198.455
 30
0.000000
  70
    32
  0
VERTEX
  8
0
  5
449B2
 10
150.638
 20
198.576
 30
0.000000
  70
    32
  0
VERTEX
  8
0
  5
449B3
 10
150.676
 20
198.696
 30
0.000000
  70
    32
  0
VERTEX
  8
0
  5
449B4
 10
150.714
 20
198.817
 30
0.000000
  70
    32
  0
VERTEX
  8
0
  5
449B5
 10
150.752
 20
198.938
 30
0.000000
  70
    32
  0
VERTEX
  8
0
  5
449B6
 10
150.789
 20
199.059
 30
0.000000
  70
    32
  0
VERTEX
  8
0
  5
449B7
 10
150.826
 20
199.180
 30
0.000000
  70
    32
  0
VERTEX
  8
0
  5
449B8
 10
150.863
 20
199.302
 30
0.000000
  70
    32
  0
VERTEX
  8
0
  5
449B9
 10
150.899
 20
199.423
 30
0.000000
  70
    32
  0
VERTEX
  8
0
  5
449BA
 10
150.935
 20
199.545
 30
0.000000
  70
    32
  0
VERTEX
  8
0
  5
449BB
 10
150.971
 20
199.667
 30
0.000000
  70
    32
  0
VERTEX
  8
0
  5
449BC
 10
151.006
 20
199.789
 30
0.000000
  70
    32
  0
VERTEX
  8
0
  5
449BD
 10
151.041
 20
199.911
 30
0.000000
  70
    32
  0
VERTEX
  8
0
  5
449BE
 10
151.076
 20
200.033
 30
0.000000
  70
    32
  0
VERTEX
  8
0
  5
449BF
 10
151.110
 20
200.155
 30
0.000000
  70
    32
  0
VERTEX
  8
0
  5
449C0
 10
151.144
 20
200.278
 30
0.000000
  70
    32
  0
VERTEX
  8
0
  5
449C1
 10
151.177
 20
200.401
 30
0.000000
  70
    32
  0
VERTEX
  8
0
  5
449C2
 10
151.210
 20
200.523
 30
0.000000
  70
    32
  0
VERTEX
  8
0
  5
449C3
 10
151.243
 20
200.646
 30
0.000000
  70
    32
  0
VERTEX
  8
0
  5
449C4
 10
151.276
 20
200.769
 30
0.000000
  70
    32
  0
VERTEX
  8
0
  5
449C5
 10
151.308
 20
200.892
 30
0.000000
  70
    32
  0
VERTEX
  8
0
  5
449C6
 10
151.339
 20
201.016
 30
0.000000
  70
    32
  0
VERTEX
  8
0
  5
449C7
 10
151.371
 20
201.139
 30
0.000000
  70
    32
  0
VERTEX
  8
0
  5
449C8
 10
151.402
 20
201.262
 30
0.000000
  70
    32
  0
VERTEX
  8
0
  5
449C9
 10
151.432
 20
201.386
 30
0.000000
  70
    32
  0
VERTEX
  8
0
  5
449CA
 10
151.463
 20
201.510
 30
0.000000
  70
    32
  0
VERTEX
  8
0
  5
449CB
 10
151.493
 20
201.634
 30
0.000000
  70
    32
  0
VERTEX
  8
0
  5
449CC
 10
151.522
 20
201.758
 30
0.000000
  70
    32
  0
VERTEX
  8
0
  5
449CD
 10
151.551
 20
201.882
 30
0.000000
  70
    32
  0
VERTEX
  8
0
  5
449CE
 10
151.580
 20
202.006
 30
0.000000
  70
    32
  0
VERTEX
  8
0
  5
449CF
 10
151.609
 20
202.130
 30
0.000000
  70
    32
  0
VERTEX
  8
0
  5
449D0
 10
151.637
 20
202.255
 30
0.000000
  70
    32
  0
VERTEX
  8
0
  5
449D1
 10
151.665
 20
202.379
 30
0.000000
  70
    32
  0
VERTEX
  8
0
  5
449D2
 10
151.692
 20
202.504
 30
0.000000
  70
    32
  0
VERTEX
  8
0
  5
449D3
 10
151.719
 20
202.628
 30
0.000000
  70
    32
  0
VERTEX
  8
0
  5
449D4
 10
151.746
 20
202.753
 30
0.000000
  70
    32
  0
VERTEX
  8
0
  5
449D5
 10
151.772
 20
202.878
 30
0.000000
  70
    32
  0
VERTEX
  8
0
  5
449D6
 10
151.798
 20
203.003
 30
0.000000
  70
    32
  0
VERTEX
  8
0
  5
449D7
 10
151.824
 20
203.128
 30
0.000000
  70
    32
  0
VERTEX
  8
0
  5
449D8
 10
151.849
 20
203.254
 30
0.000000
  70
    32
  0
VERTEX
  8
0
  5
449D9
 10
151.874
 20
203.379
 30
0.000000
  70
    32
  0
VERTEX
  8
0
  5
449DA
 10
151.898
 20
203.504
 30
0.000000
  70
    32
  0
VERTEX
  8
0
  5
449DB
 10
151.923
 20
203.630
 30
0.000000
  70
    32
  0
VERTEX
  8
0
  5
449DC
 10
151.946
 20
203.756
 30
0.000000
  70
    32
  0
VERTEX
  8
0
  5
449DD
 10
151.970
 20
203.881
 30
0.000000
  70
    32
  0
VERTEX
  8
0
  5
449DE
 10
151.993
 20
204.007
 30
0.000000
  70
    32
  0
VERTEX
  8
0
  5
449DF
 10
152.016
 20
204.133
 30
0.000000
  70
    32
  0
VERTEX
  8
0
  5
449E0
 10
152.038
 20
204.259
 30
0.000000
  70
    32
  0
VERTEX
  8
0
  5
449E1
 10
152.060
 20
204.385
 30
0.000000
  70
    32
  0
VERTEX
  8
0
  5
449E2
 10
152.081
 20
204.511
 30
0.000000
  70
    32
  0
VERTEX
  8
0
  5
449E3
 10
152.103
 20
204.638
 30
0.000000
  70
    32
  0
VERTEX
  8
0
  5
449E4
 10
152.124
 20
204.764
 30
0.000000
  70
    32
  0
VERTEX
  8
0
  5
449E5
 10
152.144
 20
204.890
 30
0.000000
  70
    32
  0
VERTEX
  8
0
  5
449E6
 10
152.164
 20
205.017
 30
0.000000
  70
    32
  0
VERTEX
  8
0
  5
449E7
 10
152.184
 20
205.143
 30
0.000000
  70
    32
  0
VERTEX
  8
0
  5
449E8
 10
152.204
 20
205.270
 30
0.000000
  70
    32
  0
VERTEX
  8
0
  5
449E9
 10
152.223
 20
205.397
 30
0.000000
  70
    32
  0
VERTEX
  8
0
  5
449EA
 10
152.241
 20
205.524
 30
0.000000
  70
    32
  0
VERTEX
  8
0
  5
449EB
 10
152.260
 20
205.650
 30
0.000000
  70
    32
  0
VERTEX
  8
0
  5
449EC
 10
152.278
 20
205.777
 30
0.000000
  70
    32
  0
VERTEX
  8
0
  5
449ED
 10
152.295
 20
205.904
 30
0.000000
  70
    32
  0
VERTEX
  8
0
  5
449EE
 10
152.312
 20
206.031
 30
0.000000
  70
    32
  0
VERTEX
  8
0
  5
449EF
 10
152.329
 20
206.159
 30
0.000000
  70
    32
  0
VERTEX
  8
0
  5
449F0
 10
152.346
 20
206.286
 30
0.000000
  70
    32
  0
VERTEX
  8
0
  5
449F1
 10
152.362
 20
206.413
 30
0.000000
  70
    32
  0
VERTEX
  8
0
  5
449F2
 10
152.378
 20
206.540
 30
0.000000
  70
    32
  0
VERTEX
  8
0
  5
449F3
 10
152.393
 20
206.668
 30
0.000000
  70
    32
  0
VERTEX
  8
0
  5
449F4
 10
152.408
 20
206.795
 30
0.000000
  70
    32
  0
VERTEX
  8
0
  5
449F5
 10
152.423
 20
206.923
 30
0.000000
  70
    32
  0
VERTEX
  8
0
  5
449F6
 10
152.437
 20
207.050
 30
0.000000
  70
    32
  0
VERTEX
  8
0
  5
449F7
 10
152.451
 20
207.178
 30
0.000000
  70
    32
  0
VERTEX
  8
0
  5
449F8
 10
152.464
 20
207.306
 30
0.000000
  70
    32
  0
VERTEX
  8
0
  5
449F9
 10
152.478
 20
207.433
 30
0.000000
  70
    32
  0
VERTEX
  8
0
  5
449FA
 10
152.490
 20
207.561
 30
0.000000
  70
    32
  0
VERTEX
  8
0
  5
449FB
 10
152.503
 20
207.689
 30
0.000000
  70
    32
  0
VERTEX
  8
0
  5
449FC
 10
152.515
 20
207.817
 30
0.000000
  70
    32
  0
VERTEX
  8
0
  5
449FD
 10
152.527
 20
207.945
 30
0.000000
  70
    32
  0
VERTEX
  8
0
  5
449FE
 10
152.538
 20
208.073
 30
0.000000
  70
    32
  0
VERTEX
  8
0
  5
449FF
 10
152.549
 20
208.201
 30
0.000000
  70
    32
  0
VERTEX
  8
0
  5
44A00
 10
152.559
 20
208.329
 30
0.000000
  70
    32
  0
VERTEX
  8
0
  5
44A01
 10
152.570
 20
208.457
 30
0.000000
  70
    32
  0
VERTEX
  8
0
  5
44A02
 10
152.579
 20
208.585
 30
0.000000
  70
    32
  0
VERTEX
  8
0
  5
44A03
 10
152.589
 20
208.713
 30
0.000000
  70
    32
  0
VERTEX
  8
0
  5
44A04
 10
152.598
 20
208.841
 30
0.000000
  70
    32
  0
VERTEX
  8
0
  5
44A05
 10
152.607
 20
208.969
 30
0.000000
  70
    32
  0
VERTEX
  8
0
  5
44A06
 10
152.615
 20
209.098
 30
0.000000
  70
    32
  0
VERTEX
  8
0
  5
44A07
 10
152.623
 20
209.226
 30
0.000000
  70
    32
  0
VERTEX
  8
0
  5
44A08
 10
152.631
 20
209.354
 30
0.000000
  70
    32
  0
VERTEX
  8
0
  5
44A09
 10
152.638
 20
209.483
 30
0.000000
  70
    32
  0
VERTEX
  8
0
  5
44A0A
 10
152.645
 20
209.611
 30
0.000000
  70
    32
  0
VERTEX
  8
0
  5
44A0B
 10
152.651
 20
209.740
 30
0.000000
  70
    32
  0
VERTEX
  8
0
  5
44A0C
 10
152.657
 20
209.868
 30
0.000000
  70
    32
  0
VERTEX
  8
0
  5
44A0D
 10
152.663
 20
209.996
 30
0.000000
  70
    32
  0
VERTEX
  8
0
  5
44A0E
 10
152.669
 20
210.125
 30
0.000000
  70
    32
  0
VERTEX
  8
0
  5
44A0F
 10
152.674
 20
210.253
 30
0.000000
  70
    32
  0
VERTEX
  8
0
  5
44A10
 10
152.678
 20
210.382
 30
0.000000
  70
    32
  0
VERTEX
  8
0
  5
44A11
 10
152.683
 20
210.511
 30
0.000000
  70
    32
  0
VERTEX
  8
0
  5
44A12
 10
152.686
 20
210.639
 30
0.000000
  70
    32
  0
VERTEX
  8
0
  5
44A13
 10
152.690
 20
210.768
 30
0.000000
  70
    32
  0
VERTEX
  8
0
  5
44A14
 10
152.693
 20
210.896
 30
0.000000
  70
    32
  0
VERTEX
  8
0
  5
44A15
 10
152.696
 20
211.025
 30
0.000000
  70
    32
  0
VERTEX
  8
0
  5
44A16
 10
152.698
 20
211.153
 30
0.000000
  70
    32
  0
VERTEX
  8
0
  5
44A17
 10
152.700
 20
211.282
 30
0.000000
  70
    32
  0
VERTEX
  8
0
  5
44A18
 10
152.702
 20
211.411
 30
0.000000
  70
    32
  0
VERTEX
  8
0
  5
44A19
 10
152.703
 20
211.539
 30
0.000000
  70
    32
  0
VERTEX
  8
0
  5
44A1A
 10
152.704
 20
211.668
 30
0.000000
  70
    32
  0
VERTEX
  8
0
  5
44A1B
 10
152.705
 20
211.797
 30
0.000000
  70
    32
  0
VERTEX
  8
0
  5
44A1C
 10
152.705
 20
211.925
 30
0.000000
  70
    32
  0
SEQEND
  8
0
  5
44A1D
  0
POLYLINE
  5
444B8
  8
0
 10
142.20505394784061
 20
236.68691338197951
 30
0.0
 66
     1
 70
     8
  0
VERTEX
  8
0
  5
44A1E
 10
142.205
 20
236.687
 30
0.000000
  70
    32
  0
VERTEX
  8
0
  5
44A1F
 10
142.191
 20
236.704
 30
0.000000
  70
    32
  0
VERTEX
  8
0
  5
44A20
 10
142.177
 20
236.722
 30
0.000000
  70
    32
  0
VERTEX
  8
0
  5
44A21
 10
142.163
 20
236.739
 30
0.000000
  70
    32
  0
VERTEX
  8
0
  5
44A22
 10
142.148
 20
236.756
 30
0.000000
  70
    32
  0
VERTEX
  8
0
  5
44A23
 10
142.134
 20
236.773
 30
0.000000
  70
    32
  0
VERTEX
  8
0
  5
44A24
 10
142.120
 20
236.791
 30
0.000000
  70
    32
  0
VERTEX
  8
0
  5
44A25
 10
142.106
 20
236.808
 30
0.000000
  70
    32
  0
VERTEX
  8
0
  5
44A26
 10
142.092
 20
236.825
 30
0.000000
  70
    32
  0
VERTEX
  8
0
  5
44A27
 10
142.077
 20
236.842
 30
0.000000
  70
    32
  0
VERTEX
  8
0
  5
44A28
 10
142.063
 20
236.860
 30
0.000000
  70
    32
  0
VERTEX
  8
0
  5
44A29
 10
142.049
 20
236.877
 30
0.000000
  70
    32
  0
VERTEX
  8
0
  5
44A2A
 10
142.035
 20
236.894
 30
0.000000
  70
    32
  0
VERTEX
  8
0
  5
44A2B
 10
142.020
 20
236.911
 30
0.000000
  70
    32
  0
VERTEX
  8
0
  5
44A2C
 10
142.006
 20
236.928
 30
0.000000
  70
    32
  0
VERTEX
  8
0
  5
44A2D
 10
141.992
 20
236.945
 30
0.000000
  70
    32
  0
VERTEX
  8
0
  5
44A2E
 10
141.978
 20
236.963
 30
0.000000
  70
    32
  0
VERTEX
  8
0
  5
44A2F
 10
141.963
 20
236.980
 30
0.000000
  70
    32
  0
VERTEX
  8
0
  5
44A30
 10
141.949
 20
236.997
 30
0.000000
  70
    32
  0
VERTEX
  8
0
  5
44A31
 10
141.935
 20
237.014
 30
0.000000
  70
    32
  0
VERTEX
  8
0
  5
44A32
 10
141.920
 20
237.031
 30
0.000000
  70
    32
  0
VERTEX
  8
0
  5
44A33
 10
141.906
 20
237.048
 30
0.000000
  70
    32
  0
VERTEX
  8
0
  5
44A34
 10
141.892
 20
237.065
 30
0.000000
  70
    32
  0
VERTEX
  8
0
  5
44A35
 10
141.877
 20
237.082
 30
0.000000
  70
    32
  0
VERTEX
  8
0
  5
44A36
 10
141.863
 20
237.099
 30
0.000000
  70
    32
  0
VERTEX
  8
0
  5
44A37
 10
141.849
 20
237.116
 30
0.000000
  70
    32
  0
VERTEX
  8
0
  5
44A38
 10
141.834
 20
237.133
 30
0.000000
  70
    32
  0
VERTEX
  8
0
  5
44A39
 10
141.820
 20
237.150
 30
0.000000
  70
    32
  0
VERTEX
  8
0
  5
44A3A
 10
141.805
 20
237.168
 30
0.000000
  70
    32
  0
VERTEX
  8
0
  5
44A3B
 10
141.791
 20
237.185
 30
0.000000
  70
    32
  0
VERTEX
  8
0
  5
44A3C
 10
141.777
 20
237.202
 30
0.000000
  70
    32
  0
VERTEX
  8
0
  5
44A3D
 10
141.762
 20
237.218
 30
0.000000
  70
    32
  0
VERTEX
  8
0
  5
44A3E
 10
141.748
 20
237.235
 30
0.000000
  70
    32
  0
VERTEX
  8
0
  5
44A3F
 10
141.733
 20
237.252
 30
0.000000
  70
    32
  0
VERTEX
  8
0
  5
44A40
 10
141.719
 20
237.269
 30
0.000000
  70
    32
  0
VERTEX
  8
0
  5
44A41
 10
141.704
 20
237.286
 30
0.000000
  70
    32
  0
VERTEX
  8
0
  5
44A42
 10
141.690
 20
237.303
 30
0.000000
  70
    32
  0
VERTEX
  8
0
  5
44A43
 10
141.675
 20
237.320
 30
0.000000
  70
    32
  0
VERTEX
  8
0
  5
44A44
 10
141.661
 20
237.337
 30
0.000000
  70
    32
  0
VERTEX
  8
0
  5
44A45
 10
141.646
 20
237.354
 30
0.000000
  70
    32
  0
VERTEX
  8
0
  5
44A46
 10
141.632
 20
237.371
 30
0.000000
  70
    32
  0
VERTEX
  8
0
  5
44A47
 10
141.617
 20
237.388
 30
0.000000
  70
    32
  0
VERTEX
  8
0
  5
44A48
 10
141.603
 20
237.405
 30
0.000000
  70
    32
  0
VERTEX
  8
0
  5
44A49
 10
141.588
 20
237.421
 30
0.000000
  70
    32
  0
VERTEX
  8
0
  5
44A4A
 10
141.574
 20
237.438
 30
0.000000
  70
    32
  0
VERTEX
  8
0
  5
44A4B
 10
141.559
 20
237.455
 30
0.000000
  70
    32
  0
VERTEX
  8
0
  5
44A4C
 10
141.544
 20
237.472
 30
0.000000
  70
    32
  0
VERTEX
  8
0
  5
44A4D
 10
141.530
 20
237.489
 30
0.000000
  70
    32
  0
VERTEX
  8
0
  5
44A4E
 10
141.515
 20
237.505
 30
0.000000
  70
    32
  0
VERTEX
  8
0
  5
44A4F
 10
141.501
 20
237.522
 30
0.000000
  70
    32
  0
VERTEX
  8
0
  5
44A50
 10
141.486
 20
237.539
 30
0.000000
  70
    32
  0
VERTEX
  8
0
  5
44A51
 10
141.471
 20
237.556
 30
0.000000
  70
    32
  0
VERTEX
  8
0
  5
44A52
 10
141.457
 20
237.573
 30
0.000000
  70
    32
  0
VERTEX
  8
0
  5
44A53
 10
141.442
 20
237.589
 30
0.000000
  70
    32
  0
VERTEX
  8
0
  5
44A54
 10
141.428
 20
237.606
 30
0.000000
  70
    32
  0
VERTEX
  8
0
  5
44A55
 10
141.413
 20
237.623
 30
0.000000
  70
    32
  0
VERTEX
  8
0
  5
44A56
 10
141.398
 20
237.639
 30
0.000000
  70
    32
  0
VERTEX
  8
0
  5
44A57
 10
141.383
 20
237.656
 30
0.000000
  70
    32
  0
VERTEX
  8
0
  5
44A58
 10
141.369
 20
237.673
 30
0.000000
  70
    32
  0
VERTEX
  8
0
  5
44A59
 10
141.354
 20
237.689
 30
0.000000
  70
    32
  0
VERTEX
  8
0
  5
44A5A
 10
141.339
 20
237.706
 30
0.000000
  70
    32
  0
VERTEX
  8
0
  5
44A5B
 10
141.325
 20
237.723
 30
0.000000
  70
    32
  0
VERTEX
  8
0
  5
44A5C
 10
141.310
 20
237.739
 30
0.000000
  70
    32
  0
VERTEX
  8
0
  5
44A5D
 10
141.295
 20
237.756
 30
0.000000
  70
    32
  0
VERTEX
  8
0
  5
44A5E
 10
141.280
 20
237.773
 30
0.000000
  70
    32
  0
VERTEX
  8
0
  5
44A5F
 10
141.266
 20
237.789
 30
0.000000
  70
    32
  0
VERTEX
  8
0
  5
44A60
 10
141.251
 20
237.806
 30
0.000000
  70
    32
  0
VERTEX
  8
0
  5
44A61
 10
141.236
 20
237.822
 30
0.000000
  70
    32
  0
VERTEX
  8
0
  5
44A62
 10
141.221
 20
237.839
 30
0.000000
  70
    32
  0
VERTEX
  8
0
  5
44A63
 10
141.207
 20
237.856
 30
0.000000
  70
    32
  0
VERTEX
  8
0
  5
44A64
 10
141.192
 20
237.872
 30
0.000000
  70
    32
  0
VERTEX
  8
0
  5
44A65
 10
141.177
 20
237.889
 30
0.000000
  70
    32
  0
VERTEX
  8
0
  5
44A66
 10
141.162
 20
237.905
 30
0.000000
  70
    32
  0
VERTEX
  8
0
  5
44A67
 10
141.147
 20
237.922
 30
0.000000
  70
    32
  0
VERTEX
  8
0
  5
44A68
 10
141.132
 20
237.938
 30
0.000000
  70
    32
  0
VERTEX
  8
0
  5
44A69
 10
141.118
 20
237.955
 30
0.000000
  70
    32
  0
VERTEX
  8
0
  5
44A6A
 10
141.103
 20
237.971
 30
0.000000
  70
    32
  0
VERTEX
  8
0
  5
44A6B
 10
141.088
 20
237.988
 30
0.000000
  70
    32
  0
VERTEX
  8
0
  5
44A6C
 10
141.073
 20
238.004
 30
0.000000
  70
    32
  0
VERTEX
  8
0
  5
44A6D
 10
141.058
 20
238.020
 30
0.000000
  70
    32
  0
VERTEX
  8
0
  5
44A6E
 10
141.043
 20
238.037
 30
0.000000
  70
    32
  0
VERTEX
  8
0
  5
44A6F
 10
141.028
 20
238.053
 30
0.000000
  70
    32
  0
VERTEX
  8
0
  5
44A70
 10
141.013
 20
238.070
 30
0.000000
  70
    32
  0
VERTEX
  8
0
  5
44A71
 10
140.998
 20
238.086
 30
0.000000
  70
    32
  0
VERTEX
  8
0
  5
44A72
 10
140.983
 20
238.102
 30
0.000000
  70
    32
  0
VERTEX
  8
0
  5
44A73
 10
140.969
 20
238.119
 30
0.000000
  70
    32
  0
VERTEX
  8
0
  5
44A74
 10
140.954
 20
238.135
 30
0.000000
  70
    32
  0
VERTEX
  8
0
  5
44A75
 10
140.939
 20
238.152
 30
0.000000
  70
    32
  0
VERTEX
  8
0
  5
44A76
 10
140.924
 20
238.168
 30
0.000000
  70
    32
  0
VERTEX
  8
0
  5
44A77
 10
140.909
 20
238.184
 30
0.000000
  70
    32
  0
VERTEX
  8
0
  5
44A78
 10
140.894
 20
238.201
 30
0.000000
  70
    32
  0
VERTEX
  8
0
  5
44A79
 10
140.879
 20
238.217
 30
0.000000
  70
    32
  0
VERTEX
  8
0
  5
44A7A
 10
140.864
 20
238.233
 30
0.000000
  70
    32
  0
VERTEX
  8
0
  5
44A7B
 10
140.849
 20
238.249
 30
0.000000
  70
    32
  0
VERTEX
  8
0
  5
44A7C
 10
140.834
 20
238.266
 30
0.000000
  70
    32
  0
VERTEX
  8
0
  5
44A7D
 10
140.819
 20
238.282
 30
0.000000
  70
    32
  0
VERTEX
  8
0
  5
44A7E
 10
140.803
 20
238.298
 30
0.000000
  70
    32
  0
VERTEX
  8
0
  5
44A7F
 10
140.788
 20
238.314
 30
0.000000
  70
    32
  0
VERTEX
  8
0
  5
44A80
 10
140.773
 20
238.331
 30
0.000000
  70
    32
  0
VERTEX
  8
0
  5
44A81
 10
140.758
 20
238.347
 30
0.000000
  70
    32
  0
VERTEX
  8
0
  5
44A82
 10
140.743
 20
238.363
 30
0.000000
  70
    32
  0
VERTEX
  8
0
  5
44A83
 10
140.728
 20
238.379
 30
0.000000
  70
    32
  0
VERTEX
  8
0
  5
44A84
 10
140.713
 20
238.395
 30
0.000000
  70
    32
  0
VERTEX
  8
0
  5
44A85
 10
140.698
 20
238.412
 30
0.000000
  70
    32
  0
VERTEX
  8
0
  5
44A86
 10
140.683
 20
238.428
 30
0.000000
  70
    32
  0
VERTEX
  8
0
  5
44A87
 10
140.668
 20
238.444
 30
0.000000
  70
    32
  0
VERTEX
  8
0
  5
44A88
 10
140.652
 20
238.460
 30
0.000000
  70
    32
  0
VERTEX
  8
0
  5
44A89
 10
140.637
 20
238.476
 30
0.000000
  70
    32
  0
VERTEX
  8
0
  5
44A8A
 10
140.622
 20
238.492
 30
0.000000
  70
    32
  0
VERTEX
  8
0
  5
44A8B
 10
140.607
 20
238.508
 30
0.000000
  70
    32
  0
VERTEX
  8
0
  5
44A8C
 10
140.592
 20
238.524
 30
0.000000
  70
    32
  0
VERTEX
  8
0
  5
44A8D
 10
140.577
 20
238.540
 30
0.000000
  70
    32
  0
VERTEX
  8
0
  5
44A8E
 10
140.561
 20
238.556
 30
0.000000
  70
    32
  0
VERTEX
  8
0
  5
44A8F
 10
140.546
 20
238.573
 30
0.000000
  70
    32
  0
VERTEX
  8
0
  5
44A90
 10
140.531
 20
238.589
 30
0.000000
  70
    32
  0
VERTEX
  8
0
  5
44A91
 10
140.516
 20
238.605
 30
0.000000
  70
    32
  0
VERTEX
  8
0
  5
44A92
 10
140.501
 20
238.621
 30
0.000000
  70
    32
  0
VERTEX
  8
0
  5
44A93
 10
140.485
 20
238.637
 30
0.000000
  70
    32
  0
VERTEX
  8
0
  5
44A94
 10
140.470
 20
238.653
 30
0.000000
  70
    32
  0
VERTEX
  8
0
  5
44A95
 10
140.455
 20
238.669
 30
0.000000
  70
    32
  0
VERTEX
  8
0
  5
44A96
 10
140.439
 20
238.685
 30
0.000000
  70
    32
  0
VERTEX
  8
0
  5
44A97
 10
140.424
 20
238.700
 30
0.000000
  70
    32
  0
VERTEX
  8
0
  5
44A98
 10
140.409
 20
238.716
 30
0.000000
  70
    32
  0
VERTEX
  8
0
  5
44A99
 10
140.394
 20
238.732
 30
0.000000
  70
    32
  0
VERTEX
  8
0
  5
44A9A
 10
140.378
 20
238.748
 30
0.000000
  70
    32
  0
VERTEX
  8
0
  5
44A9B
 10
140.363
 20
238.764
 30
0.000000
  70
    32
  0
VERTEX
  8
0
  5
44A9C
 10
140.348
 20
238.780
 30
0.000000
  70
    32
  0
VERTEX
  8
0
  5
44A9D
 10
140.332
 20
238.796
 30
0.000000
  70
    32
  0
VERTEX
  8
0
  5
44A9E
 10
140.317
 20
238.812
 30
0.000000
  70
    32
  0
SEQEND
  8
0
  5
44A9F
  0
POLYLINE
  5
444B9
  8
0
 10
99.093102509884901
 20
238.81183707884441
 30
0.0
 66
     1
 70
     8
  0
VERTEX
  8
0
  5
44AA0
 10
99.0931
 20
238.812
 30
0.000000
  70
    32
  0
VERTEX
  8
0
  5
44AA1
 10
99.0778
 20
238.796
 30
0.000000
  70
    32
  0
VERTEX
  8
0
  5
44AA2
 10
99.0624
 20
238.780
 30
0.000000
  70
    32
  0
VERTEX
  8
0
  5
44AA3
 10
99.0471
 20
238.764
 30
0.000000
  70
    32
  0
VERTEX
  8
0
  5
44AA4
 10
99.0318
 20
238.748
 30
0.000000
  70
    32
  0
VERTEX
  8
0
  5
44AA5
 10
99.0165
 20
238.732
 30
0.000000
  70
    32
  0
VERTEX
  8
0
  5
44AA6
 10
99.0012
 20
238.716
 30
0.000000
  70
    32
  0
VERTEX
  8
0
  5
44AA7
 10
98.9859
 20
238.700
 30
0.000000
  70
    32
  0
VERTEX
  8
0
  5
44AA8
 10
98.9706
 20
238.685
 30
0.000000
  70
    32
  0
VERTEX
  8
0
  5
44AA9
 10
98.9553
 20
238.669
 30
0.000000
  70
    32
  0
VERTEX
  8
0
  5
44AAA
 10
98.9401
 20
238.653
 30
0.000000
  70
    32
  0
VERTEX
  8
0
  5
44AAB
 10
98.9248
 20
238.637
 30
0.000000
  70
    32
  0
VERTEX
  8
0
  5
44AAC
 10
98.9096
 20
238.621
 30
0.000000
  70
    32
  0
VERTEX
  8
0
  5
44AAD
 10
98.8943
 20
238.605
 30
0.000000
  70
    32
  0
VERTEX
  8
0
  5
44AAE
 10
98.8791
 20
238.589
 30
0.000000
  70
    32
  0
VERTEX
  8
0
  5
44AAF
 10
98.8639
 20
238.573
 30
0.000000
  70
    32
  0
VERTEX
  8
0
  5
44AB0
 10
98.8487
 20
238.556
 30
0.000000
  70
    32
  0
VERTEX
  8
0
  5
44AB1
 10
98.8335
 20
238.540
 30
0.000000
  70
    32
  0
VERTEX
  8
0
  5
44AB2
 10
98.8183
 20
238.524
 30
0.000000
  70
    32
  0
VERTEX
  8
0
  5
44AB3
 10
98.8031
 20
238.508
 30
0.000000
  70
    32
  0
VERTEX
  8
0
  5
44AB4
 10
98.7880
 20
238.492
 30
0.000000
  70
    32
  0
VERTEX
  8
0
  5
44AB5
 10
98.7728
 20
238.476
 30
0.000000
  70
    32
  0
VERTEX
  8
0
  5
44AB6
 10
98.7576
 20
238.460
 30
0.000000
  70
    32
  0
VERTEX
  8
0
  5
44AB7
 10
98.7425
 20
238.444
 30
0.000000
  70
    32
  0
VERTEX
  8
0
  5
44AB8
 10
98.7274
 20
238.428
 30
0.000000
  70
    32
  0
VERTEX
  8
0
  5
44AB9
 10
98.7122
 20
238.412
 30
0.000000
  70
    32
  0
VERTEX
  8
0
  5
44ABA
 10
98.6971
 20
238.395
 30
0.000000
  70
    32
  0
VERTEX
  8
0
  5
44ABB
 10
98.6820
 20
238.379
 30
0.000000
  70
    32
  0
VERTEX
  8
0
  5
44ABC
 10
98.6669
 20
238.363
 30
0.000000
  70
    32
  0
VERTEX
  8
0
  5
44ABD
 10
98.6518
 20
238.347
 30
0.000000
  70
    32
  0
VERTEX
  8
0
  5
44ABE
 10
98.6368
 20
238.331
 30
0.000000
  70
    32
  0
VERTEX
  8
0
  5
44ABF
 10
98.6217
 20
238.314
 30
0.000000
  70
    32
  0
VERTEX
  8
0
  5
44AC0
 10
98.6066
 20
238.298
 30
0.000000
  70
    32
  0
VERTEX
  8
0
  5
44AC1
 10
98.5916
 20
238.282
 30
0.000000
  70
    32
  0
VERTEX
  8
0
  5
44AC2
 10
98.5765
 20
238.266
 30
0.000000
  70
    32
  0
VERTEX
  8
0
  5
44AC3
 10
98.5615
 20
238.249
 30
0.000000
  70
    32
  0
VERTEX
  8
0
  5
44AC4
 10
98.5465
 20
238.233
 30
0.000000
  70
    32
  0
VERTEX
  8
0
  5
44AC5
 10
98.5315
 20
238.217
 30
0.000000
  70
    32
  0
VERTEX
  8
0
  5
44AC6
 10
98.5165
 20
238.201
 30
0.000000
  70
    32
  0
VERTEX
  8
0
  5
44AC7
 10
98.5015
 20
238.184
 30
0.000000
  70
    32
  0
VERTEX
  8
0
  5
44AC8
 10
98.4865
 20
238.168
 30
0.000000
  70
    32
  0
VERTEX
  8
0
  5
44AC9
 10
98.4715
 20
238.152
 30
0.000000
  70
    32
  0
VERTEX
  8
0
  5
44ACA
 10
98.4566
 20
238.135
 30
0.000000
  70
    32
  0
VERTEX
  8
0
  5
44ACB
 10
98.4416
 20
238.119
 30
0.000000
  70
    32
  0
VERTEX
  8
0
  5
44ACC
 10
98.4267
 20
238.102
 30
0.000000
  70
    32
  0
VERTEX
  8
0
  5
44ACD
 10
98.4117
 20
238.086
 30
0.000000
  70
    32
  0
VERTEX
  8
0
  5
44ACE
 10
98.3968
 20
238.070
 30
0.000000
  70
    32
  0
VERTEX
  8
0
  5
44ACF
 10
98.3819
 20
238.053
 30
0.000000
  70
    32
  0
VERTEX
  8
0
  5
44AD0
 10
98.3670
 20
238.037
 30
0.000000
  70
    32
  0
VERTEX
  8
0
  5
44AD1
 10
98.3521
 20
238.020
 30
0.000000
  70
    32
  0
VERTEX
  8
0
  5
44AD2
 10
98.3372
 20
238.004
 30
0.000000
  70
    32
  0
VERTEX
  8
0
  5
44AD3
 10
98.3223
 20
237.988
 30
0.000000
  70
    32
  0
VERTEX
  8
0
  5
44AD4
 10
98.3074
 20
237.971
 30
0.000000
  70
    32
  0
VERTEX
  8
0
  5
44AD5
 10
98.2925
 20
237.955
 30
0.000000
  70
    32
  0
VERTEX
  8
0
  5
44AD6
 10
98.2777
 20
237.938
 30
0.000000
  70
    32
  0
VERTEX
  8
0
  5
44AD7
 10
98.2628
 20
237.922
 30
0.000000
  70
    32
  0
VERTEX
  8
0
  5
44AD8
 10
98.2480
 20
237.905
 30
0.000000
  70
    32
  0
VERTEX
  8
0
  5
44AD9
 10
98.2332
 20
237.889
 30
0.000000
  70
    32
  0
VERTEX
  8
0
  5
44ADA
 10
98.2184
 20
237.872
 30
0.000000
  70
    32
  0
VERTEX
  8
0
  5
44ADB
 10
98.2036
 20
237.856
 30
0.000000
  70
    32
  0
VERTEX
  8
0
  5
44ADC
 10
98.1888
 20
237.839
 30
0.000000
  70
    32
  0
VERTEX
  8
0
  5
44ADD
 10
98.1740
 20
237.822
 30
0.000000
  70
    32
  0
VERTEX
  8
0
  5
44ADE
 10
98.1592
 20
237.806
 30
0.000000
  70
    32
  0
VERTEX
  8
0
  5
44ADF
 10
98.1444
 20
237.789
 30
0.000000
  70
    32
  0
VERTEX
  8
0
  5
44AE0
 10
98.1297
 20
237.773
 30
0.000000
  70
    32
  0
VERTEX
  8
0
  5
44AE1
 10
98.1149
 20
237.756
 30
0.000000
  70
    32
  0
VERTEX
  8
0
  5
44AE2
 10
98.1002
 20
237.739
 30
0.000000
  70
    32
  0
VERTEX
  8
0
  5
44AE3
 10
98.0854
 20
237.723
 30
0.000000
  70
    32
  0
VERTEX
  8
0
  5
44AE4
 10
98.0707
 20
237.706
 30
0.000000
  70
    32
  0
VERTEX
  8
0
  5
44AE5
 10
98.0560
 20
237.689
 30
0.000000
  70
    32
  0
VERTEX
  8
0
  5
44AE6
 10
98.0413
 20
237.673
 30
0.000000
  70
    32
  0
VERTEX
  8
0
  5
44AE7
 10
98.0266
 20
237.656
 30
0.000000
  70
    32
  0
VERTEX
  8
0
  5
44AE8
 10
98.0119
 20
237.639
 30
0.000000
  70
    32
  0
VERTEX
  8
0
  5
44AE9
 10
97.9973
 20
237.623
 30
0.000000
  70
    32
  0
VERTEX
  8
0
  5
44AEA
 10
97.9826
 20
237.606
 30
0.000000
  70
    32
  0
VERTEX
  8
0
  5
44AEB
 10
97.9679
 20
237.589
 30
0.000000
  70
    32
  0
VERTEX
  8
0
  5
44AEC
 10
97.9533
 20
237.573
 30
0.000000
  70
    32
  0
VERTEX
  8
0
  5
44AED
 10
97.9387
 20
237.556
 30
0.000000
  70
    32
  0
VERTEX
  8
0
  5
44AEE
 10
97.9240
 20
237.539
 30
0.000000
  70
    32
  0
VERTEX
  8
0
  5
44AEF
 10
97.9094
 20
237.522
 30
0.000000
  70
    32
  0
VERTEX
  8
0
  5
44AF0
 10
97.8948
 20
237.505
 30
0.000000
  70
    32
  0
VERTEX
  8
0
  5
44AF1
 10
97.8802
 20
237.489
 30
0.000000
  70
    32
  0
VERTEX
  8
0
  5
44AF2
 10
97.8656
 20
237.472
 30
0.000000
  70
    32
  0
VERTEX
  8
0
  5
44AF3
 10
97.8510
 20
237.455
 30
0.000000
  70
    32
  0
VERTEX
  8
0
  5
44AF4
 10
97.8365
 20
237.438
 30
0.000000
  70
    32
  0
VERTEX
  8
0
  5
44AF5
 10
97.8219
 20
237.421
 30
0.000000
  70
    32
  0
VERTEX
  8
0
  5
44AF6
 10
97.8074
 20
237.405
 30
0.000000
  70
    32
  0
VERTEX
  8
0
  5
44AF7
 10
97.7928
 20
237.388
 30
0.000000
  70
    32
  0
VERTEX
  8
0
  5
44AF8
 10
97.7783
 20
237.371
 30
0.000000
  70
    32
  0
VERTEX
  8
0
  5
44AF9
 10
97.7638
 20
237.354
 30
0.000000
  70
    32
  0
VERTEX
  8
0
  5
44AFA
 10
97.7493
 20
237.337
 30
0.000000
  70
    32
  0
VERTEX
  8
0
  5
44AFB
 10
97.7348
 20
237.320
 30
0.000000
  70
    32
  0
VERTEX
  8
0
  5
44AFC
 10
97.7203
 20
237.303
 30
0.000000
  70
    32
  0
VERTEX
  8
0
  5
44AFD
 10
97.7058
 20
237.286
 30
0.000000
  70
    32
  0
VERTEX
  8
0
  5
44AFE
 10
97.6913
 20
237.269
 30
0.000000
  70
    32
  0
VERTEX
  8
0
  5
44AFF
 10
97.6769
 20
237.252
 30
0.000000
  70
    32
  0
VERTEX
  8
0
  5
44B00
 10
97.6624
 20
237.235
 30
0.000000
  70
    32
  0
VERTEX
  8
0
  5
44B01
 10
97.6480
 20
237.218
 30
0.000000
  70
    32
  0
VERTEX
  8
0
  5
44B02
 10
97.6335
 20
237.202
 30
0.000000
  70
    32
  0
VERTEX
  8
0
  5
44B03
 10
97.6191
 20
237.185
 30
0.000000
  70
    32
  0
VERTEX
  8
0
  5
44B04
 10
97.6047
 20
237.168
 30
0.000000
  70
    32
  0
VERTEX
  8
0
  5
44B05
 10
97.5903
 20
237.150
 30
0.000000
  70
    32
  0
VERTEX
  8
0
  5
44B06
 10
97.5759
 20
237.133
 30
0.000000
  70
    32
  0
VERTEX
  8
0
  5
44B07
 10
97.5615
 20
237.116
 30
0.000000
  70
    32
  0
VERTEX
  8
0
  5
44B08
 10
97.5471
 20
237.099
 30
0.000000
  70
    32
  0
VERTEX
  8
0
  5
44B09
 10
97.5328
 20
237.082
 30
0.000000
  70
    32
  0
VERTEX
  8
0
  5
44B0A
 10
97.5184
 20
237.065
 30
0.000000
  70
    32
  0
VERTEX
  8
0
  5
44B0B
 10
97.5041
 20
237.048
 30
0.000000
  70
    32
  0
VERTEX
  8
0
  5
44B0C
 10
97.4897
 20
237.031
 30
0.000000
  70
    32
  0
VERTEX
  8
0
  5
44B0D
 10
97.4754
 20
237.014
 30
0.000000
  70
    32
  0
VERTEX
  8
0
  5
44B0E
 10
97.4611
 20
236.997
 30
0.000000
  70
    32
  0
VERTEX
  8
0
  5
44B0F
 10
97.4468
 20
236.980
 30
0.000000
  70
    32
  0
VERTEX
  8
0
  5
44B10
 10
97.4325
 20
236.963
 30
0.000000
  70
    32
  0
VERTEX
  8
0
  5
44B11
 10
97.4182
 20
236.945
 30
0.000000
  70
    32
  0
VERTEX
  8
0
  5
44B12
 10
97.4039
 20
236.928
 30
0.000000
  70
    32
  0
VERTEX
  8
0
  5
44B13
 10
97.3896
 20
236.911
 30
0.000000
  70
    32
  0
VERTEX
  8
0
  5
44B14
 10
97.3754
 20
236.894
 30
0.000000
  70
    32
  0
VERTEX
  8
0
  5
44B15
 10
97.3611
 20
236.877
 30
0.000000
  70
    32
  0
VERTEX
  8
0
  5
44B16
 10
97.3469
 20
236.860
 30
0.000000
  70
    32
  0
VERTEX
  8
0
  5
44B17
 10
97.3327
 20
236.842
 30
0.000000
  70
    32
  0
VERTEX
  8
0
  5
44B18
 10
97.3185
 20
236.825
 30
0.000000
  70
    32
  0
VERTEX
  8
0
  5
44B19
 10
97.3042
 20
236.808
 30
0.000000
  70
    32
  0
VERTEX
  8
0
  5
44B1A
 10
97.2900
 20
236.791
 30
0.000000
  70
    32
  0
VERTEX
  8
0
  5
44B1B
 10
97.2759
 20
236.773
 30
0.000000
  70
    32
  0
VERTEX
  8
0
  5
44B1C
 10
97.2617
 20
236.756
 30
0.000000
  70
    32
  0
VERTEX
  8
0
  5
44B1D
 10
97.2475
 20
236.739
 30
0.000000
  70
    32
  0
VERTEX
  8
0
  5
44B1E
 10
97.2333
 20
236.722
 30
0.000000
  70
    32
  0
VERTEX
  8
0
  5
44B1F
 10
97.2192
 20
236.704
 30
0.000000
  70
    32
  0
VERTEX
  8
0
  5
44B20
 10
97.2051
 20
236.687
 30
0.000000
  70
    32
  0
SEQEND
  8
0
  5
44B21
  0
LINE
  5
444BA
  8
0
 10
114.00505394784069
 20
235.43109668683249
 30
0.0
 11
114.00505394784039
 21
140.04368873142249
 31
0.0
  0
LINE
  5
444BB
  8
0
 10
116.4050539478405
 20
235.43109668683249
 30
0.0
 11
116.4050539478405
 21
140.04368873142249
 31
0.0
  0
LINE
  5
444BC
  8
0
 10
123.00505394784069
 20
235.43109668683249
 30
0.0
 11
123.00505394784039
 21
140.04368873142249
 31
0.0
  0
LINE
  5
444BD
  8
0
 10
125.4050539478405
 20
235.43109668683249
 30
0.0
 11
125.4050539478405
 21
140.04368873142249
 31
0.0
  0
LINE
  5
444BE
  8
0
 10
110.1483300807372
 20
235.05008265952961
 30
0.0
 11
110.1483300807372
 21
144.4372948033155
 31
0.0
  0
LINE
  5
444BF
  8
0
 10
129.2617778149438
 20
235.05008265952961
 30
0.0
 11
129.2617778149438
 21
144.4372948033155
 31
0.0
  0
LINE
  5
444C0
  8
0
 10
109.1483300807374
 20
234.10000504793649
 30
0.0
 11
109.1483300807374
 21
145.3873724149085
 31
0.0
  0
LINE
  5
444C1
  8
0
 10
130.26177781494351
 20
234.10000504793649
 30
0.0
 11
130.26177781494351
 21
145.3873724149085
 31
0.0
  0
LINE
  5
444C2
  8
0
 10
108.1483300807374
 20
231.19579417026051
 30
0.0
 11
108.1483300807374
 21
148.29158329258459
 31
0.0
  0
LINE
  5
444C3
  8
0
 10
131.26177781494351
 20
231.19579417026051
 30
0.0
 11
131.26177781494351
 21
148.29158329258459
 31
0.0
  0
LINE
  5
444C4
  8
0
 10
104.7050539478405
 20
219.24166090417859
 30
0.0
 11
104.7050539478405
 21
160.24571655866649
 31
0.0
  0
LINE
  5
444C5
  8
0
 10
134.7050539478405
 20
219.24166090417859
 30
0.0
 11
134.7050539478405
 21
160.24571655866649
 31
0.0
  0
LINE
  5
444C6
  8
0
 10
97.705053947840725
 20
200.8554284186115
 30
0.0
 11
97.705053947840725
 21
178.63194904423381
 31
0.0
  0
LINE
  5
444C7
  8
0
 10
141.7050539478405
 20
200.85542841861141
 30
0.0
 11
141.7050539478405
 21
178.63194904423381
 31
0.0
  0
LINE
  5
444D4
  8
0
 10
99.100419237223832
 20
202.35177449400069
 30
0.0
 11
99.100419237223832
 21
177.13560296884449
 31
0.0
  0
LINE
  5
444D5
  8
0
 10
140.30968865845711
 20
202.35177449400069
 30
0.0
 11
140.30968865845711
 21
177.13560296884449
 31
0.0
  0
LINE
  5
444D6
  8
0
 10
301.16673733190868
 20
418.33149092845559
 30
0.0
 11
299.91951716577682
 21
417.99729929215698
 31
0.0
  0
LINE
  5
444D7
  8
0
 10
299.91951716577682
 20
413.16568256475409
 30
0.0
 11
301.16673733190868
 21
412.83149092845559
 31
0.0
  0
LINE
  5
444D8
  8
0
 10
299.91951716577682
 20
358.66568256475449
 30
0.0
 11
301.16673733190868
 21
358.33149092845571
 31
0.0
  0
ARC
  5
444DC
  8
0
 10
301.79590554064322
 20
419.63604054045942
 30
0.0
 40
6.7369403787703286
 50
253.82796708528889
 51
286.172032914711
  0
LINE
  5
444DD
  8
0
 10
299.91951716577682
 20
417.99729929215698
 30
0.0
 11
299.91951716577682
 21
413.16568256475409
 31
0.0
  0
ARC
  5
444DE
  8
0
 10
301.79590554064288
 20
411.52612782893891
 30
0.0
 40
6.7377216801900559
 50
73.829893813627834
 51
106.1701061863718
  0
LINE
  5
444DF
  8
0
 10
303.67229391550927
 20
417.99729929215698
 30
0.0
 11
303.67229391550927
 21
413.16568256475409
 31
0.0
  0
LINE
  5
444E0
  8
0
 10
307.1684871554944
 20
418.33149092845559
 30
0.0
 11
301.16673733190868
 21
418.33149092845559
 31
0.0
  0
POLYLINE
  5
444E1
  8
0
 66
     1
 10
0.0
 20
0.0
 30
0.0
 70
   128
  0
VERTEX
  5
4480A
  8
0
 10
303.67229391550927
 20
417.99729929215698
 30
0.0
  0
VERTEX
  5
4480B
  8
0
 10
304.61610306204312
 20
418.1110630166848
 30
0.0
  0
VERTEX
  5
4480C
  8
0
 10
307.20188908051091
 20
418.23128515340619
 30
0.0
  0
SEQEND
  5
4480D
  8
0
  0
ARC
  5
444E2
  8
0
 10
307.05684151443529
 20
434.81780138584099
 30
0.0
 40
21.915049894806462
 50
261.11571408161751
 51
274.95767841029732
  0
POLYLINE
  5
444E3
  8
0
 66
     1
 10
0.0
 20
0.0
 30
0.0
 70
   128
  0
VERTEX
  5
4480E
  8
0
 10
307.20273501771629
 20
358.43423451512052
 30
0.0
  0
VERTEX
  5
4480F
  8
0
 10
304.61610306204312
 20
358.55191884022662
 30
0.0
  0
VERTEX
  5
44810
  8
0
 10
303.6722939155095
 20
358.66568256475449
 30
0.0
  0
SEQEND
  5
44811
  8
0
  0
LINE
  5
444E4
  8
0
 10
303.6722939155095
 20
363.83149092845559
 30
0.0
 11
303.6722939155095
 21
358.66568256475449
 31
0.0
  0
ARC
  5
444E5
  8
0
 10
301.79590554064322
 20
365.13604054045442
 30
0.0
 40
6.736940378765115
 50
253.8279670852759
 51
286.17203291472413
  0
LINE
  5
444E6
  8
0
 10
299.91951716577682
 20
363.83149092845559
 30
0.0
 11
299.91951716577682
 21
358.66568256475449
 31
0.0
  0
LINE
  5
444E7
  8
0
 10
307.16848715549457
 20
358.33149092845571
 30
0.0
 11
301.16673733190868
 21
358.33149092845571
 31
0.0
  0
LINE
  5
444E9
  8
0
 10
383.42507066524217
 20
430.83149092845542
 30
0.0
 11
301.42507066524172
 21
430.83149092845542
 31
0.0
  0
LINE
  5
444EA
  8
0
 10
392.42507066524189
 20
354.83149092845508
 30
0.0
 11
392.42507066524189
 21
421.83149092845542
 31
0.0
  0
ARC
  5
444EB
  8
0
 10
383.42507066524217
 20
354.83149092845508
 30
0.0
 40
8.9999999999997442
 50
270.0
 51
0.0
  0
LINE
  5
444EC
  8
0
 10
301.42507066524172
 20
345.83149092845542
 30
0.0
 11
383.425070665242
 21
345.83149092845542
 31
0.0
  0
ARC
  5
444ED
  8
0
 10
301.42507066524172
 20
354.8314909284552
 30
0.0
 40
8.999999999999801
 50
179.9999999999967
 51
270.0
  0
LINE
  5
444EE
  8
0
 10
292.42507066524189
 20
421.83149092845542
 30
0.0
 11
292.42507066524189
 21
354.83149092845542
 31
0.0
  0
ARC
  5
444EF
  8
0
 10
301.42507066524172
 20
421.83149092845559
 30
0.0
 40
8.9999999999997726
 50
90.0
 51
180.0
  0
LINE
  5
444F0
  8
0
 10
375.65599582401478
 20
364.40846598137972
 30
0.0
 11
378.15599582401501
 21
356.90846598137938
 31
0.0
  0
ARC
  5
444F1
  8
0
 10
382.42507066524189
 20
358.33149092845542
 30
0.0
 40
4.4999999999997939
 50
198.43494882292799
 51
18.434948822924589
  0
LINE
  5
444F2
  8
0
 10
386.69414550646889
 20
359.75451587553113
 30
0.0
 11
384.19414550646889
 21
367.25451587553141
 31
0.0
  0
ARC
  5
444F3
  8
0
 10
379.92507066524189
 20
365.83149092845542
 30
0.0
 40
4.4999999999997771
 50
18.434948822927979
 51
198.43494882292461
  0
LINE
  5
444F4
  8
0
 10
384.19414550646889
 20
409.40846598137961
 30
0.0
 11
386.69414550646889
 21
416.90846598137938
 31
0.0
  0
ARC
  5
444F5
  8
0
 10
382.42507066524189
 20
418.33149092845542
 30
0.0
 40
4.4999999999997682
 50
341.56505117707542
 51
161.56505117707539
  0
LINE
  5
444F6
  8
0
 10
378.15599582401478
 20
419.75451587553101
 30
0.0
 11
375.65599582401501
 21
412.25451587553141
 31
0.0
  0
ARC
  5
444F7
  8
0
 10
379.92507066524189
 20
410.83149092845542
 30
0.0
 40
4.4999999999997851
 50
161.56505117707201
 51
341.56505117707877
  0
LINE
  5
444F9
  8
0
 10
306.69414550646928
 20
356.90846598137989
 30
0.0
 11
309.19414550646928
 21
364.40846598137949
 31
0.0
  0
ARC
  5
444FA
  8
0
 10
304.92507066524172
 20
365.83149092845508
 30
0.0
 40
4.5000000000000906
 50
341.56505117708241
 51
161.56505117707539
  0
LINE
  5
444FB
  8
0
 10
300.65599582401461
 20
367.25451587553079
 30
0.0
 11
298.15599582401461
 21
359.75451587553141
 31
0.0
  0
ARC
  5
444FC
  8
0
 10
302.425070665242
 20
358.33149092845571
 30
0.0
 40
4.5000000000001537
 50
161.5650511770823
 51
341.56505117707877
  0
LINE
  5
444FD
  8
0
 10
298.15599582401461
 20
416.90846598137932
 30
0.0
 11
300.65599582401461
 21
409.40846598137961
 31
0.0
  0
ARC
  5
444FE
  8
0
 10
304.92507066524189
 20
410.83149092845542
 30
0.0
 40
4.5000000000000906
 50
198.43494882292461
 51
18.434948822924589
  0
LINE
  5
444FF
  8
0
 10
309.19414550646928
 20
412.25451587553113
 30
0.0
 11
306.69414550646928
 21
419.75451587553079
 31
0.0
  0
ARC
  5
44500
  8
0
 10
302.425070665242
 20
418.33149092845503
 30
0.0
 40
4.5000000000001359
 50
18.434948822924589
 51
198.43494882292461
  0
ARC
  5
44501
  8
0
 10
383.42507066524217
 20
421.83149092845559
 30
0.0
 40
8.9999999999997726
 50
359.99999999999682
 51
90.0
  0
LINE
  5
44510
  8
0
 10
292.42507066524189
 20
363.83149092845542
 30
0.0
 11
244.94173116363689
 21
363.83149092845542
 31
0.0
  0
LINE
  5
44511
  8
0
 10
244.94173116363689
 20
363.83149092845542
 30
0.0
 11
244.94173116363689
 21
412.83149092845548
 31
0.0
  0
LINE
  5
44514
  8
0
 10
292.42507066524189
 20
412.83149092845531
 30
0.0
 11
244.94173116363689
 21
412.83149092845548
 31
0.0
  0
LINE
  5
44515
  8
0
 10
309.00182048882789
 20
363.83149092845542
 30
0.0
 11
299.51498750832252
 21
363.83149092845542
 31
0.0
  0
LINE
  5
44516
  8
0
 10
309.00182048882789
 20
412.83149092845531
 30
0.0
 11
299.51498750832252
 21
412.83149092845531
 31
0.0
  0
LINE
  5
44529
  8
1
 10
211.94173116363709
 20
388.33149092845559
 30
0.0
 11
407.42507066524189
 21
388.3314909284552
 31
0.0
  0
LINE
  5
4452A
  8
1
 10
342.42507066524189
 20
330.83149092845468
 30
0.0
 11
342.42507066524189
 21
445.83149092845508
 31
0.0
  0
CIRCLE
  5
4452B
  8
0
 10
342.42507066524189
 20
388.3314909284552
 30
0.0
 40
8.9249999999999972
  0
CIRCLE
  5
4452C
  8
0
 10
342.42507066524189
 20
388.3314909284552
 30
0.0
 40
13.57900689360916
  0
CIRCLE
  5
4452D
  8
0
 10
342.42507066524189
 20
388.3314909284552
 30
0.0
 40
20.175000000000001
  0
CIRCLE
  5
4452E
  8
0
 10
342.42507066524189
 20
388.3314909284552
 30
0.0
 40
23.802288713680468
  0
CIRCLE
  5
4452F
  8
0
 10
342.42507066524189
 20
388.3314909284552
 30
0.0
 40
25.668546822706869
  0
CIRCLE
  5
44530
  8
0
 10
342.42507066524189
 20
388.3314909284552
 30
0.0
 40
27.175000000001091
  0
CIRCLE
  5
44531
  8
0
 10
342.42507066524189
 20
388.3314909284552
 30
0.0
 40
31.175000000000001
  0
LINE
  5
44538
  8
0
 10
224.9417311636368
 20
372.3099702451392
 30
0.0
 11
224.9417311636368
 21
404.35301161177267
 31
0.0
  0
LINE
  5
44539
  8
0
 10
229.48589142766451
 20
369.33149092845463
 30
0.0
 11
229.48589142766451
 21
407.33149092845463
 31
0.0
  0
LINE
  5
4453A
  8
0
 10
241.94173116363689
 20
372.33149092845468
 30
0.0
 11
241.94173116363689
 21
404.33149092845451
 31
0.0
  0
LINE
  5
4453B
  8
0
 10
244.94173116363689
 20
369.33149092845463
 30
0.0
 11
226.53584086225399
 21
369.33149092845463
 31
0.0
  0
LINE
  5
4453C
  8
0
 10
241.94173116363689
 20
372.33149092845468
 30
0.0
 11
244.94173116363689
 21
372.33149092845468
 31
0.0
  0
LINE
  5
4453D
  8
0
 10
244.94173116363689
 20
407.33149092845463
 30
0.0
 11
226.53584086225399
 21
407.33149092845463
 31
0.0
  0
LINE
  5
4453E
  8
0
 10
241.9417311636405
 20
404.33149092845451
 30
0.0
 11
244.9417311636405
 21
404.33149092845451
 31
0.0
  0
ARC
  5
4453F
  8
0
 10
229.27817055727951
 20
372.7150419548999
 30
0.0
 40
4.3553174057440378
 50
185.33657785306929
 51
230.9756258439001
  0
ARC
  5
44540
  8
0
 10
229.27817055727951
 20
403.9479399020093
 30
0.0
 40
4.3553174057440378
 50
129.02437415609981
 51
174.6634221469306
  0
LINE
  5
4454E
  8
0
 10
224.9417311636368
 20
241.86604156755419
 30
0.0
 11
228.15566921206641
 21
238.03581935195791
 31
0.0
  0
LINE
  5
4454F
  8
0
 10
226.85684227143221
 20
243.4730105917707
 30
0.0
 11
224.9417311636368
 21
241.86604156755419
 31
0.0
  0
LINE
  5
44550
  8
0
 10
229.48589142766451
 20
240.3398318147257
 30
0.0
 11
226.85684227143221
 21
243.4730105917707
 31
0.0
  0
LINE
  5
44551
  8
0
 10
245.6512978632652
 20
238.0955497571623
 30
0.0
 11
229.48589142766451
 21
240.3398318147257
 31
0.0
  0
LINE
  5
44552
  8
0
 10
244.96786547669191
 20
240.64615414739919
 30
0.0
 11
244.66232383406691
 21
240.82552289953409
 31
0.0
  0
LINE
  5
44553
  8
0
 10
228.15566921206641
 20
238.03581935195791
 30
0.0
 11
246.36523591169839
 21
235.43109668695541
 31
0.0
  0
LINE
  5
44554
  8
0
 10
242.39611144408789
 20
244.60214967278731
 30
0.0
 11
244.94014513760129
 21
244.25182632734601
 31
0.0
  0
LINE
  5
44555
  8
0
 10
241.94519315198869
 20
241.49170897867509
 30
0.0
 11
242.39611144408789
 21
244.60214967278731
 31
0.0
  0
LINE
  5
44556
  8
0
 10
244.59657275176659
 20
241.20457816930059
 30
0.0
 11
244.94014513760129
 21
244.25182632734601
 31
0.0
  0
LINE
  5
44557
  8
0
 10
241.94519315198869
 20
241.49170897867509
 30
0.0
 11
242.68314014453949
 21
238.50762619574121
 31
0.0
  0
LINE
  5
44558
  8
0
 10
244.59657275176659
 20
241.20457816930059
 30
0.0
 11
244.66232383406691
 21
240.82552289953409
 31
0.0
  0
ARC
  5
4455F
  8
0
 10
307.42507066524189
 20
189.74368873142259
 30
0.0
 40
25.0
 50
125.4076635627105
 51
20.4595406701083
  0
ARC
  5
44560
  8
0
 10
307.42507066524189
 20
189.74368873142259
 30
0.0
 40
29.986324404440889
 50
117.3701077423942
 51
25.579596809607171
  0
LINE
  5
44561
  8
1
 10
342.42507066524382
 20
282.74368873142248
 30
0.0
 11
342.42507066524382
 21
232.34077177090151
 31
0.0
  0
LINE
  5
44562
  8
1
 10
242.42507066524189
 20
189.74368873142251
 30
0.0
 11
372.425070665242
 21
189.74368873142251
 31
0.0
  0
LINE
  5
44563
  8
1
 10
307.42507066524189
 20
124.7436887314224
 30
0.0
 11
307.42507066524189
 21
246.6486742688794
 31
0.0
  0
LINE
  5
44564
  8
1
 10
375.2000706652434
 20
365.83149092845548
 30
0.0
 11
384.65007066524231
 21
365.83149092845548
 31
0.0
  0
LINE
  5
44565
  8
1
 10
379.92507066524189
 20
361.10649092845608
 30
0.0
 11
379.92507066524189
 21
370.5564909284559
 31
0.0
  0
LINE
  5
44566
  8
1
 10
377.7000706652434
 20
358.33149092845548
 30
0.0
 11
387.15007066524231
 21
358.33149092845548
 31
0.0
  0
LINE
  5
44567
  8
1
 10
382.42507066524189
 20
353.60649092845608
 30
0.0
 11
382.42507066524189
 21
363.0564909284559
 31
0.0
  0
LINE
  5
44568
  8
1
 10
375.2000706652434
 20
410.83149092845548
 30
0.0
 11
384.65007066524231
 21
410.83149092845548
 31
0.0
  0
LINE
  5
44569
  8
1
 10
379.92507066524189
 20
406.10649092845603
 30
0.0
 11
379.92507066524189
 21
415.55649092845579
 31
0.0
  0
LINE
  5
4456A
  8
1
 10
377.7000706652434
 20
418.33149092845548
 30
0.0
 11
387.15007066524231
 21
418.33149092845548
 31
0.0
  0
LINE
  5
4456B
  8
1
 10
382.42507066524189
 20
413.60649092845603
 30
0.0
 11
382.42507066524189
 21
423.05649092845579
 31
0.0
  0
LINE
  5
4456C
  8
1
 10
297.7000706652434
 20
358.33149092845548
 30
0.0
 11
307.15007066524231
 21
358.33149092845548
 31
0.0
  0
LINE
  5
4456D
  8
1
 10
302.425070665242
 20
353.60649092845608
 30
0.0
 11
302.425070665242
 21
363.0564909284559
 31
0.0
  0
LINE
  5
4456E
  8
1
 10
300.2000706652434
 20
365.83149092845548
 30
0.0
 11
309.65007066524231
 21
365.83149092845548
 31
0.0
  0
LINE
  5
4456F
  8
1
 10
304.92507066524189
 20
361.10649092845608
 30
0.0
 11
304.92507066524189
 21
370.5564909284559
 31
0.0
  0
LINE
  5
44570
  8
1
 10
297.7000706652434
 20
418.33149092845548
 30
0.0
 11
307.15007066524231
 21
418.33149092845548
 31
0.0
  0
LINE
  5
44571
  8
1
 10
302.425070665242
 20
413.60649092845603
 30
0.0
 11
302.425070665242
 21
423.05649092845579
 31
0.0
  0
LINE
  5
44572
  8
1
 10
300.2000706652434
 20
410.83149092845548
 30
0.0
 11
309.65007066524231
 21
410.83149092845548
 31
0.0
  0
LINE
  5
44573
  8
1
 10
304.92507066524189
 20
406.10649092845603
 30
0.0
 11
304.92507066524189
 21
415.55649092845579
 31
0.0
  0
LINE
  5
44574
  8
0
 10
303.42507066524013
 20
419.56449092845583
 30
0.0
 11
303.42507066524013
 21
418.33149092845559
 31
0.0
  0
LINE
  5
44576
  8
0
 10
304.1920706652399
 20
420.33149092845559
 30
0.0
 11
303.42507066524013
 21
419.56449092845583
 31
0.0
  0
LINE
  5
44578
  8
0
 10
306.75748715549418
 20
419.56449092845583
 30
0.0
 11
303.42507066524013
 21
419.56449092845583
 31
0.0
  0
LINE
  5
44579
  8
0
 10
306.45619953939121
 20
420.33149092845559
 30
0.0
 11
304.1920706652399
 21
420.33149092845559
 31
0.0
  0
LINE
  5
4457A
  8
3
 10
304.1920706652399
 20
420.33149092845559
 30
0.0
 11
304.1920706652399
 21
418.33149092845559
 31
0.0
  0
LINE
  5
4457C
  8
1
 10
307.42507066524013
 20
347.93149092845641
 30
0.0
 11
307.42507066524013
 21
428.73149092845563
 31
0.0
  0
LINE
  5
445BC
  8
0
 10
514.14508738264351
 20
238.81183707884449
 30
0.0
 11
514.14508738264351
 21
240.3678461283329
 31
0.0
  0
LINE
  5
445BD
  8
0
 10
476.1450873826434
 20
238.81183707884449
 30
0.0
 11
476.1450873826434
 21
240.3678461283333
 31
0.0
  0
LINE
  5
445BE
  8
1
 10
454.74508738264319
 20
189.74368873142259
 30
0.0
 11
535.54508738264246
 21
189.74368873142259
 31
0.0
  0
LINE
  5
445BF
  8
1
 10
495.14508738264328
 20
282.74368873142259
 30
0.0
 11
495.14508738264328
 21
124.74368873142259
 31
0.0
  0
LINE
  5
445C0
  8
0
 10
529.87808738264346
 20
193.74368873142211
 30
0.0
 11
527.64508738264328
 21
193.74368873142211
 31
0.0
  0
LINE
  5
445C1
  8
0
 10
527.64508738264328
 20
185.74368873142211
 30
0.0
 11
529.87808738264346
 21
185.74368873142211
 31
0.0
  0
LINE
  5
445C2
  8
0
 10
530.6450873826434
 20
192.97668873142231
 30
0.0
 11
529.87808738264346
 21
193.74368873142211
 31
0.0
  0
LINE
  5
445C3
  8
0
 10
529.87808738264346
 20
185.74368873142211
 30
0.0
 11
530.6450873826434
 21
186.51068873142191
 31
0.0
  0
LINE
  5
445C4
  8
0
 10
529.87808738264346
 20
185.74368873142211
 30
0.0
 11
529.87808738264346
 21
193.74368873142211
 31
0.0
  0
LINE
  5
445C5
  8
0
 10
530.6450873826434
 20
186.51068873142191
 30
0.0
 11
530.6450873826434
 21
192.97668873142231
 31
0.0
  0
LINE
  5
445C6
  8
3
 10
530.6450873826434
 20
192.97668873142231
 30
0.0
 11
527.64508738264328
 21
192.97668873142231
 31
0.0
  0
LINE
  5
445C7
  8
3
 10
530.6450873826434
 20
186.51068873142191
 30
0.0
 11
527.64508738264328
 21
186.51068873142191
 31
0.0
  0
LINE
  5
445C8
  8
0
 10
84.972053947840323
 20
193.74368873142211
 30
0.0
 11
87.205053947840497
 21
193.74368873142211
 31
0.0
  0
LINE
  5
445C9
  8
0
 10
87.205053947840497
 20
185.74368873142211
 30
0.0
 11
84.972053947840323
 21
185.74368873142211
 31
0.0
  0
LINE
  5
445CA
  8
0
 10
84.205053947840483
 20
192.97668873142231
 30
0.0
 11
84.972053947840323
 21
193.74368873142211
 31
0.0
  0
LINE
  5
445CB
  8
0
 10
84.972053947840323
 20
185.74368873142211
 30
0.0
 11
84.205053947840483
 21
186.51068873142191
 31
0.0
  0
LINE
  5
445CC
  8
0
 10
84.972053947840323
 20
185.74368873142211
 30
0.0
 11
84.972053947840323
 21
193.74368873142211
 31
0.0
  0
LINE
  5
445CD
  8
0
 10
84.205053947840483
 20
186.51068873142191
 30
0.0
 11
84.205053947840483
 21
192.97668873142231
 31
0.0
  0
LINE
  5
445CE
  8
3
 10
84.205053947840483
 20
192.97668873142231
 30
0.0
 11
87.205053947840497
 21
192.97668873142231
 31
0.0
  0
LINE
  5
445CF
  8
3
 10
84.205053947840483
 20
186.51068873142191
 30
0.0
 11
87.205053947840497
 21
186.51068873142191
 31
0.0
  0
LINE
  5
445D1
  8
0
 10
138.7050539478405
 20
235.43109668695621
 30
0.0
 11
100.7050539478405
 21
235.43109668695621
 31
0.0
  0
LINE
  5
445D2
  8
0
 10
138.7050539478405
 20
235.43109668695621
 30
0.0
 11
138.7050539478405
 21
243.4730105917715
 31
0.0
  0
LINE
  5
445D3
  8
0
 10
135.7050539478405
 20
243.4730105917715
 30
0.0
 11
135.7050539478405
 21
244.6021496727881
 31
0.0
  0
LINE
  5
445D4
  8
0
 10
138.7050539478405
 20
243.4730105917715
 30
0.0
 11
100.7050539478405
 21
243.4730105917715
 31
0.0
  0
LINE
  5
445D5
  8
0
 10
100.7050539478405
 20
235.43109668695621
 30
0.0
 11
100.7050539478405
 21
243.4730105917715
 31
0.0
  0
LINE
  5
445D6
  8
0
 10
135.7050539478405
 20
244.6021496727881
 30
0.0
 11
103.7050539478405
 21
244.6021496727881
 31
0.0
  0
LINE
  5
445D7
  8
0
 10
103.7050539478405
 20
243.4730105917715
 30
0.0
 11
103.7050539478405
 21
244.6021496727881
 31
0.0
  0
LINE
  5
445D8
  8
0
 10
100.7050539478405
 20
238.03581935195959
 30
0.0
 11
138.7050539478405
 21
238.03581935195959
 31
0.0
  0
LINE
  5
445D9
  8
1
 10
160.1050539478401
 20
189.74368873142259
 30
0.0
 11
79.305053947840861
 21
189.74368873142259
 31
0.0
  0
LINE
  5
445DA
  8
1
 10
119.7050539478405
 20
282.74368873142259
 30
0.0
 11
119.7050539478405
 21
124.74368873142259
 31
0.0
  0
ARC
  5
44747
  8
0
 10
307.42507066524189
 20
189.74368873142259
 30
0.0
 40
13.62934130749167
 50
224.32707539261131
 51
347.15823336235718
  0
ARC
  5
44748
  8
0
 10
307.42507066524172
 20
189.74368873142259
 30
0.0
 40
11.1117396871888
 50
244.15137591722061
 51
300.84052757026529
  0
ARC
  5
44749
  8
0
 10
307.42507066524172
 20
189.74368873142259
 30
0.0
 40
12.608085762578069
 50
232.06932624302911
 51
336.43948022805063
  0
TEXT
  5
447A5
  8
0
 62
     3
 10
0.0
 20
0.0
 30
0.0
 40
10.0
  1
CAE3-100SBF
  7
STANDARD1
  0
ENDSEC
  0
EOF
