  0
SECTION
  2
HEADER
  9
$ACADVER
  1
AC1009
  9
$INSBASE
 10
0.0
 20
0.0
 30
0.0
  9
$EXTMIN
 10
0.0
 20
-2.960436562073669
 30
0.0
  9
$EXTMAX
 10
575.97589554846707
 20
432.29665727160682
 30
0.0
  9
$LIMMIN
 10
0.0
 20
0.0
  9
$LIMMAX
 10
375.0
 20
270.0
  9
$ORTHOMODE
 70
     1
  9
$REGENMODE
 70
     1
  9
$FILLMODE
 70
     1
  9
$QTEXTMODE
 70
     0
  9
$MIRRTEXT
 70
     1
  9
$DRAGMODE
 70
     2
  9
$LTSCALE
 40
10.0
  9
$OSMODE
 70
  3071
  9
$ATTMODE
 70
     1
  9
$TEXTSIZE
 40
5.0
  9
$TRACEWID
 40
0.05
  9
$TEXTSTYLE
  7
STANDARD
  9
$CLAYER
  8
0
  9
$CELTYPE
  6
BYLAYER
  9
$CECOLOR
 62
     6
  9
$DIMSCALE
 40
2.0
  9
$DIMASZ
 40
3.0
  9
$DIMEXO
 40
2.0
  9
$DIMDLI
 40
0.38
  9
$DIMRND
 40
0.0
  9
$DIMDLE
 40
0.0
  9
$DIMEXE
 40
2.0
  9
$DIMTP
 40
0.0
  9
$DIMTM
 40
0.0
  9
$DIMTXT
 40
3.2000000000000002
  9
$DIMCEN
 40
0.0
  9
$DIMTSZ
 40
0.0
  9
$DIMTOL
 70
     0
  9
$DIMLIM
 70
     0
  9
$DIMTIH
 70
     0
  9
$DIMTOH
 70
     0
  9
$DIMSE1
 70
     0
  9
$DIMSE2
 70
     0
  9
$DIMTAD
 70
     1
  9
$DIMZIN
 70
     8
  9
$DIMBLK
  1

  9
$DIMASO
 70
     0
  9
$DIMSHO
 70
     0
  9
$DIMPOST
  1

  9
$DIMAPOST
  1

  9
$DIMALT
 70
     0
  9
$DIMALTD
 70
     2
  9
$DIMALTF
 40
25.399999999999999
  9
$DIMLFAC
 40
1.0
  9
$DIMTOFL
 70
     0
  9
$DIMTVP
 40
1.6000000000000001
  9
$DIMTIX
 70
     1
  9
$DIMSOXD
 70
     0
  9
$DIMSAH
 70
     0
  9
$DIMBLK1
  1

  9
$DIMBLK2
  1

  9
$DIMSTYLE
  2
STANDARD
  9
$DIMCLRD
 70
     0
  9
$DIMCLRE
 70
     0
  9
$DIMCLRT
 70
     0
  9
$DIMTFAC
 40
1.0
  9
$DIMGAP
 40
1.1999999999999991
  9
$LUNITS
 70
     2
  9
$LUPREC
 70
     4
  9
$SKETCHINC
 40
0.1
  9
$FILLETRAD
 40
0.0
  9
$AUNITS
 70
     0
  9
$AUPREC
 70
     4
  9
$MENU
  1
ACAD
  9
$ELEVATION
 40
0.0
  9
$PELEVATION
 40
0.0
  9
$THICKNESS
 40
0.0
  9
$LIMCHECK
 70
     0
  9
$BLIPMODE
 70
     0
  9
$CHAMFERA
 40
0.0
  9
$CHAMFERB
 40
0.0
  9
$SKPOLY
 70
     0
  9
$TDCREATE
 40
2448055.7149187499
  9
$TDUPDATE
 40
2456598.5584009262
  9
$TDINDWG
 40
2.7318738426000002
  9
$TDUSRTIMER
 40
2.7318738426000002
  9
$USRTIMER
 70
     1
  9
$ANGBASE
 50
0.0
  9
$ANGDIR
 70
     0
  9
$PDMODE
 70
     0
  9
$PDSIZE
 40
0.0
  9
$PLINEWID
 40
0.0
  9
$COORDS
 70
     1
  9
$SPLFRAME
 70
     0
  9
$SPLINETYPE
 70
     6
  9
$SPLINESEGS
 70
     8
  9
$ATTDIA
 70
     0
  9
$ATTREQ
 70
     1
  9
$HANDLING
 70
     1
  9
$HANDSEED
  5
27550
  9
$SURFTAB1
 70
     6
  9
$SURFTAB2
 70
     6
  9
$SURFTYPE
 70
     6
  9
$SURFU
 70
     6
  9
$SURFV
 70
     6
  9
$UCSNAME
  2

  9
$UCSORG
 10
0.0
 20
0.0
 30
0.0
  9
$UCSXDIR
 10
1.0
 20
0.0
 30
0.0
  9
$UCSYDIR
 10
0.0
 20
1.0
 30
0.0
  9
$PUCSNAME
  2

  9
$PUCSORG
 10
0.0
 20
0.0
 30
0.0
  9
$PUCSXDIR
 10
1.0
 20
0.0
 30
0.0
  9
$PUCSYDIR
 10
0.0
 20
1.0
 30
0.0
  9
$USERI1
 70
     0
  9
$USERI2
 70
     0
  9
$USERI3
 70
     0
  9
$USERI4
 70
     0
  9
$USERI5
 70
     0
  9
$USERR1
 40
0.0
  9
$USERR2
 40
0.0
  9
$USERR3
 40
0.0
  9
$USERR4
 40
0.0
  9
$USERR5
 40
0.0
  9
$WORLDVIEW
 70
     1
  9
$SHADEDGE
 70
     3
  9
$SHADEDIF
 70
    70
  9
$TILEMODE
 70
     1
  9
$MAXACTVP
 70
    16
  9
$PLIMCHECK
 70
     0
  9
$PEXTMIN
 10
1.0000000000000000E+020
 20
1.0000000000000000E+020
 30
1.0000000000000000E+020
  9
$PEXTMAX
 10
-1.0000000000000000E+020
 20
-1.0000000000000000E+020
 30
-1.0000000000000000E+020
  9
$PLIMMIN
 10
0.0
 20
0.0
  9
$PLIMMAX
 10
12.0
 20
9.0
  9
$UNITMODE
 70
     0
  9
$VISRETAIN
 70
     0
  9
$PLINEGEN
 70
     1
  9
$PSLTSCALE
 70
     0
  0
ENDSEC
  0
SECTION
  2
TABLES
  0
TABLE
  2
VPORT
 70
     1
  0
VPORT
  2
*ACTIVE
 70
     0
 10
0.0
 20
0.0
 11
1.0
 21
1.0
 12
300.04940342476732
 22
214.6641568518051
 13
0.0
 23
0.0
 14
5.0
 24
5.0
 15
10.0
 25
10.0
 16
0.0
 26
0.0
 36
1.0
 17
0.0
 27
0.0
 37
0.0
 40
439.19534678478198
 41
1.831871345029239
 42
50.0
 43
0.0
 44
0.0
 50
0.0
 51
0.0
 71
     0
 72
   500
 73
     1
 74
     1
 75
     0
 76
     0
 77
     0
 78
     2
  0
ENDTAB
  0
TABLE
  2
LTYPE
 70
     3
  0
LTYPE
  2
CONTINUOUS
 70
     0
  3
実線
 72
    65
 73
     0
 40
0.0
  0
LTYPE
  2
CENTER
 70
     0
  3
____ _ ____ _ ____ _ ____ _ ____ _ ____ _ ____
 72
    65
 73
     4
 40
2.0
 49
1.25
 49
-0.25
 49
0.25
 49
-0.25
  0
LTYPE
  2
PHANTOM2
 70
     0
  3
___ _ _ ___ _ _ ___ _ _ ___ _ _
 72
    65
 73
     6
 40
1.25
 49
0.625
 49
-0.125
 49
0.125
 49
-0.125
 49
0.125
 49
-0.125
  0
ENDTAB
  0
TABLE
  2
LAYER
 70
     4
  0
LAYER
  2
0
 70
     0
 62
     7
  6
CONTINUOUS
  0
LAYER
  2
1
 70
     0
 62
     1
  6
CENTER
  0
LAYER
  2
DEFPOINTS
 70
     0
 62
     7
  6
CONTINUOUS
  0
LAYER
  2
3
 70
     0
 62
     3
  6
CONTINUOUS
  0
ENDTAB
  0
TABLE
  2
STYLE
 70
     3
  0
STYLE
  2
STANDARD
 70
     0
 40
0.0
 41
1.0
 50
0.0
 71
     0
 42
5.0
  3
simplex.shx
  4
bigfont.shx
  0
STYLE
  2
07500
 70
     0
 40
0.0
 41
0.75
 50
0.0
 71
     0
 42
0.2
  3
simplex.shx
  4
bigfont.shx
  0
STYLE
  2
STANDARD1
 70
     0
 40
0.0
 41
1.0
 50
0.0
 71
     0
 42
3.0
  3
txt
  4

  0
ENDTAB
  0
TABLE
  2
VIEW
 70
     2
  0
VIEW
  2
ALL
 70
     0
 40
270.0
 10
220.99159663865549
 20
135.0
 41
0.0
 11
0.0
 21
0.0
 31
1.0
 12
0.0
 22
0.0
 32
0.0
 42
0.0
 43
0.0
 44
0.0
 50
0.0
 71
     0
  0
VIEW
  2
OLE1
 70
     0
 40
168.2487151179721
 10
2892.3009567448912
 20
702.51600084347126
 41
162.5749581879237
 11
0.0
 21
0.0
 31
1.0
 12
0.0
 22
0.0
 32
0.0
 42
50.0
 43
0.0
 44
0.0
 50
0.0
 71
     0
  0
ENDTAB
  0
TABLE
  2
UCS
 70
     0
  0
ENDTAB
  0
TABLE
  2
APPID
 70
    48
  0
APPID
  2
ACAD
 70
     0
  0
APPID
  2
DCO15
 70
     0
  0
APPID
  2
GENIUS_GENOREF_13
 70
     0
  0
APPID
  2
GENIUS_GENOENT_13
 70
     0
  0
APPID
  2
GENIUS_GENBH_13
 70
     0
  0
APPID
  2
GENIUS_GENOBJ_13
 70
     0
  0
APPID
  2
GENIUS_GENODEF_13
 70
     0
  0
APPID
  2
GENIUS_GENOLIS_13
 70
     0
  0
APPID
  2
GENIUS_GENOBJ-NBEHI-BHF_13
 70
     0
  0
APPID
  2
GENIUS_GENOBJ-NBEHI-BHB_13
 70
     0
  0
APPID
  2
GENIUS_GENOBJ-F-PART_13
 70
     0
  0
APPID
  2
GENIUS_GEFSTDP_13
 70
     0
  0
APPID
  2
GENIUS_GENOBJ-N-RSSYM_13
 70
     0
  0
APPID
  2
GENIUS_GENSYMENT_13
 70
     0
  0
APPID
  2
GENIUS_GENOBJ-N-TIT_13
 70
     0
  0
APPID
  2
GENIUS_GENTITLE_13
 70
     0
  0
APPID
  2
GENIUS_GENZVEED_13
 70
     0
  0
APPID
  2
GENIUS_GENOBJ-N-LEADER_13
 70
     0
  0
APPID
  2
GENIUS_GENOBJ-N-FIL_13
 70
     0
  0
APPID
  2
GENIUS_GENOBJ-N-SEC_13
 70
     0
  0
APPID
  2
GENIUS_GENOBJ-N-CRS_13
 70
     0
  0
APPID
  2
GENIUS_GENOBJ-N-ZOO_13
 70
     0
  0
APPID
  2
GENIUS_GENZOO_13
 70
     0
  0
APPID
  2
GENIUS_GENOBJ-F-TOL_13
 70
     0
  0
APPID
  2
GENIUS_GENFIL_13
 70
     0
  0
APPID
  2
GENIUS_GENOBJ-N-CHA_13
 70
     0
  0
APPID
  2
_CALL_MAC$
 70
     0
  0
APPID
  2
ASM_BASE
 70
     0
  0
APPID
  2
ASM_EXPLO_VER_2_00
 70
     0
  0
APPID
  2
ASM_CADM_VER_12_00
 70
     0
  0
APPID
  2
ASM_BASEFORO
 70
     0
  0
APPID
  2
ASM_BASETRAVI
 70
     0
  0
APPID
  2
ASM_BASETRAVI1
 70
     0
  0
APPID
  2
ASM_GRUPPI
 70
     0
  0
APPID
  2
ASM_CADM_ALBERO
 70
     0
  0
APPID
  2
ASM_GOLE
 70
     0
  0
APPID
  2
ACAD_MLEADERVER
 70
     0
  0
APPID
  2
ACAD_DSTYLE_DIMJAG
 70
     0
  0
APPID
  2
ACAD_DSTYLE_DIMTALN
 70
     0
  0
APPID
  2
ACAD_EXEMPT_FROM_CAD_STANDARDS
 70
     0
  0
APPID
  2
ACAD_DSTYLE_DIMRADIAL_EXTENSION
 70
     0
  0
APPID
  2
ACAD_PSEXT
 70
     0
  0
APPID
  2
ACAD_DSTYLE_DIMBREAK
 70
     0
  0
APPID
  2
ACAECLAYERSTANDARD
 70
     0
  0
APPID
  2
ACCMTRANSPARENCY
 70
     0
  0
APPID
  2
GRADIENTCOLOR1ACI
 70
     0
  0
APPID
  2
GRADIENTCOLOR2ACI
 70
     0
  0
APPID
  2
ACAD_NAV_VCDISPLAY
 70
     0
  0
ENDTAB
  0
TABLE
  2
DIMSTYLE
 70
     1
  0
DIMSTYLE
  2
STANDARD
 70
     0
  3

  4

  5

  6

  7

 40
1.0
 41
0.18
 42
0.0625
 43
0.38
 44
0.18
 45
0.0
 46
0.0
 47
0.0
 48
0.0
140
0.18
141
0.09
142
0.0
143
25.399999999999999
144
1.0
145
0.0
146
1.0
147
0.09
 71
     0
 72
     0
 73
     1
 74
     1
 75
     0
 76
     0
 77
     0
 78
     0
170
     0
171
     2
172
     0
173
     0
174
     0
175
     0
176
     0
177
     0
178
     0
  0
ENDTAB
  0
ENDSEC
  0
SECTION
  2
BLOCKS
  0
BLOCK
  8
0
  2
$MODEL_SPACE
 70
     0
 10
0.0
 20
0.0
 30
0.0
  3
$MODEL_SPACE
  1

  0
ENDBLK
  5
36
  8
0
  0
BLOCK
 67
     1
  8
0
  2
$PAPER_SPACE
 70
     0
 10
0.0
 20
0.0
 30
0.0
  3
$PAPER_SPACE
  1

  0
ENDBLK
  5
34
 67
     1
  8
0
  0
ENDSEC
  0
SECTION
  2
ENTITIES
  0
LINE
  5
211DD
  8
0
 10
507.9140171853544
 20
183.928688731421
 30
0.0
 11
507.31401718535449
 21
183.928688731421
 31
0.0
  0
LINE
  5
211DE
  8
0
 10
567.14701718535434
 20
185.74368873142151
 30
0.0
 11
565.91401718535428
 21
185.74368873142151
 31
0.0
  0
LINE
  5
211DF
  8
0
 10
565.91401718535428
 20
193.74368873142151
 30
0.0
 11
567.14701718535434
 21
193.74368873142151
 31
0.0
  0
LINE
  5
211E0
  8
0
 10
567.9140171853544
 20
186.5106887314214
 30
0.0
 11
567.14701718535434
 21
185.74368873142151
 31
0.0
  0
LINE
  5
211E1
  8
0
 10
567.14701718535434
 20
193.74368873142151
 30
0.0
 11
567.9140171853544
 21
192.97668873142169
 31
0.0
  0
LINE
  5
211E2
  8
0
 10
502.87343689476978
 20
182.5171878620649
 30
0.0
 11
502.61401718535438
 21
183.4853553980883
 31
0.0
  0
LINE
  5
211E3
  8
0
 10
507.31401718535449
 20
183.4853553980883
 30
0.0
 11
507.05459747593881
 21
182.5171878620649
 31
0.0
  0
LINE
  5
211E4
  8
0
 10
565.91401718535428
 20
183.928688731421
 30
0.0
 11
563.4140171853544
 21
183.928688731421
 31
0.0
  0
LINE
  5
211E5
  8
0
 10
563.76075168931993
 20
195.55868873142111
 30
0.0
 11
565.91401718535428
 21
195.55868873142111
 31
0.0
  0
LINE
  5
211E6
  8
0
 10
558.17343689476979
 20
182.5171878620649
 30
0.0
 11
557.9140171853544
 21
183.4853553980883
 31
0.0
  0
LINE
  5
211E7
  8
0
 10
563.4140171853544
 20
183.4853553980883
 30
0.0
 11
563.15459747593866
 21
182.5171878620649
 31
0.0
  0
LINE
  5
211E8
  8
0
 10
555.4140171853544
 20
183.74368873142151
 30
0.0
 11
547.91401718535428
 21
183.74368873142151
 31
0.0
  0
LINE
  5
211E9
  8
0
 10
517.9140171853544
 20
183.74368873142151
 30
0.0
 11
510.41401718535428
 21
183.74368873142151
 31
0.0
  0
LINE
  5
211EA
  8
0
 10
510.41401718535428
 20
195.7436887314216
 30
0.0
 11
517.9140171853544
 21
195.7436887314216
 31
0.0
  0
LINE
  5
211EB
  8
0
 10
547.91401718535428
 20
195.7436887314216
 30
0.0
 11
555.4140171853544
 21
195.7436887314216
 31
0.0
  0
LINE
  5
211EC
  8
0
 10
567.14701718535434
 20
193.74368873142151
 30
0.0
 11
567.14701718535434
 21
185.74368873142151
 31
0.0
  0
LINE
  5
211ED
  8
0
 10
567.9140171853544
 20
192.97668873142169
 30
0.0
 11
567.9140171853544
 21
186.5106887314214
 31
0.0
  0
LINE
  5
211EE
  8
0
 10
502.61401718535438
 20
194.0462710638549
 30
0.0
 11
502.61401718535438
 21
183.4853553980883
 31
0.0
  0
LINE
  5
211EF
  8
0
 10
507.31401718535449
 20
185.3438090791123
 30
0.0
 11
507.31401718535449
 21
183.4853553980883
 31
0.0
  0
POLYLINE
  5
211F0
  8
0
 66
     1
 10
0.0
 20
0.0
 30
0.0
  0
VERTEX
  5
27174
  8
0
 10
502.87343689476978
 20
186.1304382967428
 30
0.0
  0
VERTEX
  5
27175
  8
0
 10
502.79259224151178
 20
185.80586440107069
 30
0.0
  0
VERTEX
  5
27176
  8
0
 10
502.67798190275852
 20
185.19630382229931
 30
0.0
  0
VERTEX
  5
27177
  8
0
 10
502.6212073189742
 20
184.6138956507229
 30
0.0
  0
VERTEX
  5
27178
  8
0
 10
502.61401718535438
 20
184.32381307940341
 30
0.0
  0
SEQEND
  5
27179
  8
0
  0
POLYLINE
  5
211F1
  8
0
 66
     1
 10
0.0
 20
0.0
 30
0.0
  0
VERTEX
  5
2717A
  8
0
 10
502.61401718535438
 20
184.32381307940341
 30
0.0
  0
VERTEX
  5
2717B
  8
0
 10
502.6212073189742
 20
184.03373050808381
 30
0.0
  0
VERTEX
  5
2717C
  8
0
 10
502.6779819027588
 20
183.45132233650841
 30
0.0
  0
VERTEX
  5
2717D
  8
0
 10
502.79259224151178
 20
182.841761757737
 30
0.0
  0
VERTEX
  5
2717E
  8
0
 10
502.87343689476978
 20
182.5171878620649
 30
0.0
  0
SEQEND
  5
2717F
  8
0
  0
POLYLINE
  5
211F2
  8
0
 66
     1
 10
0.0
 20
0.0
 30
0.0
  0
VERTEX
  5
27180
  8
0
 10
507.05459747593881
 20
182.5171878620649
 30
0.0
  0
VERTEX
  5
27181
  8
0
 10
507.13544212919692
 20
182.841761757737
 30
0.0
  0
VERTEX
  5
27182
  8
0
 10
507.25005246795013
 20
183.45132233650841
 30
0.0
  0
VERTEX
  5
27183
  8
0
 10
507.30682705173439
 20
184.03373050808381
 30
0.0
  0
VERTEX
  5
27184
  8
0
 10
507.31401718535449
 20
184.32381307940341
 30
0.0
  0
SEQEND
  5
27185
  8
0
  0
POLYLINE
  5
211F3
  8
0
 66
     1
 10
0.0
 20
0.0
 30
0.0
  0
VERTEX
  5
27186
  8
0
 10
507.31401718535449
 20
184.32381307940341
 30
0.0
  0
VERTEX
  5
27187
  8
0
 10
507.3107621894689
 20
184.51887567068749
 30
0.0
  0
VERTEX
  5
27188
  8
0
 10
507.28505732518778
 20
184.90786753144761
 30
0.0
  0
VERTEX
  5
27189
  8
0
 10
507.23388934127678
 20
185.30264203090331
 30
0.0
  0
VERTEX
  5
2718A
  8
0
 10
507.1985368650337
 20
185.50493073425969
 30
0.0
  0
SEQEND
  5
2718B
  8
0
  0
LINE
  5
211F4
  8
0
 10
502.87343689476978
 20
182.5171878620649
 30
0.0
 11
507.05459747593881
 21
182.5171878620649
 31
0.0
  0
LINE
  5
211F5
  8
0
 10
502.84896417247307
 20
193.4500972776213
 30
0.0
 11
502.87343689476978
 21
193.35693916609941
 31
0.0
  0
LINE
  5
211F6
  8
0
 10
502.87343689476978
 20
193.35693916609941
 30
0.0
 11
502.88612630607872
 21
193.35693916609941
 31
0.0
  0
POLYLINE
  5
211F7
  8
0
 66
     1
 10
0.0
 20
0.0
 30
0.0
  0
VERTEX
  5
2718C
  8
0
 10
502.87343689476978
 20
193.35693916609941
 30
0.0
  0
VERTEX
  5
2718D
  8
0
 10
502.79259224151178
 20
192.70779137475529
 30
0.0
  0
VERTEX
  5
2718E
  8
0
 10
502.67798190275852
 20
191.48867021721159
 30
0.0
  0
VERTEX
  5
2718F
  8
0
 10
502.6212073189742
 20
190.3238538740606
 30
0.0
  0
VERTEX
  5
27190
  8
0
 10
502.61401718535438
 20
189.74368873142151
 30
0.0
  0
SEQEND
  5
27191
  8
0
  0
POLYLINE
  5
211F8
  8
0
 66
     1
 10
0.0
 20
0.0
 30
0.0
  0
VERTEX
  5
27192
  8
0
 10
502.61401718535438
 20
189.74368873142151
 30
0.0
  0
VERTEX
  5
27193
  8
0
 10
502.6212073189742
 20
189.1635235887824
 30
0.0
  0
VERTEX
  5
27194
  8
0
 10
502.67798190275852
 20
187.99870724563149
 30
0.0
  0
VERTEX
  5
27195
  8
0
 10
502.79259224151178
 20
186.77958608808689
 30
0.0
  0
VERTEX
  5
27196
  8
0
 10
502.87343689476978
 20
186.1304382967428
 30
0.0
  0
SEQEND
  5
27197
  8
0
  0
LINE
  5
211F9
  8
0
 10
502.87343689476978
 20
186.1304382967428
 30
0.0
 11
506.7614968003852
 21
186.1304382967428
 31
0.0
  0
LINE
  5
211FA
  8
0
 10
565.91401718535428
 20
195.55868873142111
 30
0.0
 11
565.91401718535428
 21
183.928688731421
 31
0.0
  0
LINE
  5
211FB
  8
0
 10
563.4140171853544
 20
194.58184498496661
 30
0.0
 11
563.4140171853544
 21
183.4853553980883
 31
0.0
  0
POLYLINE
  5
211FC
  8
0
 66
     1
 10
0.0
 20
0.0
 30
0.0
  0
VERTEX
  5
27198
  8
0
 10
557.91832799335168
 20
184.54832861086561
 30
0.0
  0
VERTEX
  5
27199
  8
0
 10
557.91701515544241
 20
184.5110087451703
 30
0.0
  0
VERTEX
  5
2719A
  8
0
 10
557.91509983015828
 20
184.43627388883391
 30
0.0
  0
VERTEX
  5
2719B
  8
0
 10
557.91413789055491
 20
184.3613586688698
 30
0.0
  0
VERTEX
  5
2719C
  8
0
 10
557.9140171853544
 20
184.32381307940341
 30
0.0
  0
SEQEND
  5
2719D
  8
0
  0
POLYLINE
  5
211FD
  8
0
 66
     1
 10
0.0
 20
0.0
 30
0.0
  0
VERTEX
  5
2719E
  8
0
 10
557.9140171853544
 20
184.32381307940341
 30
0.0
  0
VERTEX
  5
2719F
  8
0
 10
557.92120731897421
 20
184.03373050808381
 30
0.0
  0
VERTEX
  5
271A0
  8
0
 10
557.97798190275876
 20
183.45132233650841
 30
0.0
  0
VERTEX
  5
271A1
  8
0
 10
558.09259224151174
 20
182.841761757737
 30
0.0
  0
VERTEX
  5
271A2
  8
0
 10
558.17343689476979
 20
182.5171878620649
 30
0.0
  0
SEQEND
  5
271A3
  8
0
  0
POLYLINE
  5
211FE
  8
0
 66
     1
 10
0.0
 20
0.0
 30
0.0
  0
VERTEX
  5
271A4
  8
0
 10
563.15459747593889
 20
182.5171878620649
 30
0.0
  0
VERTEX
  5
271A5
  8
0
 10
563.23544212919705
 20
182.841761757737
 30
0.0
  0
VERTEX
  5
271A6
  8
0
 10
563.35005246795004
 20
183.45132233650841
 30
0.0
  0
VERTEX
  5
271A7
  8
0
 10
563.40682705173447
 20
184.03373050808381
 30
0.0
  0
VERTEX
  5
271A8
  8
0
 10
563.4140171853544
 20
184.32381307940341
 30
0.0
  0
SEQEND
  5
271A9
  8
0
  0
POLYLINE
  5
211FF
  8
0
 66
     1
 10
0.0
 20
0.0
 30
0.0
  0
VERTEX
  5
271AA
  8
0
 10
563.4140171853544
 20
184.32381307940341
 30
0.0
  0
VERTEX
  5
271AB
  8
0
 10
563.40682705173435
 20
184.6138956507229
 30
0.0
  0
VERTEX
  5
271AC
  8
0
 10
563.35005246795004
 20
185.19630382229931
 30
0.0
  0
VERTEX
  5
271AD
  8
0
 10
563.23544212919705
 20
185.80586440107069
 30
0.0
  0
VERTEX
  5
271AE
  8
0
 10
563.15459747593889
 20
186.1304382967428
 30
0.0
  0
SEQEND
  5
271AF
  8
0
  0
LINE
  5
21200
  8
0
 10
558.17343689476979
 20
182.5171878620649
 30
0.0
 11
563.15459747593889
 21
182.5171878620649
 31
0.0
  0
POLYLINE
  5
21201
  8
0
 66
     1
 10
0.0
 20
0.0
 30
0.0
  0
VERTEX
  5
271B0
  8
0
 10
563.15459747593889
 20
193.35693916609941
 30
0.0
  0
VERTEX
  5
271B1
  8
0
 10
563.20511370457484
 20
193.5537266535375
 30
0.0
  0
VERTEX
  5
271B2
  8
0
 10
563.28854995238328
 20
193.9306624799174
 30
0.0
  0
VERTEX
  5
271B3
  8
0
 10
563.35009004438143
 20
194.29133474781611
 30
0.0
  0
VERTEX
  5
271B4
  8
0
 10
563.37304515052801
 20
194.46762952259081
 30
0.0
  0
SEQEND
  5
271B5
  8
0
  0
POLYLINE
  5
21202
  8
0
 66
     1
 10
0.0
 20
0.0
 30
0.0
  0
VERTEX
  5
271B6
  8
0
 10
563.4140171853544
 20
189.74368873142151
 30
0.0
  0
VERTEX
  5
271B7
  8
0
 10
563.40682705173435
 20
190.3238538740606
 30
0.0
  0
VERTEX
  5
271B8
  8
0
 10
563.35005246795004
 20
191.48867021721159
 30
0.0
  0
VERTEX
  5
271B9
  8
0
 10
563.23544212919705
 20
192.70779137475529
 30
0.0
  0
VERTEX
  5
271BA
  8
0
 10
563.15459747593889
 20
193.35693916609941
 30
0.0
  0
SEQEND
  5
271BB
  8
0
  0
LINE
  5
21203
  8
0
 10
562.94190806462996
 20
193.35693916609941
 30
0.0
 11
563.15459747593889
 21
193.35693916609941
 31
0.0
  0
LINE
  5
21204
  8
0
 10
559.06653757032359
 20
186.1304382967428
 30
0.0
 11
563.15459747593889
 21
186.1304382967428
 31
0.0
  0
POLYLINE
  5
21205
  8
0
 66
     1
 10
0.0
 20
0.0
 30
0.0
  0
VERTEX
  5
271BC
  8
0
 10
563.15459747593889
 20
186.1304382967428
 30
0.0
  0
VERTEX
  5
271BD
  8
0
 10
563.23544212919705
 20
186.77958608808689
 30
0.0
  0
VERTEX
  5
271BE
  8
0
 10
563.35005246795004
 20
187.99870724563149
 30
0.0
  0
VERTEX
  5
271BF
  8
0
 10
563.40682705173435
 20
189.1635235887824
 30
0.0
  0
VERTEX
  5
271C0
  8
0
 10
563.4140171853544
 20
189.74368873142151
 30
0.0
  0
SEQEND
  5
271C1
  8
0
  0
LINE
  5
21206
  8
0
 10
498.11401718535438
 20
264.44368873142139
 30
0.0
 11
498.11401718535438
 21
265.24368873142163
 31
0.0
  0
LINE
  5
21207
  8
0
 10
567.71401718535435
 20
265.24368873142163
 30
0.0
 11
567.71401718535435
 21
264.44368873142139
 31
0.0
  0
LINE
  5
21208
  8
0
 10
498.41279652137632
 20
255.94368873142139
 30
0.0
 11
496.9140171853544
 21
264.44368873142139
 31
0.0
  0
LINE
  5
21209
  8
0
 10
568.91401718535428
 20
264.44368873142139
 30
0.0
 11
567.41523784933236
 21
255.94368873142139
 31
0.0
  0
LINE
  5
2120A
  8
0
 10
499.9140171853544
 20
208.71794940457769
 30
0.0
 11
499.9140171853544
 21
255.94368873142139
 31
0.0
  0
LINE
  5
2120B
  8
0
 10
565.91401718535428
 20
255.94368873142139
 30
0.0
 11
565.91401718535428
 21
208.71794940457769
 31
0.0
  0
LINE
  5
2120C
  8
0
 10
490.41401718535428
 20
267.74368873142163
 30
0.0
 11
490.41401718535428
 21
265.24368873142163
 31
0.0
  0
LINE
  5
2120E
  8
0
 10
575.4140171853544
 20
267.74368873142163
 30
0.0
 11
490.41401718535428
 21
267.74368873142163
 31
0.0
  0
LINE
  5
21210
  8
0
 10
575.4140171853544
 20
265.24368873142163
 30
0.0
 11
490.41401718535428
 21
265.24368873142163
 31
0.0
  0
LINE
  5
21211
  8
0
 10
575.4140171853544
 20
267.74368873142163
 30
0.0
 11
575.4140171853544
 21
265.24368873142163
 31
0.0
  0
LINE
  5
21212
  8
0
 10
568.91401718535428
 20
264.44368873142139
 30
0.0
 11
496.9140171853544
 21
264.44368873142139
 31
0.0
  0
LINE
  5
21213
  8
0
 10
567.41523784933236
 20
255.94368873142139
 30
0.0
 11
498.41279652137632
 21
255.94368873142139
 31
0.0
  0
LINE
  5
21214
  8
0
 10
557.9140171853544
 20
179.74368873142151
 30
0.0
 11
557.9140171853544
 21
184.54249534910099
 31
0.0
  0
POLYLINE
  5
21215
  8
0
 66
     1
 10
0.0
 20
0.0
 30
0.0
  0
VERTEX
  5
271C2
  8
0
 10
557.9140171853544
 20
184.54249534910099
 30
0.0
  0
VERTEX
  5
271C3
  8
0
 10
558.33466184895155
 20
185.10148089078751
 30
0.0
  0
VERTEX
  5
271C4
  8
0
 10
559.1460277584074
 20
186.2468809672927
 30
0.0
  0
VERTEX
  5
271C5
  8
0
 10
559.91644687675353
 20
187.4273572017137
 30
0.0
  0
VERTEX
  5
271C6
  8
0
 10
560.28592303309131
 20
188.0301751071174
 30
0.0
  0
VERTEX
  5
271C7
  8
0
 10
560.64471662019969
 20
188.64106693263329
 30
0.0
  0
VERTEX
  5
271C8
  8
0
 10
561.32970019791605
 20
189.88611562289131
 30
0.0
  0
VERTEX
  5
271C9
  8
0
 10
561.97032838650534
 20
191.1605598168571
 30
0.0
  0
VERTEX
  5
271CA
  8
0
 10
562.56560119900337
 20
192.4624101740628
 30
0.0
  0
VERTEX
  5
271CB
  8
0
 10
563.11458944580647
 20
193.78963457445931
 30
0.0
  0
VERTEX
  5
271CC
  8
0
 10
563.61643618508776
 20
195.14016129044651
 30
0.0
  0
VERTEX
  5
271CD
  8
0
 10
563.8494337818704
 20
195.82350556636899
 30
0.0
  0
VERTEX
  5
271CE
  8
0
 10
564.07035806043825
 20
196.51188222073591
 30
0.0
  0
VERTEX
  5
271CF
  8
0
 10
564.47564652364531
 20
197.9026561809805
 30
0.0
  0
VERTEX
  5
271D0
  8
0
 10
564.83166894069825
 20
199.3103122460561
 30
0.0
  0
VERTEX
  5
271D1
  8
0
 10
565.13786957929892
 20
200.732653138758
 30
0.0
  0
VERTEX
  5
271D2
  8
0
 10
565.39377047632786
 20
202.16745865963821
 30
0.0
  0
VERTEX
  5
271D3
  8
0
 10
565.59897218392234
 20
203.61248915261689
 30
0.0
  0
VERTEX
  5
271D4
  8
0
 10
565.68245763921254
 20
204.33813441075111
 30
0.0
  0
VERTEX
  5
271D5
  8
0
 10
565.75315439299084
 20
205.06548900096999
 30
0.0
  0
VERTEX
  5
271D6
  8
0
 10
565.85607643320145
 20
206.52419014822951
 30
0.0
  0
VERTEX
  5
271D7
  8
0
 10
565.90757764865305
 20
207.98631563849719
 30
0.0
  0
VERTEX
  5
271D8
  8
0
 10
565.91401718535428
 20
208.71794940457769
 30
0.0
  0
SEQEND
  5
271D9
  8
0
  0
POLYLINE
  5
21216
  8
0
 66
     1
 10
0.0
 20
0.0
 30
0.0
  0
VERTEX
  5
271DA
  8
0
 10
565.91401718535428
 20
208.71794940457769
 30
0.0
  0
VERTEX
  5
271DB
  8
0
 10
565.91052683894895
 20
209.25660403669369
 30
0.0
  0
VERTEX
  5
271DC
  8
0
 10
565.88260849755568
 20
210.3334575453309
 30
0.0
  0
VERTEX
  5
271DD
  8
0
 10
565.82679543647316
 20
211.4089441727956
 30
0.0
  0
VERTEX
  5
271DE
  8
0
 10
565.78844222238195
 20
211.94589047451879
 30
0.0
  0
VERTEX
  5
271DF
  8
0
 10
565.74313487912355
 20
212.4821539500299
 30
0.0
  0
VERTEX
  5
271E0
  8
0
 10
565.63169761069025
 20
213.55217883441671
 30
0.0
  0
VERTEX
  5
271E1
  8
0
 10
565.49257791822765
 20
214.6181134780773
 30
0.0
  0
VERTEX
  5
271E2
  8
0
 10
565.32589351088507
 20
215.67905599388541
 30
0.0
  0
VERTEX
  5
271E3
  8
0
 10
565.13178542031233
 20
216.73410871855319
 30
0.0
  0
VERTEX
  5
271E4
  8
0
 10
564.91041788133225
 20
217.7823789721424
 30
0.0
  0
VERTEX
  5
271E5
  8
0
 10
564.78956945289349
 20
218.30369325840911
 30
0.0
  0
VERTEX
  5
271E6
  8
0
 10
564.66197819298372
 20
218.82297981336521
 30
0.0
  0
VERTEX
  5
271E7
  8
0
 10
564.38667656004566
 20
219.85503079002049
 30
0.0
  0
VERTEX
  5
271E8
  8
0
 10
564.08474591518529
 20
220.87765868394669
 30
0.0
  0
VERTEX
  5
271E9
  8
0
 10
563.75644172187094
 20
221.88999824985061
 30
0.0
  0
VERTEX
  5
271EA
  8
0
 10
563.40204175822691
 20
222.8911929473916
 30
0.0
  0
VERTEX
  5
271EB
  8
0
 10
563.02184588200384
 20
223.8803956659012
 30
0.0
  0
VERTEX
  5
271EC
  8
0
 10
562.82217415756372
 20
224.37023806591969
 30
0.0
  0
VERTEX
  5
271ED
  8
0
 10
562.61617577687048
 20
224.8567694411222
 30
0.0
  0
VERTEX
  5
271EE
  8
0
 10
562.18537468023567
 20
225.8194881633635
 30
0.0
  0
VERTEX
  5
271EF
  8
0
 10
561.72980709283684
 20
226.7677372764729
 30
0.0
  0
VERTEX
  5
271F0
  8
0
 10
561.49285551024082
 20
227.23618450979211
 30
0.0
  0
VERTEX
  5
271F1
  8
0
 10
561.24985847033463
 20
227.70071446703059
 30
0.0
  0
VERTEX
  5
271F2
  8
0
 10
560.74593489717938
 20
228.6176303431894
 30
0.0
  0
VERTEX
  5
271F3
  8
0
 10
560.21846274302425
 20
229.51770910257801
 30
0.0
  0
VERTEX
  5
271F4
  8
0
 10
559.94603464689101
 20
229.96119600289691
 30
0.0
  0
VERTEX
  5
271F5
  8
0
 10
559.6678883019714
 20
230.40018918870561
 30
0.0
  0
VERTEX
  5
271F6
  8
0
 10
559.09467741496508
 20
231.2643239353165
 30
0.0
  0
VERTEX
  5
271F7
  8
0
 10
558.49931507564258
 20
232.109382198144
 30
0.0
  0
VERTEX
  5
271F8
  8
0
 10
557.88230501998157
 20
232.9346489735299
 30
0.0
  0
VERTEX
  5
271F9
  8
0
 10
557.24416930008852
 20
233.73942600339251
 30
0.0
  0
VERTEX
  5
271FA
  8
0
 10
556.58544784249102
 20
234.52303236601711
 30
0.0
  0
VERTEX
  5
271FB
  8
0
 10
556.24854096451054
 20
234.90668864158491
 30
0.0
  0
VERTEX
  5
271FC
  8
0
 10
555.90669799130592
 20
235.28480505219159
 30
0.0
  0
VERTEX
  5
271FD
  8
0
 10
555.20849403667125
 20
236.02409952616929
 30
0.0
  0
VERTEX
  5
271FE
  8
0
 10
554.49142672883772
 20
236.74029027101921
 30
0.0
  0
VERTEX
  5
271FF
  8
0
 10
553.75610277833675
 20
237.4327713178682
 30
0.0
  0
VERTEX
  5
27200
  8
0
 10
553.00314434264214
 20
238.10095675861791
 30
0.0
  0
VERTEX
  5
27201
  8
0
 10
552.23318849976238
 20
238.74428124167571
 30
0.0
  0
VERTEX
  5
27202
  8
0
 10
551.84203958493879
 20
239.0564496906982
 30
0.0
  0
VERTEX
  5
27203
  8
0
 10
551.44688670920948
 20
239.3622004503022
 30
0.0
  0
VERTEX
  5
27204
  8
0
 10
550.64490426079965
 20
239.9541915631562
 30
0.0
  0
VERTEX
  5
27205
  8
0
 10
549.82791971174993
 20
240.51975369665621
 30
0.0
  0
VERTEX
  5
27206
  8
0
 10
548.99662431255342
 20
241.0584083287722
 30
0.0
  0
VERTEX
  5
27207
  8
0
 10
548.15172142211054
 20
241.5696997039104
 30
0.0
  0
VERTEX
  5
27208
  8
0
 10
547.29392591261808
 20
242.05319521852019
 30
0.0
  0
VERTEX
  5
27209
  8
0
 10
546.86041982279744
 20
242.2843907606393
 30
0.0
  0
VERTEX
  5
2720A
  8
0
 10
546.42396356471545
 20
242.508485787127
 30
0.0
  0
VERTEX
  5
2720B
  8
0
 10
545.54257045340228
 20
242.9351861884561
 30
0.0
  0
VERTEX
  5
2720C
  8
0
 10
544.6504923252453
 20
243.3329353913677
 30
0.0
  0
VERTEX
  5
2720D
  8
0
 10
543.74848396740185
 20
243.70139686032689
 30
0.0
  0
VERTEX
  5
2720E
  8
0
 10
542.83730856899535
 20
244.04025884014479
 30
0.0
  0
VERTEX
  5
2720F
  8
0
 10
541.91773707538073
 20
244.34923461975629
 30
0.0
  0
VERTEX
  5
27210
  8
0
 10
541.45504567373769
 20
244.4924324954163
 30
0.0
  0
VERTEX
  5
27211
  8
0
 10
540.99054753584699
 20
244.62806277480561
 30
0.0
  0
VERTEX
  5
27212
  8
0
 10
540.05652444531177
 20
244.87650738883531
 30
0.0
  0
VERTEX
  5
27213
  8
0
 10
539.116458080558
 20
245.0943582528989
 30
0.0
  0
VERTEX
  5
27214
  8
0
 10
538.17114383158264
 20
245.28143104341689
 30
0.0
  0
VERTEX
  5
27215
  8
0
 10
537.22138152861612
 20
245.43756747813131
 30
0.0
  0
VERTEX
  5
27216
  8
0
 10
536.26797476538673
 20
245.56263545003
 30
0.0
  0
VERTEX
  5
27217
  8
0
 10
535.79015669602688
 20
245.613484664239
 30
0.0
  0
VERTEX
  5
27218
  8
0
 10
535.31173021920063
 20
245.65652913912251
 30
0.0
  0
VERTEX
  5
27219
  8
0
 10
534.35345696841046
 20
245.71916910197521
 30
0.0
  0
VERTEX
  5
2721A
  8
0
 10
533.39396580785649
 20
245.75050233892489
 30
0.0
  0
VERTEX
  5
2721B
  8
0
 10
532.9140171853544
 20
245.7544196150057
 30
0.0
  0
VERTEX
  5
2721C
  8
0
 10
532.43406856285219
 20
245.75050233892489
 30
0.0
  0
VERTEX
  5
2721D
  8
0
 10
531.47457740229834
 20
245.71916910197521
 30
0.0
  0
VERTEX
  5
2721E
  8
0
 10
530.51630415150805
 20
245.65652913912251
 30
0.0
  0
VERTEX
  5
2721F
  8
0
 10
530.03787767468179
 20
245.613484664239
 30
0.0
  0
VERTEX
  5
27220
  8
0
 10
529.56005960532184
 20
245.56263545003
 30
0.0
  0
VERTEX
  5
27221
  8
0
 10
528.60665284209256
 20
245.43756747813131
 30
0.0
  0
VERTEX
  5
27222
  8
0
 10
527.65689053912615
 20
245.28143104341689
 30
0.0
  0
VERTEX
  5
27223
  8
0
 10
526.71157629015067
 20
245.0943582528989
 30
0.0
  0
VERTEX
  5
27224
  8
0
 10
525.77150992539691
 20
244.87650738883531
 30
0.0
  0
VERTEX
  5
27225
  8
0
 10
524.83748683486169
 20
244.62806277480561
 30
0.0
  0
VERTEX
  5
27226
  8
0
 10
524.37298869697111
 20
244.4924324954163
 30
0.0
  0
VERTEX
  5
27227
  8
0
 10
523.91029729532795
 20
244.34923461975629
 30
0.0
  0
VERTEX
  5
27228
  8
0
 10
522.99072580171332
 20
244.04025884014479
 30
0.0
  0
VERTEX
  5
27229
  8
0
 10
522.07955040330694
 20
243.70139686032689
 30
0.0
  0
VERTEX
  5
2722A
  8
0
 10
521.17754204546338
 20
243.3329353913677
 30
0.0
  0
VERTEX
  5
2722B
  8
0
 10
520.28546391730652
 20
242.9351861884561
 30
0.0
  0
VERTEX
  5
2722C
  8
0
 10
519.40407080599334
 20
242.508485787127
 30
0.0
  0
VERTEX
  5
2722D
  8
0
 10
518.96761454791135
 20
242.2843907606393
 30
0.0
  0
VERTEX
  5
2722E
  8
0
 10
518.5341084580906
 20
242.05319521852019
 30
0.0
  0
VERTEX
  5
2722F
  8
0
 10
517.67631294859825
 20
241.5696997039104
 30
0.0
  0
VERTEX
  5
27230
  8
0
 10
516.83141005815526
 20
241.0584083287722
 30
0.0
  0
VERTEX
  5
27231
  8
0
 10
516.00011465895875
 20
240.51975369665621
 30
0.0
  0
VERTEX
  5
27232
  8
0
 10
515.18313010990914
 20
239.9541915631562
 30
0.0
  0
VERTEX
  5
27233
  8
0
 10
514.3811476614992
 20
239.3622004503022
 30
0.0
  0
VERTEX
  5
27234
  8
0
 10
513.98599478576989
 20
239.0564496906982
 30
0.0
  0
VERTEX
  5
27235
  8
0
 10
513.5948458709463
 20
238.74428124167571
 30
0.0
  0
VERTEX
  5
27236
  8
0
 10
512.82489002806665
 20
238.10095675861791
 30
0.0
  0
VERTEX
  5
27237
  8
0
 10
512.07193159237204
 20
237.4327713178682
 30
0.0
  0
VERTEX
  5
27238
  8
0
 10
511.33660764187101
 20
236.74029027101921
 30
0.0
  0
VERTEX
  5
27239
  8
0
 10
510.61954033403748
 20
236.0240995261702
 30
0.0
  0
VERTEX
  5
2723A
  8
0
 10
509.92133637940282
 20
235.28480505219159
 30
0.0
  0
VERTEX
  5
2723B
  8
0
 10
509.57949340619831
 20
234.90668864158491
 30
0.0
  0
VERTEX
  5
2723C
  8
0
 10
509.24258652821771
 20
234.52303236601711
 30
0.0
  0
VERTEX
  5
2723D
  8
0
 10
508.58386507062022
 20
233.73942600339251
 30
0.0
  0
VERTEX
  5
2723E
  8
0
 10
507.94572935072711
 20
232.9346489735299
 30
0.0
  0
VERTEX
  5
2723F
  8
0
 10
507.32871929506609
 20
232.109382198144
 30
0.0
  0
VERTEX
  5
27240
  8
0
 10
506.7333569557436
 20
231.2643239353165
 30
0.0
  0
VERTEX
  5
27241
  8
0
 10
506.16014606873728
 20
230.40018918870561
 30
0.0
  0
VERTEX
  5
27242
  8
0
 10
505.88199972381773
 20
229.96119600289691
 30
0.0
  0
VERTEX
  5
27243
  8
0
 10
505.60957162768449
 20
229.51770910257801
 30
0.0
  0
VERTEX
  5
27244
  8
0
 10
505.0820994735293
 20
228.6176303431894
 30
0.0
  0
VERTEX
  5
27245
  8
0
 10
504.57817590037411
 20
227.70071446703059
 30
0.0
  0
VERTEX
  5
27246
  8
0
 10
504.33517886046792
 20
227.23618450979211
 30
0.0
  0
VERTEX
  5
27247
  8
0
 10
504.0982272778719
 20
226.7677372764729
 30
0.0
  0
VERTEX
  5
27248
  8
0
 10
503.64265969047301
 20
225.8194881633635
 30
0.0
  0
VERTEX
  5
27249
  8
0
 10
503.21185859383831
 20
224.8567694411222
 30
0.0
  0
VERTEX
  5
2724A
  8
0
 10
503.00586021314501
 20
224.37023806591969
 30
0.0
  0
VERTEX
  5
2724B
  8
0
 10
502.80618848870489
 20
223.8803956659012
 30
0.0
  0
VERTEX
  5
2724C
  8
0
 10
502.42599261248188
 20
222.8911929473916
 30
0.0
  0
VERTEX
  5
2724D
  8
0
 10
502.07159264883779
 20
221.88999824985061
 30
0.0
  0
VERTEX
  5
2724E
  8
0
 10
501.74328845552338
 20
220.87765868394669
 30
0.0
  0
VERTEX
  5
2724F
  8
0
 10
501.44135781066302
 20
219.85503079002049
 30
0.0
  0
VERTEX
  5
27250
  8
0
 10
501.16605617772501
 20
218.82297981336521
 30
0.0
  0
VERTEX
  5
27251
  8
0
 10
501.03846491781519
 20
218.30369325840911
 30
0.0
  0
VERTEX
  5
27252
  8
0
 10
500.91761648937648
 20
217.7823789721424
 30
0.0
  0
VERTEX
  5
27253
  8
0
 10
500.69624895039652
 20
216.73410871855319
 30
0.0
  0
VERTEX
  5
27254
  8
0
 10
500.50214085982361
 20
215.67905599388541
 30
0.0
  0
VERTEX
  5
27255
  8
0
 10
500.33545645248108
 20
214.6181134780773
 30
0.0
  0
VERTEX
  5
27256
  8
0
 10
500.19633676001848
 20
213.55217883441671
 30
0.0
  0
VERTEX
  5
27257
  8
0
 10
500.08489949158519
 20
212.4821539500299
 30
0.0
  0
VERTEX
  5
27258
  8
0
 10
500.03959214832679
 20
211.94589047451879
 30
0.0
  0
VERTEX
  5
27259
  8
0
 10
500.00123893423552
 20
211.4089441727956
 30
0.0
  0
VERTEX
  5
2725A
  8
0
 10
499.945425873153
 20
210.3334575453309
 30
0.0
  0
VERTEX
  5
2725B
  8
0
 10
499.91750753175978
 20
209.25660403669369
 30
0.0
  0
VERTEX
  5
2725C
  8
0
 10
499.9140171853544
 20
208.71794940457769
 30
0.0
  0
SEQEND
  5
2725D
  8
0
  0
POLYLINE
  5
21217
  8
0
 66
     1
 10
0.0
 20
0.0
 30
0.0
  0
VERTEX
  5
2725E
  8
0
 10
499.9140171853544
 20
208.71794940457769
 30
0.0
  0
VERTEX
  5
2725F
  8
0
 10
499.92045672205558
 20
207.98631563849719
 30
0.0
  0
VERTEX
  5
27260
  8
0
 10
499.97195793750728
 20
206.52419014822951
 30
0.0
  0
VERTEX
  5
27261
  8
0
 10
500.0748799777179
 20
205.06548900096999
 30
0.0
  0
VERTEX
  5
27262
  8
0
 10
500.14557673149619
 20
204.33813441075111
 30
0.0
  0
VERTEX
  5
27263
  8
0
 10
500.22906218678639
 20
203.61248915261689
 30
0.0
  0
VERTEX
  5
27264
  8
0
 10
500.43426389438082
 20
202.16745865963821
 30
0.0
  0
VERTEX
  5
27265
  8
0
 10
500.69016479140981
 20
200.732653138758
 30
0.0
  0
VERTEX
  5
27266
  8
0
 10
500.99636543001043
 20
199.3103122460561
 30
0.0
  0
VERTEX
  5
27267
  8
0
 10
501.35238784706348
 20
197.9026561809805
 30
0.0
  0
VERTEX
  5
27268
  8
0
 10
501.75767631027043
 20
196.51188222073591
 30
0.0
  0
VERTEX
  5
27269
  8
0
 10
501.97860058883828
 20
195.82350556636899
 30
0.0
  0
VERTEX
  5
2726A
  8
0
 10
502.21159818562091
 20
195.14016129044651
 30
0.0
  0
VERTEX
  5
2726B
  8
0
 10
502.71344492490221
 20
193.78963457445931
 30
0.0
  0
VERTEX
  5
2726C
  8
0
 10
503.26243317170542
 20
192.4624101740628
 30
0.0
  0
VERTEX
  5
2726D
  8
0
 10
503.85770598420339
 20
191.1605598168571
 30
0.0
  0
VERTEX
  5
2726E
  8
0
 10
504.49833417279268
 20
189.88611562289131
 30
0.0
  0
VERTEX
  5
2726F
  8
0
 10
505.18331775050899
 20
188.64106693263329
 30
0.0
  0
VERTEX
  5
27270
  8
0
 10
505.54211133761743
 20
188.0301751071174
 30
0.0
  0
VERTEX
  5
27271
  8
0
 10
505.91158749395532
 20
187.4273572017137
 30
0.0
  0
VERTEX
  5
27272
  8
0
 10
506.68200661230128
 20
186.2468809672927
 30
0.0
  0
VERTEX
  5
27273
  8
0
 10
507.49337252175718
 20
185.10148089078751
 30
0.0
  0
VERTEX
  5
27274
  8
0
 10
507.9140171853544
 20
184.54249534910099
 30
0.0
  0
SEQEND
  5
27275
  8
0
  0
LINE
  5
21218
  8
0
 10
507.9140171853544
 20
184.54249534910099
 30
0.0
 11
507.9140171853544
 21
179.74368873142151
 31
0.0
  0
LINE
  5
21219
  8
0
 10
557.9140171853544
 20
179.74368873142151
 30
0.0
 11
555.4140171853544
 21
179.74368873142151
 31
0.0
  0
LINE
  5
2121B
  8
0
 10
510.41401718535428
 20
179.74368873142151
 30
0.0
 11
507.9140171853544
 21
179.74368873142151
 31
0.0
  0
POLYLINE
  5
2121C
  8
0
 66
     1
 10
0.0
 20
0.0
 30
0.0
  0
VERTEX
  5
27276
  8
0
 10
555.4140171853544
 20
185.60802219159271
 30
0.0
  0
VERTEX
  5
27277
  8
0
 10
555.83313155484484
 20
186.1327482223914
 30
0.0
  0
VERTEX
  5
27278
  8
0
 10
556.64204677842508
 20
187.21068930431559
 30
0.0
  0
VERTEX
  5
27279
  8
0
 10
557.41074161724327
 20
188.3250864380588
 30
0.0
  0
VERTEX
  5
2727A
  8
0
 10
557.77959648608362
 20
188.89536804896761
 30
0.0
  0
VERTEX
  5
2727B
  8
0
 10
558.13791308901557
 20
189.47405065592011
 30
0.0
  0
VERTEX
  5
2727C
  8
0
 10
558.82232859597184
 20
190.65563439699051
 30
0.0
  0
VERTEX
  5
2727D
  8
0
 10
559.46282801417783
 20
191.86783480837579
 30
0.0
  0
VERTEX
  5
2727E
  8
0
 10
560.05832566001482
 20
193.10859714015621
 30
0.0
  0
VERTEX
  5
2727F
  8
0
 10
560.60781213047517
 20
194.37581822829819
 30
0.0
  0
VERTEX
  5
27280
  8
0
 10
561.11035601415836
 20
195.66735005964711
 30
0.0
  0
VERTEX
  5
27281
  8
0
 10
561.34375513701343
 20
196.3215498810477
 30
0.0
  0
VERTEX
  5
27282
  8
0
 10
561.56510547006906
 20
196.9810034129259
 30
0.0
  0
VERTEX
  5
27283
  8
0
 10
561.97128967153458
 20
198.31455156960141
 30
0.0
  0
VERTEX
  5
27284
  8
0
 10
562.32822011280257
 20
199.66573408829211
 30
0.0
  0
VERTEX
  5
27285
  8
0
 10
562.63529177609803
 20
201.0322606363525
 30
0.0
  0
VERTEX
  5
27286
  8
0
 10
562.89198415716214
 20
202.41181487211909
 30
0.0
  0
VERTEX
  5
27287
  8
0
 10
563.09786214753854
 20
203.80205837124231
 30
0.0
  0
VERTEX
  5
27288
  8
0
 10
563.18163330973255
 20
204.50045277351731
 30
0.0
  0
VERTEX
  5
27289
  8
0
 10
563.25257677210675
 20
205.20063459045289
 30
0.0
  0
VERTEX
  5
2728A
  8
0
 10
563.35586578061486
 20
206.60517286203589
 30
0.0
  0
VERTEX
  5
2728B
  8
0
 10
563.40755409221026
 20
208.01329241225631
 30
0.0
  0
VERTEX
  5
2728C
  8
0
 10
563.4140171853544
 20
208.71794940457769
 30
0.0
  0
SEQEND
  5
2728D
  8
0
  0
POLYLINE
  5
2121D
  8
0
 66
     1
 10
0.0
 20
0.0
 30
0.0
  0
VERTEX
  5
2728E
  8
0
 10
563.4140171853544
 20
208.71794940457769
 30
0.0
  0
VERTEX
  5
2728F
  8
0
 10
563.4107912591312
 20
209.21579686759469
 30
0.0
  0
VERTEX
  5
27290
  8
0
 10
563.38498794360112
 20
210.2110705649711
 30
0.0
  0
VERTEX
  5
27291
  8
0
 10
563.33340314472184
 20
211.20508093277931
 30
0.0
  0
VERTEX
  5
27292
  8
0
 10
563.29795547715253
 20
211.7013494843722
 30
0.0
  0
VERTEX
  5
27293
  8
0
 10
563.25608050838332
 20
212.19698693901049
 30
0.0
  0
VERTEX
  5
27294
  8
0
 10
563.15308545725566
 20
213.1859493321563
 30
0.0
  0
VERTEX
  5
27295
  8
0
 10
563.02450513543431
 20
214.17113135129691
 30
0.0
  0
VERTEX
  5
27296
  8
0
 10
562.87044833470839
 20
215.1516994340891
 30
0.0
  0
VERTEX
  5
27297
  8
0
 10
562.69104540251226
 20
216.1268239220399
 30
0.0
  0
VERTEX
  5
27298
  8
0
 10
562.48644813163685
 20
217.0956797624786
 30
0.0
  0
VERTEX
  5
27299
  8
0
 10
562.37475488717075
 20
217.57750054220921
 30
0.0
  0
VERTEX
  5
2729A
  8
0
 10
562.25682963179952
 20
218.05744720663921
 30
0.0
  0
VERTEX
  5
2729B
  8
0
 10
562.00238418317531
 20
219.01131250324491
 30
0.0
  0
VERTEX
  5
2729C
  8
0
 10
561.72332707201645
 20
219.9564685870246
 30
0.0
  0
VERTEX
  5
2729D
  8
0
 10
561.41989440849852
 20
220.89211576157231
 30
0.0
  0
VERTEX
  5
2729E
  8
0
 10
561.09234292694873
 20
221.8174623759669
 30
0.0
  0
VERTEX
  5
2729F
  8
0
 10
560.74094976862125
 20
222.7317254945892
 30
0.0
  0
VERTEX
  5
272A0
  8
0
 10
560.55640468997206
 20
223.18445862187949
 30
0.0
  0
VERTEX
  5
272A1
  8
0
 10
560.36601224721005
 20
223.63413155956641
 30
0.0
  0
VERTEX
  5
272A2
  8
0
 10
559.96784759729007
 20
224.5239170452742
 30
0.0
  0
VERTEX
  5
272A3
  8
0
 10
559.54679270590646
 20
225.40032910435909
 30
0.0
  0
VERTEX
  5
272A4
  8
0
 10
559.32779200077971
 20
225.83328791091211
 30
0.0
  0
VERTEX
  5
272A5
  8
0
 10
559.10320382753321
 20
226.2626262047234
 30
0.0
  0
VERTEX
  5
272A6
  8
0
 10
558.63745628264735
 20
227.11007875693119
 30
0.0
  0
VERTEX
  5
272A7
  8
0
 10
558.14994414017042
 20
227.9419697315179
 30
0.0
  0
VERTEX
  5
272A8
  8
0
 10
557.8981545361687
 20
228.3518591393877
 30
0.0
  0
VERTEX
  5
272A9
  8
0
 10
557.64107988404578
 20
228.7575952656662
 30
0.0
  0
VERTEX
  5
272AA
  8
0
 10
557.11129406423686
 20
229.5562652587459
 30
0.0
  0
VERTEX
  5
272AB
  8
0
 10
556.56103493243904
 20
230.33730395620751
 30
0.0
  0
VERTEX
  5
272AC
  8
0
 10
555.99076806281289
 20
231.1000505213369
 30
0.0
  0
VERTEX
  5
272AD
  8
0
 10
555.4009759580631
 20
231.84385959439081
 30
0.0
  0
VERTEX
  5
272AE
  8
0
 10
554.79215764119272
 20
232.56810183863581
 30
0.0
  0
VERTEX
  5
272AF
  8
0
 10
554.4807740115441
 20
232.92269324484189
 30
0.0
  0
VERTEX
  5
272B0
  8
0
 10
554.16482823327931
 20
233.2721644728272
 30
0.0
  0
VERTEX
  5
272B1
  8
0
 10
553.51951851763192
 20
233.9554517896859
 30
0.0
  0
VERTEX
  5
272B2
  8
0
 10
552.85677449069499
 20
234.6173856599253
 30
0.0
  0
VERTEX
  5
272B3
  8
0
 10
552.17715690008038
 20
235.25740602140741
 30
0.0
  0
VERTEX
  5
272B4
  8
0
 10
551.48124077012039
 20
235.8749713530087
 30
0.0
  0
VERTEX
  5
272B5
  8
0
 10
550.76961491533757
 20
236.46955913280451
 30
0.0
  0
VERTEX
  5
272B6
  8
0
 10
550.40809849406116
 20
236.7580784569009
 30
0.0
  0
VERTEX
  5
272B7
  8
0
 10
550.04288144225097
 20
237.04066628017151
 30
0.0
  0
VERTEX
  5
272B8
  8
0
 10
549.30165523993242
 20
237.58780958144601
 30
0.0
  0
VERTEX
  5
272B9
  8
0
 10
548.54656345975025
 20
238.11052609877149
 30
0.0
  0
VERTEX
  5
272BA
  8
0
 10
547.77824498473524
 20
238.60837356178851
 30
0.0
  0
VERTEX
  5
272BB
  8
0
 10
546.99734988902287
 20
239.08093074183941
 30
0.0
  0
VERTEX
  5
272BC
  8
0
 10
546.20453888782515
 20
239.52779780837321
 30
0.0
  0
VERTEX
  5
272BD
  8
0
 10
545.80387416844565
 20
239.74147853669541
 30
0.0
  0
VERTEX
  5
272BE
  8
0
 10
545.40048277840015
 20
239.9485966672373
 30
0.0
  0
VERTEX
  5
272BF
  8
0
 10
544.58586187248955
 20
240.3429712805864
 30
0.0
  0
VERTEX
  5
272C0
  8
0
 10
543.76136542070822
 20
240.7105879681267
 30
0.0
  0
VERTEX
  5
272C1
  8
0
 10
542.92769102936813
 20
241.05113568943671
 30
0.0
  0
VERTEX
  5
272C2
  8
0
 10
542.08554407023462
 20
241.36432630714719
 30
0.0
  0
VERTEX
  5
272C3
  8
0
 10
541.23563708371194
 20
241.64989483072799
 30
0.0
  0
VERTEX
  5
272C4
  8
0
 10
540.80799806098105
 20
241.78224438247341
 30
0.0
  0
VERTEX
  5
272C5
  8
0
 10
540.3786891759612
 20
241.9075996406973
 30
0.0
  0
VERTEX
  5
272C6
  8
0
 10
539.51542541046649
 20
242.13722269305799
 30
0.0
  0
VERTEX
  5
272C7
  8
0
 10
538.64657619455784
 20
242.3385697037838
 30
0.0
  0
VERTEX
  5
272C8
  8
0
 10
537.77287666141376
 20
242.51147031320221
 30
0.0
  0
VERTEX
  5
272C9
  8
0
 10
536.89506604806593
 20
242.6557782301343
 30
0.0
  0
VERTEX
  5
272CA
  8
0
 10
536.01388706992998
 20
242.7713713556777
 30
0.0
  0
VERTEX
  5
272CB
  8
0
 10
535.57226733915797
 20
242.81836835668949
 30
0.0
  0
VERTEX
  5
272CC
  8
0
 10
535.13008529239391
 20
242.85815188650579
 30
0.0
  0
VERTEX
  5
272CD
  8
0
 10
534.24440849999723
 20
242.91604639762679
 30
0.0
  0
VERTEX
  5
272CE
  8
0
 10
533.35760606372764
 20
242.9450059045048
 30
0.0
  0
VERTEX
  5
272CF
  8
0
 10
532.9140171853544
 20
242.94862641724649
 30
0.0
  0
VERTEX
  5
272D0
  8
0
 10
532.47042830698115
 20
242.9450059045048
 30
0.0
  0
VERTEX
  5
272D1
  8
0
 10
531.58362587071144
 20
242.91604639762679
 30
0.0
  0
VERTEX
  5
272D2
  8
0
 10
530.69794907831476
 20
242.85815188650579
 30
0.0
  0
VERTEX
  5
272D3
  8
0
 10
530.2557670315507
 20
242.81836835668949
 30
0.0
  0
VERTEX
  5
272D4
  8
0
 10
529.8141473007787
 20
242.7713713556777
 30
0.0
  0
VERTEX
  5
272D5
  8
0
 10
528.93296832264275
 20
242.6557782301343
 30
0.0
  0
VERTEX
  5
272D6
  8
0
 10
528.05515770929492
 20
242.51147031320221
 30
0.0
  0
VERTEX
  5
272D7
  8
0
 10
527.18145817615095
 20
242.3385697037838
 30
0.0
  0
VERTEX
  5
272D8
  8
0
 10
526.31260896024219
 20
242.13722269305799
 30
0.0
  0
VERTEX
  5
272D9
  8
0
 10
525.44934519474748
 20
241.9075996406973
 30
0.0
  0
VERTEX
  5
272DA
  8
0
 10
525.02003630972763
 20
241.78224438247341
 30
0.0
  0
VERTEX
  5
272DB
  8
0
 10
524.59239728699686
 20
241.64989483072799
 30
0.0
  0
VERTEX
  5
272DC
  8
0
 10
523.74249030047406
 20
241.36432630714719
 30
0.0
  0
VERTEX
  5
272DD
  8
0
 10
522.90034334134066
 20
241.05113568943671
 30
0.0
  0
VERTEX
  5
272DE
  8
0
 10
522.06666895000058
 20
240.7105879681267
 30
0.0
  0
VERTEX
  5
272DF
  8
0
 10
521.24217249821913
 20
240.3429712805864
 30
0.0
  0
VERTEX
  5
272E0
  8
0
 10
520.42755159230865
 20
239.9485966672373
 30
0.0
  0
VERTEX
  5
272E1
  8
0
 10
520.02416020226315
 20
239.74147853669541
 30
0.0
  0
VERTEX
  5
272E2
  8
0
 10
519.62349548288353
 20
239.52779780837321
 30
0.0
  0
VERTEX
  5
272E3
  8
0
 10
518.83068448168581
 20
239.08093074183941
 30
0.0
  0
VERTEX
  5
272E4
  8
0
 10
518.04978938597355
 20
238.60837356178851
 30
0.0
  0
VERTEX
  5
272E5
  8
0
 10
517.28147091095843
 20
238.11052609877149
 30
0.0
  0
VERTEX
  5
272E6
  8
0
 10
516.52637913077626
 20
237.58780958144601
 30
0.0
  0
VERTEX
  5
272E7
  8
0
 10
515.78515292845771
 20
237.04066628017151
 30
0.0
  0
VERTEX
  5
272E8
  8
0
 10
515.41993587664751
 20
236.7580784569009
 30
0.0
  0
VERTEX
  5
272E9
  8
0
 10
515.05841945537122
 20
236.46955913280451
 30
0.0
  0
VERTEX
  5
272EA
  8
0
 10
514.34679360058828
 20
235.8749713530087
 30
0.0
  0
VERTEX
  5
272EB
  8
0
 10
513.6508774706283
 20
235.25740602140741
 30
0.0
  0
VERTEX
  5
272EC
  8
0
 10
512.97125988001369
 20
234.6173856599253
 30
0.0
  0
VERTEX
  5
272ED
  8
0
 10
512.30851585307676
 20
233.9554517896859
 30
0.0
  0
VERTEX
  5
272EE
  8
0
 10
511.66320613742943
 20
233.2721644728272
 30
0.0
  0
VERTEX
  5
272EF
  8
0
 10
511.34726035916458
 20
232.92269324484189
 30
0.0
  0
VERTEX
  5
272F0
  8
0
 10
511.03587672951602
 20
232.56810183863581
 30
0.0
  0
VERTEX
  5
272F1
  8
0
 10
510.42705841264569
 20
231.84385959439081
 30
0.0
  0
VERTEX
  5
272F2
  8
0
 10
509.83726630789579
 20
231.1000505213369
 30
0.0
  0
VERTEX
  5
272F3
  8
0
 10
509.26699943826969
 20
230.33730395620751
 30
0.0
  0
VERTEX
  5
272F4
  8
0
 10
508.71674030647182
 20
229.5562652587459
 30
0.0
  0
VERTEX
  5
272F5
  8
0
 10
508.1869544866629
 20
228.7575952656662
 30
0.0
  0
VERTEX
  5
272F6
  8
0
 10
507.92987983453997
 20
228.3518591393877
 30
0.0
  0
VERTEX
  5
272F7
  8
0
 10
507.67809023053832
 20
227.9419697315179
 30
0.0
  0
VERTEX
  5
272F8
  8
0
 10
507.19057808806127
 20
227.11007875693119
 30
0.0
  0
VERTEX
  5
272F9
  8
0
 10
506.72483054317553
 20
226.2626262047234
 30
0.0
  0
VERTEX
  5
272FA
  8
0
 10
506.50024236992903
 20
225.83328791091211
 30
0.0
  0
VERTEX
  5
272FB
  8
0
 10
506.28124166480228
 20
225.40032910435909
 30
0.0
  0
VERTEX
  5
272FC
  8
0
 10
505.86018677341872
 20
224.5239170452742
 30
0.0
  0
VERTEX
  5
272FD
  8
0
 10
505.46202212349863
 20
223.63413155956641
 30
0.0
  0
VERTEX
  5
272FE
  8
0
 10
505.27162968073662
 20
223.18445862187949
 30
0.0
  0
VERTEX
  5
272FF
  8
0
 10
505.08708460208749
 20
222.7317254945892
 30
0.0
  0
VERTEX
  5
27300
  8
0
 10
504.73569144376
 20
221.8174623759669
 30
0.0
  0
VERTEX
  5
27301
  8
0
 10
504.40813996221021
 20
220.89211576157231
 30
0.0
  0
VERTEX
  5
27302
  8
0
 10
504.10470729869229
 20
219.9564685870246
 30
0.0
  0
VERTEX
  5
27303
  8
0
 10
503.82565018753343
 20
219.01131250324491
 30
0.0
  0
VERTEX
  5
27304
  8
0
 10
503.57120473890922
 20
218.05744720663921
 30
0.0
  0
VERTEX
  5
27305
  8
0
 10
503.45327948353793
 20
217.57750054220921
 30
0.0
  0
VERTEX
  5
27306
  8
0
 10
503.34158623907177
 20
217.0956797624786
 30
0.0
  0
VERTEX
  5
27307
  8
0
 10
503.13698896819642
 20
216.1268239220399
 30
0.0
  0
VERTEX
  5
27308
  8
0
 10
502.95758603600029
 20
215.1516994340891
 30
0.0
  0
VERTEX
  5
27309
  8
0
 10
502.80352923527442
 20
214.17113135129691
 30
0.0
  0
VERTEX
  5
2730A
  8
0
 10
502.67494891345308
 20
213.1859493321563
 30
0.0
  0
VERTEX
  5
2730B
  8
0
 10
502.57195386232542
 20
212.19698693901049
 30
0.0
  0
VERTEX
  5
2730C
  8
0
 10
502.53007889355621
 20
211.7013494843722
 30
0.0
  0
VERTEX
  5
2730D
  8
0
 10
502.49463122598689
 20
211.20508093277931
 30
0.0
  0
VERTEX
  5
2730E
  8
0
 10
502.44304642710762
 20
210.2110705649711
 30
0.0
  0
VERTEX
  5
2730F
  8
0
 10
502.41724311157759
 20
209.21579686759469
 30
0.0
  0
VERTEX
  5
27310
  8
0
 10
502.41401718535428
 20
208.71794940457769
 30
0.0
  0
SEQEND
  5
27311
  8
0
  0
POLYLINE
  5
2121E
  8
0
 66
     1
 10
0.0
 20
0.0
 30
0.0
  0
VERTEX
  5
27312
  8
0
 10
502.41401718535428
 20
208.71794940457769
 30
0.0
  0
VERTEX
  5
27313
  8
0
 10
502.42048027849842
 20
208.01329241225631
 30
0.0
  0
VERTEX
  5
27314
  8
0
 10
502.47216859009382
 20
206.60517286203589
 30
0.0
  0
VERTEX
  5
27315
  8
0
 10
502.57545759860199
 20
205.20063459045289
 30
0.0
  0
VERTEX
  5
27316
  8
0
 10
502.64640106097607
 20
204.50045277351731
 30
0.0
  0
VERTEX
  5
27317
  8
0
 10
502.7301722231702
 20
203.80205837124231
 30
0.0
  0
VERTEX
  5
27318
  8
0
 10
502.93605021354671
 20
202.41181487211909
 30
0.0
  0
VERTEX
  5
27319
  8
0
 10
503.19274259461071
 20
201.0322606363525
 30
0.0
  0
VERTEX
  5
2731A
  8
0
 10
503.49981425790611
 20
199.66573408829211
 30
0.0
  0
VERTEX
  5
2731B
  8
0
 10
503.8567446991741
 20
198.31455156960141
 30
0.0
  0
VERTEX
  5
2731C
  8
0
 10
504.26292890063968
 20
196.9810034129259
 30
0.0
  0
VERTEX
  5
2731D
  8
0
 10
504.4842792336953
 20
196.3215498810477
 30
0.0
  0
VERTEX
  5
2731E
  8
0
 10
504.71767835655032
 20
195.66735005964711
 30
0.0
  0
VERTEX
  5
2731F
  8
0
 10
505.22022224023351
 20
194.37581822829819
 30
0.0
  0
VERTEX
  5
27320
  8
0
 10
505.76970871069392
 20
193.10859714015621
 30
0.0
  0
VERTEX
  5
27321
  8
0
 10
506.3652063565309
 20
191.86783480837579
 30
0.0
  0
VERTEX
  5
27322
  8
0
 10
507.0057057747369
 20
190.65563439699051
 30
0.0
  0
VERTEX
  5
27323
  8
0
 10
507.69012128169311
 20
189.47405065592011
 30
0.0
  0
VERTEX
  5
27324
  8
0
 10
508.04843788462512
 20
188.89536804896761
 30
0.0
  0
VERTEX
  5
27325
  8
0
 10
508.4172927534654
 20
188.3250864380588
 30
0.0
  0
VERTEX
  5
27326
  8
0
 10
509.1859875922836
 20
187.21068930431559
 30
0.0
  0
VERTEX
  5
27327
  8
0
 10
509.9949028158639
 20
186.1327482223914
 30
0.0
  0
VERTEX
  5
27328
  8
0
 10
510.41401718535428
 20
185.60802219159271
 30
0.0
  0
SEQEND
  5
27329
  8
0
  0
LINE
  5
2121F
  8
0
 10
510.41401718535428
 20
231.82784366413671
 30
0.0
 11
510.41401718535428
 21
179.74368873142151
 31
0.0
  0
LINE
  5
21220
  8
0
 10
555.4140171853544
 20
179.74368873142151
 30
0.0
 11
555.4140171853544
 21
231.82784366413671
 31
0.0
  0
LINE
  5
21221
  8
0
 10
517.61221204529431
 20
238.32887416569889
 30
0.0
 11
524.31340972848488
 21
238.32887416569889
 31
0.0
  0
LINE
  5
21222
  8
1
 10
489.85213882224161
 20
189.7436887314197
 30
0.0
 11
575.97589554846707
 21
189.7436887314197
 31
0.0
  0
LINE
  5
21223
  8
0
 10
535.91401718535462
 20
239.74368873142251
 30
0.0
 11
529.91401718535462
 21
239.74368873142251
 31
0.0
  0
LINE
  5
21224
  8
0
 10
529.91401718535462
 20
139.74368873142251
 30
0.0
 11
535.91401718535462
 21
139.74368873142251
 31
0.0
  0
ARC
  5
21225
  8
0
 10
535.91401718535462
 20
140.04368873142261
 30
0.0
 40
0.3000000000000185
 50
270.0
 51
0.0
  0
ARC
  5
21226
  8
0
 10
535.91401718535462
 20
239.44368873142321
 30
0.0
 40
0.3000000000000136
 50
0.0
 51
90.0
  0
LINE
  5
21227
  8
0
 10
538.61401718535444
 20
239.44368873142321
 30
0.0
 11
536.21401718535435
 21
239.44368873142321
 31
0.0
  0
LINE
  5
21228
  8
0
 10
536.21401718535435
 20
140.04368873142261
 30
0.0
 11
538.61401718535444
 21
140.04368873142261
 31
0.0
  0
ARC
  5
21229
  8
0
 10
538.91401718535462
 20
140.04368873142261
 30
0.0
 40
0.2999999999999998
 50
180.0
 51
270.0
  0
ARC
  5
2122A
  8
0
 10
538.91401718535462
 20
239.44368873142321
 30
0.0
 40
0.2999999999999971
 50
90.0
 51
180.0
  0
LINE
  5
2122B
  8
0
 10
540.31417185166424
 20
239.74368873142251
 30
0.0
 11
538.91401718535462
 21
239.74368873142251
 31
0.0
  0
LINE
  5
2122C
  8
0
 10
538.91401718535462
 20
139.74368873142251
 30
0.0
 11
540.31417185166424
 21
139.74368873142251
 31
0.0
  0
ARC
  5
2122D
  8
0
 10
540.31417185166424
 20
140.74368873142251
 30
0.0
 40
1.0000000000000211
 50
270.0
 51
341.00000000001239
  0
ARC
  5
2122E
  8
0
 10
540.31417185166424
 20
238.74368873142251
 30
0.0
 40
1.0000000000000191
 50
18.999999999987629
 51
90.0
  0
LINE
  5
2122F
  8
0
 10
542.30729677925592
 20
236.0267871229016
 30
0.0
 11
541.25969042726365
 21
239.06925688588041
 31
0.0
  0
LINE
  5
21230
  8
0
 10
541.25969042726365
 20
140.41812057696549
 30
0.0
 11
542.30729677925592
 21
143.46059033994419
 31
0.0
  0
ARC
  5
21231
  8
0
 10
539.47074105245792
 20
144.4372948033151
 30
0.0
 40
3.0000000000000022
 50
341.00000000001239
 51
0.0
  0
ARC
  5
21232
  8
0
 10
539.4707410524577
 20
235.05008265952981
 30
0.0
 40
3.000000000000087
 50
0.0
 51
18.999999999987629
  0
ARC
  5
21233
  8
0
 10
542.97074105245792
 20
145.3873724149089
 30
0.0
 40
0.5
 50
180.0
 51
0.0
  0
ARC
  5
21234
  8
0
 10
542.97074105245792
 20
234.100005047937
 30
0.0
 40
0.5
 50
0.0
 51
180.0
  0
ARC
  5
21235
  8
0
 10
543.97074105245792
 20
148.29158329258459
 30
0.0
 40
0.5
 50
180.0
 51
0.0
  0
ARC
  5
21236
  8
0
 10
543.97074105245792
 20
231.19579417026031
 30
0.0
 40
0.5
 50
0.0
 51
180.0
  0
LINE
  5
21237
  8
0
 10
547.75057291215228
 20
220.21836536755021
 30
0.0
 11
544.47074105245781
 21
229.74368873142251
 31
0.0
  0
LINE
  5
21238
  8
0
 10
544.47074105245781
 20
149.74368873142251
 30
0.0
 11
547.75057291215228
 21
159.26901209529569
 31
0.0
  0
ARC
  5
21239
  8
0
 10
544.91401718535462
 20
160.24571655866649
 30
0.0
 40
2.9999999999999121
 50
341.00000000001239
 51
0.0
  0
ARC
  5
2123A
  8
0
 10
544.91401718535462
 20
219.24166090417839
 30
0.0
 40
2.9999999999999121
 50
0.0
 51
18.999999999987629
  0
ARC
  5
2123B
  8
0
 10
520.91401718535462
 20
160.24571655866751
 30
0.0
 40
3.000000000000246
 50
180.0
 51
198.99999999998761
  0
ARC
  5
2123C
  8
0
 10
520.91401718535485
 20
219.24166090417839
 30
0.0
 40
3.0000000000003491
 50
161.00000000001231
 51
179.99999914622629
  0
LINE
  5
2123D
  8
0
 10
521.35729331825098
 20
229.74368873142251
 30
0.0
 11
518.07746145855651
 21
220.21836536755021
 31
0.0
  0
LINE
  5
2123E
  8
0
 10
518.07746145855651
 20
159.26901209529569
 30
0.0
 11
521.35729331825098
 21
149.74368873142251
 31
0.0
  0
ARC
  5
2123F
  8
0
 10
521.85729331825098
 20
148.29158329258459
 30
0.0
 40
0.5
 50
180.0
 51
0.0
  0
ARC
  5
21240
  8
0
 10
521.85729331825098
 20
231.19579417026031
 30
0.0
 40
0.5
 50
0.0
 51
180.0
  0
ARC
  5
21241
  8
0
 10
522.8572933182511
 20
145.3873724149089
 30
0.0
 40
0.5
 50
180.0
 51
0.0
  0
ARC
  5
21242
  8
0
 10
522.8572933182511
 20
234.100005047937
 30
0.0
 40
0.5
 50
0.0
 51
180.0
  0
ARC
  5
21243
  8
0
 10
526.35729331825075
 20
144.4372948033151
 30
0.0
 40
2.9999999999998561
 50
179.99999914622629
 51
198.99999999998761
  0
ARC
  5
21244
  8
0
 10
526.35729331825075
 20
235.05008265952981
 30
0.0
 40
2.9999999999998561
 50
161.00000000001231
 51
180.0
  0
LINE
  5
21245
  8
0
 10
524.5683439434456
 20
239.06925688588041
 30
0.0
 11
523.52073759145333
 21
236.0267871229016
 31
0.0
  0
LINE
  5
21246
  8
0
 10
523.52073759145333
 20
143.46059033994419
 30
0.0
 11
524.5683439434456
 21
140.41812057696549
 31
0.0
  0
ARC
  5
21247
  8
0
 10
525.51386251904466
 20
140.74368873142251
 30
0.0
 40
1.0000000000000191
 50
198.99999999998761
 51
270.0
  0
ARC
  5
21248
  8
0
 10
525.51386251904466
 20
238.74368873142251
 30
0.0
 40
1.0000000000000211
 50
90.0
 51
161.00000000001231
  0
LINE
  5
21249
  8
0
 10
526.91401718535462
 20
239.74368873142251
 30
0.0
 11
525.51386251904466
 21
239.74368873142251
 31
0.0
  0
LINE
  5
2124A
  8
0
 10
525.51386251904466
 20
139.74368873142251
 30
0.0
 11
526.91401718535462
 21
139.74368873142251
 31
0.0
  0
ARC
  5
2124B
  8
0
 10
526.91401718535462
 20
140.04368873142261
 30
0.0
 40
0.3000000000000043
 50
270.0
 51
0.0
  0
ARC
  5
2124C
  8
0
 10
526.91401718535462
 20
239.44368873142321
 30
0.0
 40
0.3000000000000016
 50
0.0
 51
90.0
  0
LINE
  5
2124D
  8
0
 10
529.61401718535444
 20
239.44368873142321
 30
0.0
 11
527.21401718535435
 21
239.44368873142321
 31
0.0
  0
LINE
  5
2124E
  8
0
 10
527.21401718535435
 20
140.04368873142261
 30
0.0
 11
529.61401718535444
 21
140.04368873142261
 31
0.0
  0
ARC
  5
2124F
  8
0
 10
529.91401718535462
 20
140.04368873142261
 30
0.0
 40
0.2999999999999989
 50
180.0
 51
270.0
  0
ARC
  5
21250
  8
0
 10
529.91401718535462
 20
239.44368873142321
 30
0.0
 40
0.2999999999999971
 50
90.0
 51
180.0
  0
LINE
  5
21251
  8
0
 10
536.21401718535435
 20
140.04368873142261
 30
0.0
 11
536.21401718535435
 21
239.44368873142321
 31
0.0
  0
LINE
  5
21252
  8
0
 10
538.61401718535444
 20
140.04368873142261
 30
0.0
 11
538.61401718535444
 21
239.44368873142321
 31
0.0
  0
LINE
  5
21253
  8
0
 10
542.47074105245792
 20
144.4372948033151
 30
0.0
 11
542.47074105245792
 21
235.05008265952981
 31
0.0
  0
LINE
  5
21254
  8
0
 10
543.47074105245792
 20
145.3873724149089
 30
0.0
 11
543.47074105245792
 21
234.100005047937
 31
0.0
  0
LINE
  5
21255
  8
0
 10
544.47074105245781
 20
148.29158329258459
 30
0.0
 11
544.47074105245781
 21
231.19579417026031
 31
0.0
  0
LINE
  5
21256
  8
0
 10
547.91401718535462
 20
160.24571655866649
 30
0.0
 11
547.91401718535462
 21
219.24166090417839
 31
0.0
  0
LINE
  5
21257
  8
0
 10
521.35729331825098
 20
148.29158329258459
 30
0.0
 11
521.35729331825098
 21
231.19579417026031
 31
0.0
  0
LINE
  5
21258
  8
0
 10
522.35729331825098
 20
145.3873724149089
 30
0.0
 11
522.35729331825098
 21
234.100005047937
 31
0.0
  0
LINE
  5
21259
  8
0
 10
523.3572933182511
 20
144.4372948033151
 30
0.0
 11
523.3572933182511
 21
235.05008265952981
 31
0.0
  0
LINE
  5
2125A
  8
0
 10
527.21401718535435
 20
140.04368873142261
 30
0.0
 11
527.21401718535435
 21
239.44368873142321
 31
0.0
  0
LINE
  5
2125B
  8
0
 10
529.61401718535444
 20
140.04368873142261
 30
0.0
 11
529.61401718535444
 21
239.44368873142321
 31
0.0
  0
LINE
  5
2125C
  8
0
 10
517.91401718535451
 20
160.24571655866649
 30
0.0
 11
517.91401718535451
 21
219.24166090417839
 31
0.0
  0
LINE
  5
2125D
  8
0
 10
548.21582232541436
 20
238.32887416569889
 30
0.0
 11
541.51462464222391
 21
238.32887416569889
 31
0.0
  0
LINE
  5
2125E
  8
0
 10
127.3906147827408
 20
183.74368873142151
 30
0.0
 11
119.8906147827408
 21
183.74368873142151
 31
0.0
  0
LINE
  5
2125F
  8
0
 10
89.89061478274084
 20
183.74368873142151
 30
0.0
 11
82.39061478274084
 21
183.74368873142151
 31
0.0
  0
LINE
  5
21260
  8
0
 10
82.39061478274084
 20
195.7436887314216
 30
0.0
 11
89.89061478274084
 21
195.7436887314216
 31
0.0
  0
LINE
  5
21261
  8
0
 10
119.8906147827408
 20
195.7436887314216
 30
0.0
 11
127.3906147827408
 21
195.7436887314216
 31
0.0
  0
LINE
  5
21262
  8
0
 10
70.090614782740886
 20
264.44368873142139
 30
0.0
 11
70.090614782740886
 21
265.24368873142163
 31
0.0
  0
LINE
  5
21263
  8
0
 10
139.69061478274079
 20
265.24368873142163
 30
0.0
 11
139.69061478274079
 21
264.44368873142139
 31
0.0
  0
LINE
  5
21264
  8
0
 10
70.389394118762766
 20
255.94368873142139
 30
0.0
 11
68.89061478274084
 21
264.44368873142139
 31
0.0
  0
LINE
  5
21265
  8
0
 10
140.89061478274081
 20
264.44368873142139
 30
0.0
 11
139.39183544671889
 21
255.94368873142139
 31
0.0
  0
LINE
  5
21266
  8
0
 10
71.89061478274084
 20
208.71794940457769
 30
0.0
 11
71.89061478274084
 21
255.94368873142139
 31
0.0
  0
LINE
  5
21267
  8
0
 10
137.89061478274081
 20
255.94368873142139
 30
0.0
 11
137.89061478274081
 21
208.71794940457769
 31
0.0
  0
LINE
  5
21268
  8
0
 10
62.39061478274084
 20
267.74368873142163
 30
0.0
 11
62.39061478274084
 21
265.24368873142163
 31
0.0
  0
LINE
  5
2126A
  8
0
 10
147.39061478274081
 20
267.74368873142163
 30
0.0
 11
62.39061478274084
 21
267.74368873142163
 31
0.0
  0
LINE
  5
2126C
  8
0
 10
147.39061478274081
 20
265.24368873142163
 30
0.0
 11
62.39061478274084
 21
265.24368873142163
 31
0.0
  0
LINE
  5
2126D
  8
0
 10
147.39061478274081
 20
267.74368873142163
 30
0.0
 11
147.39061478274081
 21
265.24368873142163
 31
0.0
  0
LINE
  5
2126E
  8
0
 10
140.89061478274081
 20
264.44368873142139
 30
0.0
 11
68.89061478274084
 21
264.44368873142139
 31
0.0
  0
LINE
  5
2126F
  8
0
 10
139.39183544671889
 20
255.94368873142139
 30
0.0
 11
70.389394118762766
 21
255.94368873142139
 31
0.0
  0
LINE
  5
21270
  8
1
 10
61.828736419628058
 20
189.7436887314197
 30
0.0
 11
147.95249314585359
 21
189.7436887314197
 31
0.0
  0
LINE
  5
21271
  8
1
 10
104.8906147827408
 20
127.9274887509773
 30
0.0
 11
104.8906147827408
 21
279.55988871186219
 31
0.0
  0
LINE
  5
21272
  8
0
 10
107.890614782741
 20
239.74368873142251
 30
0.0
 11
101.890614782741
 21
239.74368873142251
 31
0.0
  0
LINE
  5
21273
  8
0
 10
101.890614782741
 20
139.74368873142251
 30
0.0
 11
107.890614782741
 21
139.74368873142251
 31
0.0
  0
ARC
  5
21274
  8
0
 10
107.890614782741
 20
140.04368873142261
 30
0.0
 40
0.3000000000000185
 50
270.0
 51
0.0
  0
ARC
  5
21275
  8
0
 10
107.890614782741
 20
239.44368873142321
 30
0.0
 40
0.3000000000000136
 50
0.0
 51
90.0
  0
LINE
  5
21276
  8
0
 10
110.5906147827409
 20
239.44368873142321
 30
0.0
 11
108.19061478274079
 21
239.44368873142321
 31
0.0
  0
LINE
  5
21277
  8
0
 10
108.19061478274079
 20
140.04368873142261
 30
0.0
 11
110.5906147827409
 21
140.04368873142261
 31
0.0
  0
ARC
  5
21278
  8
0
 10
110.890614782741
 20
140.04368873142261
 30
0.0
 40
0.2999999999999998
 50
180.0
 51
270.0
  0
ARC
  5
21279
  8
0
 10
110.890614782741
 20
239.44368873142321
 30
0.0
 40
0.2999999999999971
 50
90.0
 51
180.0
  0
LINE
  5
2127A
  8
0
 10
112.2907694490507
 20
239.74368873142251
 30
0.0
 11
110.890614782741
 21
239.74368873142251
 31
0.0
  0
LINE
  5
2127B
  8
0
 10
110.890614782741
 20
139.74368873142251
 30
0.0
 11
112.2907694490507
 21
139.74368873142251
 31
0.0
  0
ARC
  5
2127C
  8
0
 10
112.2907694490507
 20
140.74368873142251
 30
0.0
 40
1.0000000000000211
 50
270.0
 51
341.00000000001017
  0
ARC
  5
2127D
  8
0
 10
112.2907694490507
 20
238.74368873142251
 30
0.0
 40
1.0000000000000191
 50
18.99999999998975
 51
90.0
  0
LINE
  5
2127E
  8
0
 10
114.28389437664229
 20
236.0267871229016
 30
0.0
 11
113.23628802465009
 21
239.06925688588041
 31
0.0
  0
LINE
  5
2127F
  8
0
 10
113.23628802465009
 20
140.41812057696549
 30
0.0
 11
114.28389437664229
 21
143.46059033994419
 31
0.0
  0
ARC
  5
21280
  8
0
 10
111.4473386498443
 20
144.4372948033151
 30
0.0
 40
3.0000000000000022
 50
341.00000000001017
 51
0.0
  0
ARC
  5
21281
  8
0
 10
111.4473386498441
 20
235.05008265952981
 30
0.0
 40
3.000000000000087
 50
0.0
 51
18.99999999998975
  0
ARC
  5
21282
  8
0
 10
114.9473386498443
 20
145.3873724149089
 30
0.0
 40
0.5
 50
180.0
 51
0.0
  0
ARC
  5
21283
  8
0
 10
114.9473386498443
 20
234.100005047937
 30
0.0
 40
0.5
 50
0.0
 51
180.0
  0
ARC
  5
21284
  8
0
 10
115.9473386498443
 20
148.29158329258459
 30
0.0
 40
0.5
 50
180.0
 51
0.0
  0
ARC
  5
21285
  8
0
 10
115.9473386498443
 20
231.19579417026031
 30
0.0
 40
0.5
 50
0.0
 51
180.0
  0
LINE
  5
21286
  8
0
 10
119.72717050953879
 20
220.21836536755021
 30
0.0
 11
116.4473386498444
 21
229.74368873142251
 31
0.0
  0
LINE
  5
21287
  8
0
 10
116.4473386498444
 20
149.74368873142251
 30
0.0
 11
119.72717050953879
 21
159.26901209529569
 31
0.0
  0
ARC
  5
21288
  8
0
 10
116.890614782741
 20
160.24571655866649
 30
0.0
 40
2.9999999999999121
 50
341.00000000001017
 51
0.0
  0
ARC
  5
21289
  8
0
 10
116.890614782741
 20
219.24166090417839
 30
0.0
 40
2.9999999999999121
 50
0.0
 51
18.99999999998975
  0
ARC
  5
2128A
  8
0
 10
92.890614782741054
 20
160.24571655866751
 30
0.0
 40
3.000000000000246
 50
180.0
 51
198.99999999998971
  0
ARC
  5
2128B
  8
0
 10
92.890614782741295
 20
219.24166090417839
 30
0.0
 40
3.0000000000003491
 50
161.0000000000102
 51
179.99999914622629
  0
LINE
  5
2128C
  8
0
 10
93.333890915637539
 20
229.74368873142251
 30
0.0
 11
90.054059055943057
 21
220.21836536755021
 31
0.0
  0
LINE
  5
2128D
  8
0
 10
90.054059055943057
 20
159.26901209529569
 30
0.0
 11
93.333890915637539
 21
149.74368873142251
 31
0.0
  0
ARC
  5
2128E
  8
0
 10
93.833890915637554
 20
148.29158329258459
 30
0.0
 40
0.5
 50
180.0
 51
0.0
  0
ARC
  5
2128F
  8
0
 10
93.833890915637554
 20
231.19579417026031
 30
0.0
 40
0.5
 50
0.0
 51
180.0
  0
ARC
  5
21290
  8
0
 10
94.833890915637539
 20
145.3873724149089
 30
0.0
 40
0.5
 50
180.0
 51
0.0
  0
ARC
  5
21291
  8
0
 10
94.833890915637539
 20
234.100005047937
 30
0.0
 40
0.5
 50
0.0
 51
180.0
  0
ARC
  5
21292
  8
0
 10
98.333890915637312
 20
144.4372948033151
 30
0.0
 40
2.9999999999998561
 50
179.99999914622629
 51
198.99999999998971
  0
ARC
  5
21293
  8
0
 10
98.333890915637312
 20
235.05008265952981
 30
0.0
 40
2.9999999999998561
 50
161.0000000000102
 51
180.0
  0
LINE
  5
21294
  8
0
 10
96.544941540832042
 20
239.06925688588041
 30
0.0
 11
95.49733518883977
 21
236.0267871229016
 31
0.0
  0
LINE
  5
21295
  8
0
 10
95.49733518883977
 20
143.46059033994419
 30
0.0
 11
96.544941540832042
 21
140.41812057696549
 31
0.0
  0
ARC
  5
21296
  8
0
 10
97.490460116431237
 20
140.74368873142251
 30
0.0
 40
1.0000000000000191
 50
198.99999999998971
 51
270.0
  0
ARC
  5
21297
  8
0
 10
97.490460116431237
 20
238.74368873142251
 30
0.0
 40
1.0000000000000211
 50
90.0
 51
161.0000000000102
  0
LINE
  5
21298
  8
0
 10
98.890614782741082
 20
239.74368873142251
 30
0.0
 11
97.490460116431237
 21
239.74368873142251
 31
0.0
  0
LINE
  5
21299
  8
0
 10
97.490460116431237
 20
139.74368873142251
 30
0.0
 11
98.890614782741082
 21
139.74368873142251
 31
0.0
  0
ARC
  5
2129A
  8
0
 10
98.890614782741082
 20
140.04368873142261
 30
0.0
 40
0.3000000000000043
 50
270.0
 51
0.0
  0
ARC
  5
2129B
  8
0
 10
98.890614782741082
 20
239.44368873142321
 30
0.0
 40
0.3000000000000016
 50
0.0
 51
90.0
  0
LINE
  5
2129C
  8
0
 10
101.5906147827409
 20
239.44368873142321
 30
0.0
 11
99.190614782740795
 21
239.44368873142321
 31
0.0
  0
LINE
  5
2129D
  8
0
 10
99.190614782740795
 20
140.04368873142261
 30
0.0
 11
101.5906147827409
 21
140.04368873142261
 31
0.0
  0
ARC
  5
2129E
  8
0
 10
101.890614782741
 20
140.04368873142261
 30
0.0
 40
0.2999999999999989
 50
180.0
 51
270.0
  0
ARC
  5
2129F
  8
0
 10
101.890614782741
 20
239.44368873142321
 30
0.0
 40
0.2999999999999971
 50
90.0
 51
180.0
  0
LINE
  5
212A0
  8
0
 10
108.19061478274079
 20
140.04368873142261
 30
0.0
 11
108.19061478274079
 21
239.44368873142321
 31
0.0
  0
LINE
  5
212A1
  8
0
 10
110.5906147827409
 20
140.04368873142261
 30
0.0
 11
110.5906147827409
 21
239.44368873142321
 31
0.0
  0
LINE
  5
212A2
  8
0
 10
114.4473386498443
 20
144.4372948033151
 30
0.0
 11
114.4473386498443
 21
235.05008265952981
 31
0.0
  0
LINE
  5
212A3
  8
0
 10
115.4473386498443
 20
145.3873724149089
 30
0.0
 11
115.4473386498443
 21
234.100005047937
 31
0.0
  0
LINE
  5
212A4
  8
0
 10
116.4473386498444
 20
148.29158329258459
 30
0.0
 11
116.4473386498444
 21
231.19579417026031
 31
0.0
  0
LINE
  5
212A5
  8
0
 10
119.890614782741
 20
160.24571655866649
 30
0.0
 11
119.890614782741
 21
219.24166090417839
 31
0.0
  0
LINE
  5
212A6
  8
0
 10
93.333890915637539
 20
148.29158329258459
 30
0.0
 11
93.333890915637539
 21
231.19579417026031
 31
0.0
  0
LINE
  5
212A7
  8
0
 10
94.333890915637525
 20
145.3873724149089
 30
0.0
 11
94.333890915637525
 21
234.100005047937
 31
0.0
  0
LINE
  5
212A8
  8
0
 10
95.333890915637525
 20
144.4372948033151
 30
0.0
 11
95.333890915637525
 21
235.05008265952981
 31
0.0
  0
LINE
  5
212A9
  8
0
 10
99.190614782740795
 20
140.04368873142261
 30
0.0
 11
99.190614782740795
 21
239.44368873142321
 31
0.0
  0
LINE
  5
212AA
  8
0
 10
101.5906147827409
 20
140.04368873142261
 30
0.0
 11
101.5906147827409
 21
239.44368873142321
 31
0.0
  0
LINE
  5
212AB
  8
0
 10
89.890614782741068
 20
160.24571655866649
 30
0.0
 11
89.890614782741068
 21
219.24166090417839
 31
0.0
  0
LINE
  5
212AC
  8
0
 10
74.390616302659282
 20
183.92868858479409
 30
0.0
 11
71.890614961554775
 21
183.92868858479409
 31
0.0
  0
LINE
  5
212AD
  8
0
 10
71.890614961554775
 20
195.55868726872359
 30
0.0
 11
74.390616302659282
 21
195.55868726872359
 31
0.0
  0
LINE
  5
212AE
  8
0
 10
130.49061576584489
 20
183.92868858479409
 30
0.0
 11
129.8906156209311
 21
183.92868858479409
 31
0.0
  0
LINE
  5
212AF
  8
0
 10
129.8906156209311
 20
195.55868726872359
 30
0.0
 11
130.49061576584489
 21
195.55868726872359
 31
0.0
  0
LINE
  5
212B0
  8
0
 10
70.657614653279552
 20
185.7436872711078
 30
0.0
 11
69.890614633729228
 21
186.5106872906581
 31
0.0
  0
LINE
  5
212B1
  8
0
 10
69.890614633729228
 20
192.97668856285961
 30
0.0
 11
70.657614653279552
 21
193.7436885824099
 31
0.0
  0
LINE
  5
212B2
  8
0
 10
71.890614961554775
 20
185.7436872711078
 30
0.0
 11
70.657614653279552
 21
185.7436872711078
 31
0.0
  0
LINE
  5
212B3
  8
0
 10
70.657614653279552
 20
193.7436885824099
 30
0.0
 11
71.890614961554775
 21
193.7436885824099
 31
0.0
  0
LINE
  5
212B4
  8
0
 10
74.390616302659282
 20
196.00201916598229
 30
0.0
 11
74.650034343173274
 21
196.97019231223021
 31
0.0
  0
LINE
  5
212B5
  8
0
 10
74.650034343173274
 20
182.51719099186809
 30
0.0
 11
74.390616302659282
 21
183.48535668753539
 31
0.0
  0
LINE
  5
212B6
  8
0
 10
79.89061627285696
 20
183.48535668753539
 30
0.0
 11
79.631194507052669
 21
182.51719099186809
 31
0.0
  0
LINE
  5
212B7
  8
0
 10
79.631194507052669
 20
196.97019231223021
 30
0.0
 11
79.89061627285696
 21
196.00201916598229
 31
0.0
  0
LINE
  5
212B8
  8
0
 10
130.49061576584489
 20
196.00201916598229
 30
0.0
 11
130.75003543617339
 21
196.97019231223021
 31
0.0
  0
LINE
  5
212B9
  8
0
 10
130.75003543617339
 20
182.51719099186809
 30
0.0
 11
130.49061576584489
 21
183.48535668753539
 31
0.0
  0
LINE
  5
212BA
  8
0
 10
135.19061546521399
 20
183.48535668753539
 30
0.0
 11
134.93119602771611
 21
182.51719099186809
 31
0.0
  0
LINE
  5
212BB
  8
0
 10
134.93119602771611
 20
196.97019231223021
 30
0.0
 11
135.19061546521399
 21
196.00201916598229
 31
0.0
  0
LINE
  5
212BC
  8
0
 10
82.390613888671169
 20
179.74369001292141
 30
0.0
 11
79.89061627285696
 21
179.74369001292141
 31
0.0
  0
LINE
  5
212BD
  8
0
 10
129.8906156209311
 20
179.74369001292141
 30
0.0
 11
127.3906156768105
 21
179.74369001292141
 31
0.0
  0
LINE
  5
212BE
  8
0
 10
82.390613888671169
 20
250.2436894615785
 30
0.0
 11
82.390613888671169
 21
179.74369001292141
 31
0.0
  0
LINE
  5
212BF
  8
0
 10
79.89061627285696
 20
250.2436894615785
 30
0.0
 11
79.89061627285696
 21
179.74369001292141
 31
0.0
  0
LINE
  5
212C0
  8
0
 10
129.8906156209311
 20
179.74369001292141
 30
0.0
 11
129.8906156209311
 21
250.2436894615785
 31
0.0
  0
LINE
  5
212C1
  8
0
 10
127.3906156768105
 20
179.74369001292141
 30
0.0
 11
127.3906156768105
 21
250.2436894615785
 31
0.0
  0
LINE
  5
212C2
  8
0
 10
127.3906156768105
 20
250.2436894615785
 30
0.0
 11
82.390613888671169
 21
250.2436894615785
 31
0.0
  0
LINE
  5
212C3
  8
0
 10
79.89061627285696
 20
253.9436896955267
 30
0.0
 11
129.8906156209311
 21
253.9436896955267
 31
0.0
  0
LINE
  5
212C4
  8
0
 10
129.8906156209311
 20
250.2436894615785
 30
0.0
 11
129.8906156209311
 21
253.9436896955267
 31
0.0
  0
LINE
  5
212C5
  8
0
 10
79.89061627285696
 20
253.9436896955267
 30
0.0
 11
79.89061627285696
 21
250.2436894615785
 31
0.0
  0
POLYLINE
  5
212C6
  8
0
 66
     1
 10
0.0
 20
0.0
 30
0.0
 70
   128
  0
VERTEX
  5
2732A
  8
0
 10
79.631194507052669
 20
193.35693639420421
 30
0.0
  0
VERTEX
  5
2732B
  8
0
 10
79.82153821485258
 20
194.2561916699305
 30
0.0
  0
VERTEX
  5
2732C
  8
0
 10
79.89061627285696
 20
195.1635680785075
 30
0.0
  0
SEQEND
  5
2732D
  8
0
  0
POLYLINE
  5
212C7
  8
0
 66
     1
 10
0.0
 20
0.0
 30
0.0
 70
   128
  0
VERTEX
  5
2732E
  8
0
 10
79.89061627285696
 20
189.74368792675881
 30
0.0
  0
VERTEX
  5
2732F
  8
0
 10
79.822141711880931
 20
191.5503121604815
 30
0.0
  0
VERTEX
  5
27330
  8
0
 10
79.631194507052669
 20
193.35693639420421
 30
0.0
  0
SEQEND
  5
27331
  8
0
  0
POLYLINE
  5
212C8
  8
0
 66
     1
 10
0.0
 20
0.0
 30
0.0
 70
   128
  0
VERTEX
  5
27332
  8
0
 10
79.631194507052669
 20
186.13043945931349
 30
0.0
  0
VERTEX
  5
27333
  8
0
 10
79.739961807896862
 20
187.03193735979951
 30
0.0
  0
VERTEX
  5
27334
  8
0
 10
79.89061627285696
 20
189.74368792675881
 30
0.0
  0
SEQEND
  5
27335
  8
0
  0
POLYLINE
  5
212C9
  8
0
 66
     1
 10
0.0
 20
0.0
 30
0.0
 70
   128
  0
VERTEX
  5
27336
  8
0
 10
79.89061627285696
 20
184.32381522559081
 30
0.0
  0
VERTEX
  5
27337
  8
0
 10
79.822141711880931
 20
185.22712361716179
 30
0.0
  0
VERTEX
  5
27338
  8
0
 10
79.631194507052669
 20
186.13043945931349
 30
0.0
  0
SEQEND
  5
27339
  8
0
  0
POLYLINE
  5
212CA
  8
0
 66
     1
 10
0.0
 20
0.0
 30
0.0
 70
   128
  0
VERTEX
  5
2733A
  8
0
 10
74.650034343173274
 20
186.13043945931349
 30
0.0
  0
VERTEX
  5
2733B
  8
0
 10
74.459694360663661
 20
185.23119163416769
 30
0.0
  0
VERTEX
  5
2733C
  8
0
 10
74.390616302659282
 20
184.32381522559081
 30
0.0
  0
SEQEND
  5
2733D
  8
0
  0
POLYLINE
  5
212CB
  8
0
 66
     1
 10
0.0
 20
0.0
 30
0.0
 70
   128
  0
VERTEX
  5
2733E
  8
0
 10
74.390616302659282
 20
189.74368792675881
 30
0.0
  0
VERTEX
  5
2733F
  8
0
 10
74.54127076761938
 20
187.03193735979951
 30
0.0
  0
VERTEX
  5
27340
  8
0
 10
74.650034343173274
 20
186.13043945931349
 30
0.0
  0
SEQEND
  5
27341
  8
0
  0
LINE
  5
212CC
  8
0
 10
74.650034343173274
 20
193.35693639420421
 30
0.0
 11
79.631194507052669
 21
193.35693639420421
 31
0.0
  0
POLYLINE
  5
212CD
  8
0
 66
     1
 10
0.0
 20
0.0
 30
0.0
 70
   128
  0
VERTEX
  5
27342
  8
0
 10
74.650034343173274
 20
193.35693639420421
 30
0.0
  0
VERTEX
  5
27343
  8
0
 10
74.459694360663661
 20
191.5584407439128
 30
0.0
  0
VERTEX
  5
27344
  8
0
 10
74.390616302659282
 20
189.74368792675881
 30
0.0
  0
SEQEND
  5
27345
  8
0
  0
LINE
  5
212CE
  8
0
 10
74.650034343173274
 20
186.13043945931349
 30
0.0
 11
79.631194507052669
 21
186.13043945931349
 31
0.0
  0
POLYLINE
  5
212CF
  8
0
 66
     1
 10
0.0
 20
0.0
 30
0.0
 70
   128
  0
VERTEX
  5
27346
  8
0
 10
74.390616302659282
 20
195.1635680785075
 30
0.0
  0
VERTEX
  5
27347
  8
0
 10
74.459090863635311
 20
194.26025223635591
 30
0.0
  0
VERTEX
  5
27348
  8
0
 10
74.650034343173274
 20
193.35693639420421
 30
0.0
  0
SEQEND
  5
27349
  8
0
  0
POLYLINE
  5
212D0
  8
0
 66
     1
 10
0.0
 20
0.0
 30
0.0
 70
   128
  0
VERTEX
  5
2734A
  8
0
 10
79.631194507052669
 20
182.51719099186809
 30
0.0
  0
VERTEX
  5
2734B
  8
0
 10
79.82153821485258
 20
183.41643881701381
 30
0.0
  0
VERTEX
  5
2734C
  8
0
 10
79.89061627285696
 20
184.32381522559081
 30
0.0
  0
SEQEND
  5
2734D
  8
0
  0
POLYLINE
  5
212D1
  8
0
 66
     1
 10
0.0
 20
0.0
 30
0.0
 70
   128
  0
VERTEX
  5
2734E
  8
0
 10
74.390616302659282
 20
184.32381522559081
 30
0.0
  0
VERTEX
  5
2734F
  8
0
 10
74.459090863635311
 20
183.42049938343911
 30
0.0
  0
VERTEX
  5
27350
  8
0
 10
74.650034343173274
 20
182.51719099186809
 30
0.0
  0
SEQEND
  5
27351
  8
0
  0
LINE
  5
212D2
  8
0
 10
74.650034343173274
 20
182.51719099186809
 30
0.0
 11
79.631194507052669
 21
182.51719099186809
 31
0.0
  0
POLYLINE
  5
212D3
  8
0
 66
     1
 10
0.0
 20
0.0
 30
0.0
 70
   128
  0
VERTEX
  5
27352
  8
0
 10
79.89061627285696
 20
195.1635680785075
 30
0.0
  0
VERTEX
  5
27353
  8
0
 10
79.822141711880931
 20
196.06687647007851
 30
0.0
  0
VERTEX
  5
27354
  8
0
 10
79.631194507052669
 20
196.97019231223021
 30
0.0
  0
SEQEND
  5
27355
  8
0
  0
LINE
  5
212D4
  8
0
 10
74.650034343173274
 20
196.97019231223021
 30
0.0
 11
79.631194507052669
 21
196.97019231223021
 31
0.0
  0
POLYLINE
  5
212D5
  8
0
 66
     1
 10
0.0
 20
0.0
 30
0.0
 70
   128
  0
VERTEX
  5
27356
  8
0
 10
74.650034343173274
 20
196.97019231223021
 30
0.0
  0
VERTEX
  5
27357
  8
0
 10
74.459694360663661
 20
196.07093703650389
 30
0.0
  0
VERTEX
  5
27358
  8
0
 10
74.390616302659282
 20
195.1635680785075
 30
0.0
  0
SEQEND
  5
27359
  8
0
  0
POLYLINE
  5
212D6
  8
0
 66
     1
 10
0.0
 20
0.0
 30
0.0
 70
   128
  0
VERTEX
  5
2735A
  8
0
 10
130.49061576584489
 20
189.74368792675881
 30
0.0
  0
VERTEX
  5
2735B
  8
0
 10
130.5590891626677
 20
191.5503121604815
 30
0.0
  0
VERTEX
  5
2735C
  8
0
 10
130.75003543617339
 20
193.35693639420421
 30
0.0
  0
SEQEND
  5
2735D
  8
0
  0
POLYLINE
  5
212D7
  8
0
 66
     1
 10
0.0
 20
0.0
 30
0.0
 70
   128
  0
VERTEX
  5
2735E
  8
0
 10
130.75003543617339
 20
193.35693639420421
 30
0.0
  0
VERTEX
  5
2735F
  8
0
 10
130.55969405667989
 20
194.2561916699305
 30
0.0
  0
VERTEX
  5
27360
  8
0
 10
130.49061576584489
 20
195.1635680785075
 30
0.0
  0
SEQEND
  5
27361
  8
0
  0
LINE
  5
212D8
  8
0
 10
130.75003543617339
 20
193.35693639420421
 30
0.0
 11
134.93119602771611
 21
193.35693639420421
 31
0.0
  0
POLYLINE
  5
212D9
  8
0
 66
     1
 10
0.0
 20
0.0
 30
0.0
 70
   128
  0
VERTEX
  5
27362
  8
0
 10
130.75003543617339
 20
186.13043945931349
 30
0.0
  0
VERTEX
  5
27363
  8
0
 10
130.6412697651437
 20
187.03193735979951
 30
0.0
  0
VERTEX
  5
27364
  8
0
 10
130.49061576584489
 20
189.74368792675881
 30
0.0
  0
SEQEND
  5
27365
  8
0
  0
LINE
  5
212DA
  8
0
 10
130.75003543617339
 20
186.13043945931349
 30
0.0
 11
134.93119602771611
 21
186.13043945931349
 31
0.0
  0
POLYLINE
  5
212DB
  8
0
 66
     1
 10
0.0
 20
0.0
 30
0.0
 70
   128
  0
VERTEX
  5
27366
  8
0
 10
135.19061546521399
 20
189.74368792675881
 30
0.0
  0
VERTEX
  5
27367
  8
0
 10
135.03996146591521
 20
187.03193735979951
 30
0.0
  0
VERTEX
  5
27368
  8
0
 10
134.93119602771611
 20
186.13043945931349
 30
0.0
  0
SEQEND
  5
27369
  8
0
  0
POLYLINE
  5
212DC
  8
0
 66
     1
 10
0.0
 20
0.0
 30
0.0
 70
   128
  0
VERTEX
  5
2736A
  8
0
 10
134.93119602771611
 20
193.35693639420421
 30
0.0
  0
VERTEX
  5
2736B
  8
0
 10
135.12153740720959
 20
191.5584407439128
 30
0.0
  0
VERTEX
  5
2736C
  8
0
 10
135.19061546521399
 20
189.74368792675881
 30
0.0
  0
SEQEND
  5
2736D
  8
0
  0
POLYLINE
  5
212DD
  8
0
 66
     1
 10
0.0
 20
0.0
 30
0.0
 70
   128
  0
VERTEX
  5
2736E
  8
0
 10
130.49061576584489
 20
184.32381522559081
 30
0.0
  0
VERTEX
  5
2736F
  8
0
 10
130.5590891626677
 20
185.22712361716179
 30
0.0
  0
VERTEX
  5
27370
  8
0
 10
130.75003543617339
 20
186.13043945931349
 30
0.0
  0
SEQEND
  5
27371
  8
0
  0
POLYLINE
  5
212DE
  8
0
 66
     1
 10
0.0
 20
0.0
 30
0.0
 70
   128
  0
VERTEX
  5
27372
  8
0
 10
130.75003543617339
 20
182.51719099186809
 30
0.0
  0
VERTEX
  5
27373
  8
0
 10
130.55969405667989
 20
183.41643881701381
 30
0.0
  0
VERTEX
  5
27374
  8
0
 10
130.49061576584489
 20
184.32381522559081
 30
0.0
  0
SEQEND
  5
27375
  8
0
  0
LINE
  5
212DF
  8
0
 10
130.75003543617339
 20
182.51719099186809
 30
0.0
 11
134.93119602771611
 21
182.51719099186809
 31
0.0
  0
POLYLINE
  5
212E0
  8
0
 66
     1
 10
0.0
 20
0.0
 30
0.0
 70
   128
  0
VERTEX
  5
27376
  8
0
 10
135.19061546521399
 20
184.32381522559081
 30
0.0
  0
VERTEX
  5
27377
  8
0
 10
135.1221423012218
 20
183.42049938343911
 30
0.0
  0
VERTEX
  5
27378
  8
0
 10
134.93119602771611
 20
182.51719099186809
 30
0.0
  0
SEQEND
  5
27379
  8
0
  0
POLYLINE
  5
212E1
  8
0
 66
     1
 10
0.0
 20
0.0
 30
0.0
 70
   128
  0
VERTEX
  5
2737A
  8
0
 10
134.93119602771611
 20
186.13043945931349
 30
0.0
  0
VERTEX
  5
2737B
  8
0
 10
135.12153740720959
 20
185.23119163416769
 30
0.0
  0
VERTEX
  5
2737C
  8
0
 10
135.19061546521399
 20
184.32381522559081
 30
0.0
  0
SEQEND
  5
2737D
  8
0
  0
LINE
  5
212E2
  8
0
 10
130.75003543617339
 20
196.97019231223021
 30
0.0
 11
134.93119602771611
 21
196.97019231223021
 31
0.0
  0
POLYLINE
  5
212E3
  8
0
 66
     1
 10
0.0
 20
0.0
 30
0.0
 70
   128
  0
VERTEX
  5
2737E
  8
0
 10
130.49061576584489
 20
195.1635680785075
 30
0.0
  0
VERTEX
  5
2737F
  8
0
 10
130.5590891626677
 20
196.06687647007851
 30
0.0
  0
VERTEX
  5
27380
  8
0
 10
130.75003543617339
 20
196.97019231223021
 30
0.0
  0
SEQEND
  5
27381
  8
0
  0
POLYLINE
  5
212E4
  8
0
 66
     1
 10
0.0
 20
0.0
 30
0.0
 70
   128
  0
VERTEX
  5
27382
  8
0
 10
135.19061546521399
 20
195.1635680785075
 30
0.0
  0
VERTEX
  5
27383
  8
0
 10
135.1221423012218
 20
194.26025223635591
 30
0.0
  0
VERTEX
  5
27384
  8
0
 10
134.93119602771611
 20
193.35693639420421
 30
0.0
  0
SEQEND
  5
27385
  8
0
  0
POLYLINE
  5
212E5
  8
0
 66
     1
 10
0.0
 20
0.0
 30
0.0
 70
   128
  0
VERTEX
  5
27386
  8
0
 10
134.93119602771611
 20
196.97019231223021
 30
0.0
  0
VERTEX
  5
27387
  8
0
 10
135.12153740720959
 20
196.07093703650389
 30
0.0
  0
VERTEX
  5
27388
  8
0
 10
135.19061546521399
 20
195.1635680785075
 30
0.0
  0
SEQEND
  5
27389
  8
0
  0
LINE
  5
212E6
  8
0
 10
71.890614961554775
 20
183.92868858479409
 30
0.0
 11
71.890614961554775
 21
195.55868726872359
 31
0.0
  0
LINE
  5
212E7
  8
0
 10
70.657614653279552
 20
185.7436872711078
 30
0.0
 11
70.657614653279779
 21
193.7436885824099
 31
0.0
  0
LINE
  5
212E8
  8
0
 10
69.890614633729228
 20
186.5106872906581
 30
0.0
 11
69.890614633729228
 21
192.97668856285961
 31
0.0
  0
LINE
  5
212E9
  8
0
 10
74.390616302659282
 20
183.48535668753539
 30
0.0
 11
74.390616302659282
 21
196.00201916598229
 31
0.0
  0
LINE
  5
212EA
  8
0
 10
130.49061576584489
 20
183.48535668753539
 30
0.0
 11
130.49061576584489
 21
196.00201916598229
 31
0.0
  0
LINE
  5
212EB
  8
0
 10
135.19061546521399
 20
183.48535668753539
 30
0.0
 11
135.19061546521399
 21
196.00201916598229
 31
0.0
  0
POLYLINE
  5
212EC
  8
0
 10
137.89061567681051
 20
208.71795020924034
 30
0.0
 66
     1
 70
     8
  0
VERTEX
  8
0
  5
273CA
 10
137.891
 20
208.718
 30
0.000000
  70
    32
  0
VERTEX
  8
0
  5
273CB
 10
137.890
 20
208.600
 30
0.000000
  70
    32
  0
VERTEX
  8
0
  5
273CC
 10
137.890
 20
208.482
 30
0.000000
  70
    32
  0
VERTEX
  8
0
  5
273CD
 10
137.889
 20
208.364
 30
0.000000
  70
    32
  0
VERTEX
  8
0
  5
273CE
 10
137.888
 20
208.247
 30
0.000000
  70
    32
  0
VERTEX
  8
0
  5
273CF
 10
137.886
 20
208.129
 30
0.000000
  70
    32
  0
VERTEX
  8
0
  5
273D0
 10
137.885
 20
208.011
 30
0.000000
  70
    32
  0
VERTEX
  8
0
  5
273D1
 10
137.882
 20
207.893
 30
0.000000
  70
    32
  0
VERTEX
  8
0
  5
273D2
 10
137.880
 20
207.775
 30
0.000000
  70
    32
  0
VERTEX
  8
0
  5
273D3
 10
137.877
 20
207.657
 30
0.000000
  70
    32
  0
VERTEX
  8
0
  5
273D4
 10
137.874
 20
207.540
 30
0.000000
  70
    32
  0
VERTEX
  8
0
  5
273D5
 10
137.870
 20
207.422
 30
0.000000
  70
    32
  0
VERTEX
  8
0
  5
273D6
 10
137.867
 20
207.304
 30
0.000000
  70
    32
  0
VERTEX
  8
0
  5
273D7
 10
137.862
 20
207.186
 30
0.000000
  70
    32
  0
VERTEX
  8
0
  5
273D8
 10
137.858
 20
207.068
 30
0.000000
  70
    32
  0
VERTEX
  8
0
  5
273D9
 10
137.853
 20
206.951
 30
0.000000
  70
    32
  0
VERTEX
  8
0
  5
273DA
 10
137.848
 20
206.833
 30
0.000000
  70
    32
  0
VERTEX
  8
0
  5
273DB
 10
137.842
 20
206.715
 30
0.000000
  70
    32
  0
VERTEX
  8
0
  5
273DC
 10
137.836
 20
206.598
 30
0.000000
  70
    32
  0
VERTEX
  8
0
  5
273DD
 10
137.830
 20
206.480
 30
0.000000
  70
    32
  0
VERTEX
  8
0
  5
273DE
 10
137.824
 20
206.362
 30
0.000000
  70
    32
  0
VERTEX
  8
0
  5
273DF
 10
137.817
 20
206.245
 30
0.000000
  70
    32
  0
VERTEX
  8
0
  5
273E0
 10
137.810
 20
206.127
 30
0.000000
  70
    32
  0
VERTEX
  8
0
  5
273E1
 10
137.802
 20
206.010
 30
0.000000
  70
    32
  0
VERTEX
  8
0
  5
273E2
 10
137.794
 20
205.892
 30
0.000000
  70
    32
  0
VERTEX
  8
0
  5
273E3
 10
137.786
 20
205.775
 30
0.000000
  70
    32
  0
VERTEX
  8
0
  5
273E4
 10
137.778
 20
205.657
 30
0.000000
  70
    32
  0
VERTEX
  8
0
  5
273E5
 10
137.769
 20
205.540
 30
0.000000
  70
    32
  0
VERTEX
  8
0
  5
273E6
 10
137.760
 20
205.422
 30
0.000000
  70
    32
  0
VERTEX
  8
0
  5
273E7
 10
137.750
 20
205.305
 30
0.000000
  70
    32
  0
VERTEX
  8
0
  5
273E8
 10
137.740
 20
205.188
 30
0.000000
  70
    32
  0
VERTEX
  8
0
  5
273E9
 10
137.730
 20
205.070
 30
0.000000
  70
    32
  0
VERTEX
  8
0
  5
273EA
 10
137.720
 20
204.953
 30
0.000000
  70
    32
  0
VERTEX
  8
0
  5
273EB
 10
137.709
 20
204.836
 30
0.000000
  70
    32
  0
VERTEX
  8
0
  5
273EC
 10
137.698
 20
204.719
 30
0.000000
  70
    32
  0
VERTEX
  8
0
  5
273ED
 10
137.686
 20
204.601
 30
0.000000
  70
    32
  0
VERTEX
  8
0
  5
273EE
 10
137.674
 20
204.484
 30
0.000000
  70
    32
  0
VERTEX
  8
0
  5
273EF
 10
137.662
 20
204.367
 30
0.000000
  70
    32
  0
VERTEX
  8
0
  5
273F0
 10
137.650
 20
204.250
 30
0.000000
  70
    32
  0
VERTEX
  8
0
  5
273F1
 10
137.637
 20
204.133
 30
0.000000
  70
    32
  0
VERTEX
  8
0
  5
273F2
 10
137.624
 20
204.016
 30
0.000000
  70
    32
  0
VERTEX
  8
0
  5
273F3
 10
137.610
 20
203.899
 30
0.000000
  70
    32
  0
VERTEX
  8
0
  5
273F4
 10
137.596
 20
203.783
 30
0.000000
  70
    32
  0
VERTEX
  8
0
  5
273F5
 10
137.582
 20
203.666
 30
0.000000
  70
    32
  0
VERTEX
  8
0
  5
273F6
 10
137.568
 20
203.549
 30
0.000000
  70
    32
  0
VERTEX
  8
0
  5
273F7
 10
137.553
 20
203.432
 30
0.000000
  70
    32
  0
VERTEX
  8
0
  5
273F8
 10
137.538
 20
203.316
 30
0.000000
  70
    32
  0
VERTEX
  8
0
  5
273F9
 10
137.522
 20
203.199
 30
0.000000
  70
    32
  0
VERTEX
  8
0
  5
273FA
 10
137.506
 20
203.083
 30
0.000000
  70
    32
  0
VERTEX
  8
0
  5
273FB
 10
137.490
 20
202.966
 30
0.000000
  70
    32
  0
VERTEX
  8
0
  5
273FC
 10
137.474
 20
202.850
 30
0.000000
  70
    32
  0
VERTEX
  8
0
  5
273FD
 10
137.457
 20
202.733
 30
0.000000
  70
    32
  0
VERTEX
  8
0
  5
273FE
 10
137.440
 20
202.617
 30
0.000000
  70
    32
  0
VERTEX
  8
0
  5
273FF
 10
137.422
 20
202.501
 30
0.000000
  70
    32
  0
VERTEX
  8
0
  5
27400
 10
137.405
 20
202.385
 30
0.000000
  70
    32
  0
VERTEX
  8
0
  5
27401
 10
137.386
 20
202.269
 30
0.000000
  70
    32
  0
VERTEX
  8
0
  5
27402
 10
137.368
 20
202.153
 30
0.000000
  70
    32
  0
VERTEX
  8
0
  5
27403
 10
137.349
 20
202.037
 30
0.000000
  70
    32
  0
VERTEX
  8
0
  5
27404
 10
137.330
 20
201.921
 30
0.000000
  70
    32
  0
VERTEX
  8
0
  5
27405
 10
137.311
 20
201.805
 30
0.000000
  70
    32
  0
VERTEX
  8
0
  5
27406
 10
137.291
 20
201.689
 30
0.000000
  70
    32
  0
VERTEX
  8
0
  5
27407
 10
137.271
 20
201.574
 30
0.000000
  70
    32
  0
VERTEX
  8
0
  5
27408
 10
137.250
 20
201.458
 30
0.000000
  70
    32
  0
VERTEX
  8
0
  5
27409
 10
137.230
 20
201.342
 30
0.000000
  70
    32
  0
VERTEX
  8
0
  5
2740A
 10
137.209
 20
201.227
 30
0.000000
  70
    32
  0
VERTEX
  8
0
  5
2740B
 10
137.187
 20
201.112
 30
0.000000
  70
    32
  0
VERTEX
  8
0
  5
2740C
 10
137.165
 20
200.996
 30
0.000000
  70
    32
  0
VERTEX
  8
0
  5
2740D
 10
137.143
 20
200.881
 30
0.000000
  70
    32
  0
VERTEX
  8
0
  5
2740E
 10
137.121
 20
200.766
 30
0.000000
  70
    32
  0
VERTEX
  8
0
  5
2740F
 10
137.098
 20
200.651
 30
0.000000
  70
    32
  0
VERTEX
  8
0
  5
27410
 10
137.075
 20
200.536
 30
0.000000
  70
    32
  0
VERTEX
  8
0
  5
27411
 10
137.052
 20
200.421
 30
0.000000
  70
    32
  0
VERTEX
  8
0
  5
27412
 10
137.028
 20
200.306
 30
0.000000
  70
    32
  0
VERTEX
  8
0
  5
27413
 10
137.004
 20
200.191
 30
0.000000
  70
    32
  0
VERTEX
  8
0
  5
27414
 10
136.980
 20
200.077
 30
0.000000
  70
    32
  0
VERTEX
  8
0
  5
27415
 10
136.955
 20
199.962
 30
0.000000
  70
    32
  0
VERTEX
  8
0
  5
27416
 10
136.930
 20
199.848
 30
0.000000
  70
    32
  0
VERTEX
  8
0
  5
27417
 10
136.905
 20
199.733
 30
0.000000
  70
    32
  0
VERTEX
  8
0
  5
27418
 10
136.879
 20
199.619
 30
0.000000
  70
    32
  0
VERTEX
  8
0
  5
27419
 10
136.853
 20
199.505
 30
0.000000
  70
    32
  0
VERTEX
  8
0
  5
2741A
 10
136.827
 20
199.391
 30
0.000000
  70
    32
  0
VERTEX
  8
0
  5
2741B
 10
136.800
 20
199.277
 30
0.000000
  70
    32
  0
VERTEX
  8
0
  5
2741C
 10
136.773
 20
199.163
 30
0.000000
  70
    32
  0
VERTEX
  8
0
  5
2741D
 10
136.746
 20
199.049
 30
0.000000
  70
    32
  0
VERTEX
  8
0
  5
2741E
 10
136.719
 20
198.935
 30
0.000000
  70
    32
  0
VERTEX
  8
0
  5
2741F
 10
136.691
 20
198.822
 30
0.000000
  70
    32
  0
VERTEX
  8
0
  5
27420
 10
136.662
 20
198.708
 30
0.000000
  70
    32
  0
VERTEX
  8
0
  5
27421
 10
136.634
 20
198.595
 30
0.000000
  70
    32
  0
VERTEX
  8
0
  5
27422
 10
136.605
 20
198.481
 30
0.000000
  70
    32
  0
VERTEX
  8
0
  5
27423
 10
136.576
 20
198.368
 30
0.000000
  70
    32
  0
VERTEX
  8
0
  5
27424
 10
136.546
 20
198.255
 30
0.000000
  70
    32
  0
VERTEX
  8
0
  5
27425
 10
136.517
 20
198.142
 30
0.000000
  70
    32
  0
VERTEX
  8
0
  5
27426
 10
136.486
 20
198.029
 30
0.000000
  70
    32
  0
VERTEX
  8
0
  5
27427
 10
136.456
 20
197.916
 30
0.000000
  70
    32
  0
VERTEX
  8
0
  5
27428
 10
136.425
 20
197.804
 30
0.000000
  70
    32
  0
VERTEX
  8
0
  5
27429
 10
136.394
 20
197.691
 30
0.000000
  70
    32
  0
VERTEX
  8
0
  5
2742A
 10
136.363
 20
197.579
 30
0.000000
  70
    32
  0
VERTEX
  8
0
  5
2742B
 10
136.331
 20
197.466
 30
0.000000
  70
    32
  0
VERTEX
  8
0
  5
2742C
 10
136.299
 20
197.354
 30
0.000000
  70
    32
  0
VERTEX
  8
0
  5
2742D
 10
136.266
 20
197.242
 30
0.000000
  70
    32
  0
VERTEX
  8
0
  5
2742E
 10
136.234
 20
197.130
 30
0.000000
  70
    32
  0
VERTEX
  8
0
  5
2742F
 10
136.201
 20
197.018
 30
0.000000
  70
    32
  0
VERTEX
  8
0
  5
27430
 10
136.167
 20
196.906
 30
0.000000
  70
    32
  0
VERTEX
  8
0
  5
27431
 10
136.134
 20
196.795
 30
0.000000
  70
    32
  0
VERTEX
  8
0
  5
27432
 10
136.100
 20
196.683
 30
0.000000
  70
    32
  0
VERTEX
  8
0
  5
27433
 10
136.065
 20
196.572
 30
0.000000
  70
    32
  0
VERTEX
  8
0
  5
27434
 10
136.031
 20
196.460
 30
0.000000
  70
    32
  0
VERTEX
  8
0
  5
27435
 10
135.996
 20
196.349
 30
0.000000
  70
    32
  0
VERTEX
  8
0
  5
27436
 10
135.961
 20
196.238
 30
0.000000
  70
    32
  0
VERTEX
  8
0
  5
27437
 10
135.925
 20
196.127
 30
0.000000
  70
    32
  0
VERTEX
  8
0
  5
27438
 10
135.889
 20
196.017
 30
0.000000
  70
    32
  0
VERTEX
  8
0
  5
27439
 10
135.853
 20
195.906
 30
0.000000
  70
    32
  0
VERTEX
  8
0
  5
2743A
 10
135.817
 20
195.795
 30
0.000000
  70
    32
  0
VERTEX
  8
0
  5
2743B
 10
135.780
 20
195.685
 30
0.000000
  70
    32
  0
VERTEX
  8
0
  5
2743C
 10
135.743
 20
195.575
 30
0.000000
  70
    32
  0
VERTEX
  8
0
  5
2743D
 10
135.705
 20
195.465
 30
0.000000
  70
    32
  0
VERTEX
  8
0
  5
2743E
 10
135.668
 20
195.355
 30
0.000000
  70
    32
  0
VERTEX
  8
0
  5
2743F
 10
135.630
 20
195.245
 30
0.000000
  70
    32
  0
VERTEX
  8
0
  5
27440
 10
135.591
 20
195.135
 30
0.000000
  70
    32
  0
VERTEX
  8
0
  5
27441
 10
135.553
 20
195.025
 30
0.000000
  70
    32
  0
VERTEX
  8
0
  5
27442
 10
135.514
 20
194.916
 30
0.000000
  70
    32
  0
VERTEX
  8
0
  5
27443
 10
135.474
 20
194.807
 30
0.000000
  70
    32
  0
VERTEX
  8
0
  5
27444
 10
135.435
 20
194.698
 30
0.000000
  70
    32
  0
VERTEX
  8
0
  5
27445
 10
135.395
 20
194.589
 30
0.000000
  70
    32
  0
VERTEX
  8
0
  5
27446
 10
135.355
 20
194.480
 30
0.000000
  70
    32
  0
VERTEX
  8
0
  5
27447
 10
135.314
 20
194.371
 30
0.000000
  70
    32
  0
VERTEX
  8
0
  5
27448
 10
135.273
 20
194.262
 30
0.000000
  70
    32
  0
VERTEX
  8
0
  5
27449
 10
135.232
 20
194.154
 30
0.000000
  70
    32
  0
VERTEX
  8
0
  5
2744A
 10
135.191
 20
194.046
 30
0.000000
  70
    32
  0
SEQEND
  8
0
  5
2744B
  0
POLYLINE
  5
212ED
  8
0
 10
82.390615676810967
 20
231.82787742222621
 30
0.0
 66
     1
 70
     8
  0
VERTEX
  8
0
  5
2744C
 10
82.3906
 20
231.828
 30
0.000000
  70
    32
  0
VERTEX
  8
0
  5
2744D
 10
82.6594
 20
232.153
 30
0.000000
  70
    32
  0
VERTEX
  8
0
  5
2744E
 10
82.9320
 20
232.475
 30
0.000000
  70
    32
  0
VERTEX
  8
0
  5
2744F
 10
83.2082
 20
232.792
 30
0.000000
  70
    32
  0
VERTEX
  8
0
  5
27450
 10
83.4881
 20
233.106
 30
0.000000
  70
    32
  0
VERTEX
  8
0
  5
27451
 10
83.7716
 20
233.415
 30
0.000000
  70
    32
  0
VERTEX
  8
0
  5
27452
 10
84.0586
 20
233.720
 30
0.000000
  70
    32
  0
VERTEX
  8
0
  5
27453
 10
84.3492
 20
234.021
 30
0.000000
  70
    32
  0
VERTEX
  8
0
  5
27454
 10
84.6432
 20
234.318
 30
0.000000
  70
    32
  0
VERTEX
  8
0
  5
27455
 10
84.9405
 20
234.610
 30
0.000000
  70
    32
  0
VERTEX
  8
0
  5
27456
 10
85.2413
 20
234.898
 30
0.000000
  70
    32
  0
VERTEX
  8
0
  5
27457
 10
85.5453
 20
235.182
 30
0.000000
  70
    32
  0
VERTEX
  8
0
  5
27458
 10
85.8526
 20
235.461
 30
0.000000
  70
    32
  0
VERTEX
  8
0
  5
27459
 10
86.1631
 20
235.736
 30
0.000000
  70
    32
  0
VERTEX
  8
0
  5
2745A
 10
86.4768
 20
236.006
 30
0.000000
  70
    32
  0
VERTEX
  8
0
  5
2745B
 10
86.7935
 20
236.272
 30
0.000000
  70
    32
  0
VERTEX
  8
0
  5
2745C
 10
87.1133
 20
236.533
 30
0.000000
  70
    32
  0
VERTEX
  8
0
  5
2745D
 10
87.4360
 20
236.789
 30
0.000000
  70
    32
  0
VERTEX
  8
0
  5
2745E
 10
87.7617
 20
237.041
 30
0.000000
  70
    32
  0
VERTEX
  8
0
  5
2745F
 10
88.0903
 20
237.287
 30
0.000000
  70
    32
  0
VERTEX
  8
0
  5
27460
 10
88.4217
 20
237.530
 30
0.000000
  70
    32
  0
VERTEX
  8
0
  5
27461
 10
88.7559
 20
237.767
 30
0.000000
  70
    32
  0
VERTEX
  8
0
  5
27462
 10
89.0928
 20
237.999
 30
0.000000
  70
    32
  0
VERTEX
  8
0
  5
27463
 10
89.4323
 20
238.226
 30
0.000000
  70
    32
  0
VERTEX
  8
0
  5
27464
 10
89.7744
 20
238.449
 30
0.000000
  70
    32
  0
VERTEX
  8
0
  5
27465
 10
90.1191
 20
238.666
 30
0.000000
  70
    32
  0
VERTEX
  8
0
  5
27466
 10
90.4662
 20
238.879
 30
0.000000
  70
    32
  0
VERTEX
  8
0
  5
27467
 10
90.8158
 20
239.086
 30
0.000000
  70
    32
  0
VERTEX
  8
0
  5
27468
 10
91.1678
 20
239.288
 30
0.000000
  70
    32
  0
VERTEX
  8
0
  5
27469
 10
91.5220
 20
239.485
 30
0.000000
  70
    32
  0
VERTEX
  8
0
  5
2746A
 10
91.8785
 20
239.677
 30
0.000000
  70
    32
  0
VERTEX
  8
0
  5
2746B
 10
92.2372
 20
239.864
 30
0.000000
  70
    32
  0
VERTEX
  8
0
  5
2746C
 10
92.5980
 20
240.045
 30
0.000000
  70
    32
  0
VERTEX
  8
0
  5
2746D
 10
92.9609
 20
240.222
 30
0.000000
  70
    32
  0
VERTEX
  8
0
  5
2746E
 10
93.3258
 20
240.392
 30
0.000000
  70
    32
  0
VERTEX
  8
0
  5
2746F
 10
93.6926
 20
240.558
 30
0.000000
  70
    32
  0
VERTEX
  8
0
  5
27470
 10
94.0613
 20
240.718
 30
0.000000
  70
    32
  0
VERTEX
  8
0
  5
27471
 10
94.4318
 20
240.873
 30
0.000000
  70
    32
  0
VERTEX
  8
0
  5
27472
 10
94.8041
 20
241.023
 30
0.000000
  70
    32
  0
VERTEX
  8
0
  5
27473
 10
95.1781
 20
241.167
 30
0.000000
  70
    32
  0
VERTEX
  8
0
  5
27474
 10
95.5537
 20
241.305
 30
0.000000
  70
    32
  0
VERTEX
  8
0
  5
27475
 10
95.9309
 20
241.438
 30
0.000000
  70
    32
  0
VERTEX
  8
0
  5
27476
 10
96.3095
 20
241.566
 30
0.000000
  70
    32
  0
VERTEX
  8
0
  5
27477
 10
96.6897
 20
241.688
 30
0.000000
  70
    32
  0
VERTEX
  8
0
  5
27478
 10
97.0712
 20
241.805
 30
0.000000
  70
    32
  0
VERTEX
  8
0
  5
27479
 10
97.4540
 20
241.916
 30
0.000000
  70
    32
  0
VERTEX
  8
0
  5
2747A
 10
97.8381
 20
242.021
 30
0.000000
  70
    32
  0
VERTEX
  8
0
  5
2747B
 10
98.2233
 20
242.121
 30
0.000000
  70
    32
  0
VERTEX
  8
0
  5
2747C
 10
98.6097
 20
242.215
 30
0.000000
  70
    32
  0
VERTEX
  8
0
  5
2747D
 10
98.9971
 20
242.304
 30
0.000000
  70
    32
  0
VERTEX
  8
0
  5
2747E
 10
99.3855
 20
242.386
 30
0.000000
  70
    32
  0
VERTEX
  8
0
  5
2747F
 10
99.7749
 20
242.464
 30
0.000000
  70
    32
  0
VERTEX
  8
0
  5
27480
 10
100.165
 20
242.535
 30
0.000000
  70
    32
  0
VERTEX
  8
0
  5
27481
 10
100.556
 20
242.601
 30
0.000000
  70
    32
  0
VERTEX
  8
0
  5
27482
 10
100.948
 20
242.661
 30
0.000000
  70
    32
  0
VERTEX
  8
0
  5
27483
 10
101.340
 20
242.716
 30
0.000000
  70
    32
  0
VERTEX
  8
0
  5
27484
 10
101.733
 20
242.765
 30
0.000000
  70
    32
  0
VERTEX
  8
0
  5
27485
 10
102.127
 20
242.808
 30
0.000000
  70
    32
  0
VERTEX
  8
0
  5
27486
 10
102.521
 20
242.845
 30
0.000000
  70
    32
  0
VERTEX
  8
0
  5
27487
 10
102.915
 20
242.877
 30
0.000000
  70
    32
  0
VERTEX
  8
0
  5
27488
 10
103.310
 20
242.903
 30
0.000000
  70
    32
  0
VERTEX
  8
0
  5
27489
 10
103.705
 20
242.923
 30
0.000000
  70
    32
  0
VERTEX
  8
0
  5
2748A
 10
104.100
 20
242.937
 30
0.000000
  70
    32
  0
VERTEX
  8
0
  5
2748B
 10
104.495
 20
242.946
 30
0.000000
  70
    32
  0
VERTEX
  8
0
  5
2748C
 10
104.891
 20
242.949
 30
0.000000
  70
    32
  0
VERTEX
  8
0
  5
2748D
 10
105.286
 20
242.946
 30
0.000000
  70
    32
  0
VERTEX
  8
0
  5
2748E
 10
105.681
 20
242.937
 30
0.000000
  70
    32
  0
VERTEX
  8
0
  5
2748F
 10
106.076
 20
242.923
 30
0.000000
  70
    32
  0
VERTEX
  8
0
  5
27490
 10
106.471
 20
242.903
 30
0.000000
  70
    32
  0
VERTEX
  8
0
  5
27491
 10
106.866
 20
242.877
 30
0.000000
  70
    32
  0
VERTEX
  8
0
  5
27492
 10
107.261
 20
242.845
 30
0.000000
  70
    32
  0
VERTEX
  8
0
  5
27493
 10
107.655
 20
242.808
 30
0.000000
  70
    32
  0
VERTEX
  8
0
  5
27494
 10
108.048
 20
242.765
 30
0.000000
  70
    32
  0
VERTEX
  8
0
  5
27495
 10
108.441
 20
242.716
 30
0.000000
  70
    32
  0
VERTEX
  8
0
  5
27496
 10
108.833
 20
242.661
 30
0.000000
  70
    32
  0
VERTEX
  8
0
  5
27497
 10
109.225
 20
242.601
 30
0.000000
  70
    32
  0
VERTEX
  8
0
  5
27498
 10
109.616
 20
242.535
 30
0.000000
  70
    32
  0
VERTEX
  8
0
  5
27499
 10
110.006
 20
242.464
 30
0.000000
  70
    32
  0
VERTEX
  8
0
  5
2749A
 10
110.396
 20
242.386
 30
0.000000
  70
    32
  0
VERTEX
  8
0
  5
2749B
 10
110.784
 20
242.304
 30
0.000000
  70
    32
  0
VERTEX
  8
0
  5
2749C
 10
111.172
 20
242.215
 30
0.000000
  70
    32
  0
VERTEX
  8
0
  5
2749D
 10
111.558
 20
242.121
 30
0.000000
  70
    32
  0
VERTEX
  8
0
  5
2749E
 10
111.943
 20
242.021
 30
0.000000
  70
    32
  0
VERTEX
  8
0
  5
2749F
 10
112.327
 20
241.916
 30
0.000000
  70
    32
  0
VERTEX
  8
0
  5
274A0
 10
112.710
 20
241.805
 30
0.000000
  70
    32
  0
VERTEX
  8
0
  5
274A1
 10
113.092
 20
241.688
 30
0.000000
  70
    32
  0
VERTEX
  8
0
  5
274A2
 10
113.472
 20
241.566
 30
0.000000
  70
    32
  0
VERTEX
  8
0
  5
274A3
 10
113.850
 20
241.438
 30
0.000000
  70
    32
  0
VERTEX
  8
0
  5
274A4
 10
114.228
 20
241.305
 30
0.000000
  70
    32
  0
VERTEX
  8
0
  5
274A5
 10
114.603
 20
241.167
 30
0.000000
  70
    32
  0
VERTEX
  8
0
  5
274A6
 10
114.977
 20
241.023
 30
0.000000
  70
    32
  0
VERTEX
  8
0
  5
274A7
 10
115.349
 20
240.873
 30
0.000000
  70
    32
  0
VERTEX
  8
0
  5
274A8
 10
115.720
 20
240.718
 30
0.000000
  70
    32
  0
VERTEX
  8
0
  5
274A9
 10
116.089
 20
240.558
 30
0.000000
  70
    32
  0
VERTEX
  8
0
  5
274AA
 10
116.455
 20
240.392
 30
0.000000
  70
    32
  0
VERTEX
  8
0
  5
274AB
 10
116.820
 20
240.222
 30
0.000000
  70
    32
  0
VERTEX
  8
0
  5
274AC
 10
117.183
 20
240.045
 30
0.000000
  70
    32
  0
VERTEX
  8
0
  5
274AD
 10
117.544
 20
239.864
 30
0.000000
  70
    32
  0
VERTEX
  8
0
  5
274AE
 10
117.903
 20
239.677
 30
0.000000
  70
    32
  0
VERTEX
  8
0
  5
274AF
 10
118.259
 20
239.485
 30
0.000000
  70
    32
  0
VERTEX
  8
0
  5
274B0
 10
118.613
 20
239.288
 30
0.000000
  70
    32
  0
VERTEX
  8
0
  5
274B1
 10
118.965
 20
239.086
 30
0.000000
  70
    32
  0
VERTEX
  8
0
  5
274B2
 10
119.315
 20
238.879
 30
0.000000
  70
    32
  0
VERTEX
  8
0
  5
274B3
 10
119.662
 20
238.666
 30
0.000000
  70
    32
  0
VERTEX
  8
0
  5
274B4
 10
120.007
 20
238.449
 30
0.000000
  70
    32
  0
VERTEX
  8
0
  5
274B5
 10
120.349
 20
238.226
 30
0.000000
  70
    32
  0
VERTEX
  8
0
  5
274B6
 10
120.688
 20
237.999
 30
0.000000
  70
    32
  0
VERTEX
  8
0
  5
274B7
 10
121.025
 20
237.767
 30
0.000000
  70
    32
  0
VERTEX
  8
0
  5
274B8
 10
121.360
 20
237.530
 30
0.000000
  70
    32
  0
VERTEX
  8
0
  5
274B9
 10
121.691
 20
237.287
 30
0.000000
  70
    32
  0
VERTEX
  8
0
  5
274BA
 10
122.019
 20
237.041
 30
0.000000
  70
    32
  0
VERTEX
  8
0
  5
274BB
 10
122.345
 20
236.789
 30
0.000000
  70
    32
  0
VERTEX
  8
0
  5
274BC
 10
122.668
 20
236.533
 30
0.000000
  70
    32
  0
VERTEX
  8
0
  5
274BD
 10
122.988
 20
236.272
 30
0.000000
  70
    32
  0
VERTEX
  8
0
  5
274BE
 10
123.304
 20
236.006
 30
0.000000
  70
    32
  0
VERTEX
  8
0
  5
274BF
 10
123.618
 20
235.736
 30
0.000000
  70
    32
  0
VERTEX
  8
0
  5
274C0
 10
123.929
 20
235.461
 30
0.000000
  70
    32
  0
VERTEX
  8
0
  5
274C1
 10
124.236
 20
235.182
 30
0.000000
  70
    32
  0
VERTEX
  8
0
  5
274C2
 10
124.540
 20
234.898
 30
0.000000
  70
    32
  0
VERTEX
  8
0
  5
274C3
 10
124.841
 20
234.610
 30
0.000000
  70
    32
  0
VERTEX
  8
0
  5
274C4
 10
125.138
 20
234.318
 30
0.000000
  70
    32
  0
VERTEX
  8
0
  5
274C5
 10
125.432
 20
234.021
 30
0.000000
  70
    32
  0
VERTEX
  8
0
  5
274C6
 10
125.723
 20
233.720
 30
0.000000
  70
    32
  0
VERTEX
  8
0
  5
274C7
 10
126.010
 20
233.415
 30
0.000000
  70
    32
  0
VERTEX
  8
0
  5
274C8
 10
126.293
 20
233.106
 30
0.000000
  70
    32
  0
VERTEX
  8
0
  5
274C9
 10
126.573
 20
232.792
 30
0.000000
  70
    32
  0
VERTEX
  8
0
  5
274CA
 10
126.849
 20
232.475
 30
0.000000
  70
    32
  0
VERTEX
  8
0
  5
274CB
 10
127.122
 20
232.153
 30
0.000000
  70
    32
  0
VERTEX
  8
0
  5
274CC
 10
127.391
 20
231.828
 30
0.000000
  70
    32
  0
SEQEND
  8
0
  5
274CD
  0
POLYLINE
  5
212EE
  8
0
 10
71.890613888671197
 20
208.71795020924031
 30
0.0
 66
     1
 70
     8
  0
VERTEX
  8
0
  5
274CE
 10
71.8906
 20
208.718
 30
0.000000
  70
    32
  0
VERTEX
  8
0
  5
274CF
 10
71.8907
 20
208.613
 30
0.000000
  70
    32
  0
VERTEX
  8
0
  5
274D0
 10
71.8911
 20
208.508
 30
0.000000
  70
    32
  0
VERTEX
  8
0
  5
274D1
 10
71.8918
 20
208.403
 30
0.000000
  70
    32
  0
VERTEX
  8
0
  5
274D2
 10
71.8927
 20
208.298
 30
0.000000
  70
    32
  0
VERTEX
  8
0
  5
274D3
 10
71.8939
 20
208.192
 30
0.000000
  70
    32
  0
VERTEX
  8
0
  5
274D4
 10
71.8954
 20
208.087
 30
0.000000
  70
    32
  0
VERTEX
  8
0
  5
274D5
 10
71.8971
 20
207.982
 30
0.000000
  70
    32
  0
VERTEX
  8
0
  5
274D6
 10
71.8991
 20
207.877
 30
0.000000
  70
    32
  0
VERTEX
  8
0
  5
274D7
 10
71.9014
 20
207.772
 30
0.000000
  70
    32
  0
VERTEX
  8
0
  5
274D8
 10
71.9039
 20
207.667
 30
0.000000
  70
    32
  0
VERTEX
  8
0
  5
274D9
 10
71.9067
 20
207.562
 30
0.000000
  70
    32
  0
VERTEX
  8
0
  5
274DA
 10
71.9097
 20
207.457
 30
0.000000
  70
    32
  0
VERTEX
  8
0
  5
274DB
 10
71.9131
 20
207.352
 30
0.000000
  70
    32
  0
VERTEX
  8
0
  5
274DC
 10
71.9167
 20
207.247
 30
0.000000
  70
    32
  0
VERTEX
  8
0
  5
274DD
 10
71.9205
 20
207.142
 30
0.000000
  70
    32
  0
VERTEX
  8
0
  5
274DE
 10
71.9246
 20
207.037
 30
0.000000
  70
    32
  0
VERTEX
  8
0
  5
274DF
 10
71.9290
 20
206.932
 30
0.000000
  70
    32
  0
VERTEX
  8
0
  5
274E0
 10
71.9337
 20
206.827
 30
0.000000
  70
    32
  0
VERTEX
  8
0
  5
274E1
 10
71.9386
 20
206.722
 30
0.000000
  70
    32
  0
VERTEX
  8
0
  5
274E2
 10
71.9438
 20
206.617
 30
0.000000
  70
    32
  0
VERTEX
  8
0
  5
274E3
 10
71.9492
 20
206.512
 30
0.000000
  70
    32
  0
VERTEX
  8
0
  5
274E4
 10
71.9549
 20
206.407
 30
0.000000
  70
    32
  0
VERTEX
  8
0
  5
274E5
 10
71.9609
 20
206.302
 30
0.000000
  70
    32
  0
VERTEX
  8
0
  5
274E6
 10
71.9671
 20
206.197
 30
0.000000
  70
    32
  0
VERTEX
  8
0
  5
274E7
 10
71.9736
 20
206.093
 30
0.000000
  70
    32
  0
VERTEX
  8
0
  5
274E8
 10
71.9804
 20
205.988
 30
0.000000
  70
    32
  0
VERTEX
  8
0
  5
274E9
 10
71.9874
 20
205.883
 30
0.000000
  70
    32
  0
VERTEX
  8
0
  5
274EA
 10
71.9947
 20
205.778
 30
0.000000
  70
    32
  0
VERTEX
  8
0
  5
274EB
 10
72.0023
 20
205.673
 30
0.000000
  70
    32
  0
VERTEX
  8
0
  5
274EC
 10
72.0101
 20
205.569
 30
0.000000
  70
    32
  0
VERTEX
  8
0
  5
274ED
 10
72.0182
 20
205.464
 30
0.000000
  70
    32
  0
VERTEX
  8
0
  5
274EE
 10
72.0266
 20
205.359
 30
0.000000
  70
    32
  0
VERTEX
  8
0
  5
274EF
 10
72.0352
 20
205.255
 30
0.000000
  70
    32
  0
VERTEX
  8
0
  5
274F0
 10
72.0441
 20
205.150
 30
0.000000
  70
    32
  0
VERTEX
  8
0
  5
274F1
 10
72.0533
 20
205.045
 30
0.000000
  70
    32
  0
VERTEX
  8
0
  5
274F2
 10
72.0627
 20
204.941
 30
0.000000
  70
    32
  0
VERTEX
  8
0
  5
274F3
 10
72.0724
 20
204.836
 30
0.000000
  70
    32
  0
VERTEX
  8
0
  5
274F4
 10
72.0823
 20
204.732
 30
0.000000
  70
    32
  0
VERTEX
  8
0
  5
274F5
 10
72.0925
 20
204.627
 30
0.000000
  70
    32
  0
VERTEX
  8
0
  5
274F6
 10
72.1030
 20
204.523
 30
0.000000
  70
    32
  0
VERTEX
  8
0
  5
274F7
 10
72.1137
 20
204.418
 30
0.000000
  70
    32
  0
VERTEX
  8
0
  5
274F8
 10
72.1247
 20
204.314
 30
0.000000
  70
    32
  0
VERTEX
  8
0
  5
274F9
 10
72.1360
 20
204.210
 30
0.000000
  70
    32
  0
VERTEX
  8
0
  5
274FA
 10
72.1475
 20
204.105
 30
0.000000
  70
    32
  0
VERTEX
  8
0
  5
274FB
 10
72.1593
 20
204.001
 30
0.000000
  70
    32
  0
VERTEX
  8
0
  5
274FC
 10
72.1714
 20
203.897
 30
0.000000
  70
    32
  0
VERTEX
  8
0
  5
274FD
 10
72.1837
 20
203.793
 30
0.000000
  70
    32
  0
VERTEX
  8
0
  5
274FE
 10
72.1963
 20
203.689
 30
0.000000
  70
    32
  0
VERTEX
  8
0
  5
274FF
 10
72.2091
 20
203.584
 30
0.000000
  70
    32
  0
VERTEX
  8
0
  5
27500
 10
72.2223
 20
203.480
 30
0.000000
  70
    32
  0
VERTEX
  8
0
  5
27501
 10
72.2356
 20
203.376
 30
0.000000
  70
    32
  0
VERTEX
  8
0
  5
27502
 10
72.2493
 20
203.272
 30
0.000000
  70
    32
  0
VERTEX
  8
0
  5
27503
 10
72.2632
 20
203.168
 30
0.000000
  70
    32
  0
VERTEX
  8
0
  5
27504
 10
72.2773
 20
203.065
 30
0.000000
  70
    32
  0
VERTEX
  8
0
  5
27505
 10
72.2918
 20
202.961
 30
0.000000
  70
    32
  0
VERTEX
  8
0
  5
27506
 10
72.3064
 20
202.857
 30
0.000000
  70
    32
  0
VERTEX
  8
0
  5
27507
 10
72.3214
 20
202.753
 30
0.000000
  70
    32
  0
VERTEX
  8
0
  5
27508
 10
72.3366
 20
202.649
 30
0.000000
  70
    32
  0
VERTEX
  8
0
  5
27509
 10
72.3521
 20
202.546
 30
0.000000
  70
    32
  0
VERTEX
  8
0
  5
2750A
 10
72.3678
 20
202.442
 30
0.000000
  70
    32
  0
VERTEX
  8
0
  5
2750B
 10
72.3838
 20
202.339
 30
0.000000
  70
    32
  0
VERTEX
  8
0
  5
2750C
 10
72.4001
 20
202.235
 30
0.000000
  70
    32
  0
VERTEX
  8
0
  5
2750D
 10
72.4166
 20
202.132
 30
0.000000
  70
    32
  0
VERTEX
  8
0
  5
2750E
 10
72.4334
 20
202.028
 30
0.000000
  70
    32
  0
VERTEX
  8
0
  5
2750F
 10
72.4504
 20
201.925
 30
0.000000
  70
    32
  0
VERTEX
  8
0
  5
27510
 10
72.4677
 20
201.822
 30
0.000000
  70
    32
  0
VERTEX
  8
0
  5
27511
 10
72.4853
 20
201.718
 30
0.000000
  70
    32
  0
VERTEX
  8
0
  5
27512
 10
72.5031
 20
201.615
 30
0.000000
  70
    32
  0
VERTEX
  8
0
  5
27513
 10
72.5212
 20
201.512
 30
0.000000
  70
    32
  0
VERTEX
  8
0
  5
27514
 10
72.5396
 20
201.409
 30
0.000000
  70
    32
  0
VERTEX
  8
0
  5
27515
 10
72.5582
 20
201.306
 30
0.000000
  70
    32
  0
VERTEX
  8
0
  5
27516
 10
72.5771
 20
201.203
 30
0.000000
  70
    32
  0
VERTEX
  8
0
  5
27517
 10
72.5962
 20
201.100
 30
0.000000
  70
    32
  0
VERTEX
  8
0
  5
27518
 10
72.6156
 20
200.997
 30
0.000000
  70
    32
  0
VERTEX
  8
0
  5
27519
 10
72.6352
 20
200.895
 30
0.000000
  70
    32
  0
VERTEX
  8
0
  5
2751A
 10
72.6551
 20
200.792
 30
0.000000
  70
    32
  0
VERTEX
  8
0
  5
2751B
 10
72.6753
 20
200.689
 30
0.000000
  70
    32
  0
VERTEX
  8
0
  5
2751C
 10
72.6957
 20
200.587
 30
0.000000
  70
    32
  0
VERTEX
  8
0
  5
2751D
 10
72.7164
 20
200.484
 30
0.000000
  70
    32
  0
VERTEX
  8
0
  5
2751E
 10
72.7374
 20
200.382
 30
0.000000
  70
    32
  0
VERTEX
  8
0
  5
2751F
 10
72.7586
 20
200.279
 30
0.000000
  70
    32
  0
VERTEX
  8
0
  5
27520
 10
72.7801
 20
200.177
 30
0.000000
  70
    32
  0
VERTEX
  8
0
  5
27521
 10
72.8018
 20
200.075
 30
0.000000
  70
    32
  0
VERTEX
  8
0
  5
27522
 10
72.8238
 20
199.973
 30
0.000000
  70
    32
  0
VERTEX
  8
0
  5
27523
 10
72.8460
 20
199.871
 30
0.000000
  70
    32
  0
VERTEX
  8
0
  5
27524
 10
72.8685
 20
199.769
 30
0.000000
  70
    32
  0
VERTEX
  8
0
  5
27525
 10
72.8913
 20
199.667
 30
0.000000
  70
    32
  0
VERTEX
  8
0
  5
27526
 10
72.9143
 20
199.565
 30
0.000000
  70
    32
  0
VERTEX
  8
0
  5
27527
 10
72.9376
 20
199.463
 30
0.000000
  70
    32
  0
VERTEX
  8
0
  5
27528
 10
72.9611
 20
199.361
 30
0.000000
  70
    32
  0
VERTEX
  8
0
  5
27529
 10
72.9849
 20
199.260
 30
0.000000
  70
    32
  0
VERTEX
  8
0
  5
2752A
 10
73.0089
 20
199.158
 30
0.000000
  70
    32
  0
VERTEX
  8
0
  5
2752B
 10
73.0332
 20
199.056
 30
0.000000
  70
    32
  0
VERTEX
  8
0
  5
2752C
 10
73.0578
 20
198.955
 30
0.000000
  70
    32
  0
VERTEX
  8
0
  5
2752D
 10
73.0826
 20
198.854
 30
0.000000
  70
    32
  0
VERTEX
  8
0
  5
2752E
 10
73.1077
 20
198.752
 30
0.000000
  70
    32
  0
VERTEX
  8
0
  5
2752F
 10
73.1330
 20
198.651
 30
0.000000
  70
    32
  0
VERTEX
  8
0
  5
27530
 10
73.1586
 20
198.550
 30
0.000000
  70
    32
  0
VERTEX
  8
0
  5
27531
 10
73.1844
 20
198.449
 30
0.000000
  70
    32
  0
VERTEX
  8
0
  5
27532
 10
73.2105
 20
198.348
 30
0.000000
  70
    32
  0
VERTEX
  8
0
  5
27533
 10
73.2368
 20
198.247
 30
0.000000
  70
    32
  0
VERTEX
  8
0
  5
27534
 10
73.2635
 20
198.147
 30
0.000000
  70
    32
  0
VERTEX
  8
0
  5
27535
 10
73.2903
 20
198.046
 30
0.000000
  70
    32
  0
VERTEX
  8
0
  5
27536
 10
73.3174
 20
197.945
 30
0.000000
  70
    32
  0
VERTEX
  8
0
  5
27537
 10
73.3448
 20
197.845
 30
0.000000
  70
    32
  0
VERTEX
  8
0
  5
27538
 10
73.3724
 20
197.744
 30
0.000000
  70
    32
  0
VERTEX
  8
0
  5
27539
 10
73.4003
 20
197.644
 30
0.000000
  70
    32
  0
VERTEX
  8
0
  5
2753A
 10
73.4284
 20
197.544
 30
0.000000
  70
    32
  0
VERTEX
  8
0
  5
2753B
 10
73.4568
 20
197.444
 30
0.000000
  70
    32
  0
VERTEX
  8
0
  5
2753C
 10
73.4854
 20
197.343
 30
0.000000
  70
    32
  0
VERTEX
  8
0
  5
2753D
 10
73.5143
 20
197.244
 30
0.000000
  70
    32
  0
VERTEX
  8
0
  5
2753E
 10
73.5435
 20
197.144
 30
0.000000
  70
    32
  0
VERTEX
  8
0
  5
2753F
 10
73.5728
 20
197.044
 30
0.000000
  70
    32
  0
VERTEX
  8
0
  5
27540
 10
73.6025
 20
196.944
 30
0.000000
  70
    32
  0
VERTEX
  8
0
  5
27541
 10
73.6324
 20
196.845
 30
0.000000
  70
    32
  0
VERTEX
  8
0
  5
27542
 10
73.6625
 20
196.745
 30
0.000000
  70
    32
  0
VERTEX
  8
0
  5
27543
 10
73.6929
 20
196.646
 30
0.000000
  70
    32
  0
VERTEX
  8
0
  5
27544
 10
73.7236
 20
196.546
 30
0.000000
  70
    32
  0
VERTEX
  8
0
  5
27545
 10
73.7545
 20
196.447
 30
0.000000
  70
    32
  0
VERTEX
  8
0
  5
27546
 10
73.7856
 20
196.348
 30
0.000000
  70
    32
  0
VERTEX
  8
0
  5
27547
 10
73.8170
 20
196.249
 30
0.000000
  70
    32
  0
VERTEX
  8
0
  5
27548
 10
73.8487
 20
196.150
 30
0.000000
  70
    32
  0
VERTEX
  8
0
  5
27549
 10
73.8806
 20
196.051
 30
0.000000
  70
    32
  0
VERTEX
  8
0
  5
2754A
 10
73.9128
 20
195.953
 30
0.000000
  70
    32
  0
VERTEX
  8
0
  5
2754B
 10
73.9452
 20
195.854
 30
0.000000
  70
    32
  0
VERTEX
  8
0
  5
2754C
 10
73.9778
 20
195.755
 30
0.000000
  70
    32
  0
VERTEX
  8
0
  5
2754D
 10
74.0107
 20
195.657
 30
0.000000
  70
    32
  0
VERTEX
  8
0
  5
2754E
 10
74.0439
 20
195.559
 30
0.000000
  70
    32
  0
SEQEND
  8
0
  5
2754F
  0
LINE
  5
212EF
  8
3
 10
69.890614633729228
 20
192.97668856285961
 30
0.0
 11
71.890614961554775
 21
192.9766885628587
 31
0.0
  0
LINE
  5
212F2
  8
3
 10
69.890614633729228
 20
186.5106888999799
 30
0.0
 11
71.890614961554775
 21
186.51068889998081
 31
0.0
  0
LINE
  5
212F3
  8
3
 10
567.91401733436601
 20
192.97668856285961
 30
0.0
 11
565.91401700654046
 21
192.9766885628587
 31
0.0
  0
LINE
  5
212F4
  8
3
 10
567.91401733436601
 20
186.5106888999799
 30
0.0
 11
565.91401700654046
 21
186.51068889998081
 31
0.0
  0
LINE
  5
213DC
  8
0
 10
313.08731598404762
 20
352.38045729116402
 30
0.0
 11
313.08731598404762
 21
352.98045729116348
 31
0.0
  0
LINE
  5
213DD
  8
0
 10
314.90231598404762
 20
410.98045729116348
 30
0.0
 11
314.90231598404762
 21
412.21345729116359
 31
0.0
  0
LINE
  5
213DE
  8
0
 10
314.90231598404762
 20
412.21345729116359
 30
0.0
 11
315.02660560567119
 21
412.33774691278722
 31
0.0
  0
LINE
  5
213DF
  8
0
 10
313.08731598404762
 20
408.48045729116342
 30
0.0
 11
313.08731598404762
 21
410.98045729116348
 31
0.0
  0
LINE
  5
213E0
  8
0
 10
314.90231598404762
 20
412.21345729116359
 30
0.0
 11
315.42603014971911
 21
412.21345729116359
 31
0.0
  0
LINE
  5
213E1
  8
0
 10
312.64398265071418
 20
347.68045729116329
 30
0.0
 11
318.54552377974068
 21
347.68045729116329
 31
0.0
  0
LINE
  5
213E2
  8
0
 10
312.64398265071418
 20
352.38045729116402
 30
0.0
 11
320.11373931945968
 21
352.38045729116402
 31
0.0
  0
LINE
  5
213E3
  8
0
 10
312.64398265071418
 20
347.68045729116329
 30
0.0
 11
312.64398265071418
 21
352.38045729116402
 31
0.0
  0
POLYLINE
  5
213E4
  8
0
 66
     1
 10
0.0
 20
0.0
 30
0.0
  0
VERTEX
  5
2738A
  8
0
 10
320.08216904840992
 20
352.27529562428123
 30
0.0
  0
VERTEX
  5
2738B
  8
0
 10
319.89291046617359
 20
352.25463557575313
 30
0.0
  0
VERTEX
  5
2738C
  8
0
 10
319.50652696784118
 20
352.20741155079401
 30
0.0
  0
VERTEX
  5
2738D
  8
0
 10
319.10746833845877
 20
352.15198165000038
 30
0.0
  0
VERTEX
  5
2738E
  8
0
 10
318.90231598404762
 20
352.12103758174823
 30
0.0
  0
SEQEND
  5
2738F
  8
0
  0
POLYLINE
  5
213E5
  8
0
 66
     1
 10
0.0
 20
0.0
 30
0.0
  0
VERTEX
  5
27390
  8
0
 10
315.77314931738101
 20
352.38045729116402
 30
0.0
  0
VERTEX
  5
27391
  8
0
 10
315.27071156546549
 20
352.37326715754352
 30
0.0
  0
VERTEX
  5
27392
  8
0
 10
314.26195102155322
 20
352.31649257375921
 30
0.0
  0
VERTEX
  5
27393
  8
0
 10
313.20616112882908
 20
352.20188223500651
 30
0.0
  0
VERTEX
  5
27394
  8
0
 10
312.64398265071418
 20
352.12103758174823
 30
0.0
  0
SEQEND
  5
27395
  8
0
  0
POLYLINE
  5
213E6
  8
0
 66
     1
 10
0.0
 20
0.0
 30
0.0
  0
VERTEX
  5
27396
  8
0
 10
312.64398265071418
 20
347.93987700057909
 30
0.0
  0
VERTEX
  5
27397
  8
0
 10
313.20616112882908
 20
347.85903234732092
 30
0.0
  0
VERTEX
  5
27398
  8
0
 10
314.26195102155322
 20
347.74442200856811
 30
0.0
  0
VERTEX
  5
27399
  8
0
 10
315.27071156546549
 20
347.68764742478379
 30
0.0
  0
VERTEX
  5
2739A
  8
0
 10
315.77314931738101
 20
347.68045729116329
 30
0.0
  0
SEQEND
  5
2739B
  8
0
  0
POLYLINE
  5
213E7
  8
0
 66
     1
 10
0.0
 20
0.0
 30
0.0
  0
VERTEX
  5
2739C
  8
0
 10
315.77314931738101
 20
347.68045729116329
 30
0.0
  0
VERTEX
  5
2739D
  8
0
 10
316.23279453235591
 20
347.68647691280148
 30
0.0
  0
VERTEX
  5
2739E
  8
0
 10
317.15354912658557
 20
347.733991910719
 30
0.0
  0
VERTEX
  5
2739F
  8
0
 10
318.10816143238662
 20
347.82946272087969
 30
0.0
  0
VERTEX
  5
273A0
  8
0
 10
318.61061548403183
 20
347.89636522557072
 30
0.0
  0
SEQEND
  5
273A1
  8
0
  0
LINE
  5
213E8
  8
0
 10
318.90231598404762
 20
348.7502078204061
 30
0.0
 11
318.90231598404762
 21
352.12103758174823
 31
0.0
  0
POLYLINE
  5
213E9
  8
0
 66
     1
 10
0.0
 20
0.0
 30
0.0
  0
VERTEX
  5
273A2
  8
0
 10
318.90231598404762
 20
352.12103758174823
 30
0.0
  0
VERTEX
  5
273A3
  8
0
 10
318.34013750593272
 20
352.20188223500651
 30
0.0
  0
VERTEX
  5
273A4
  8
0
 10
317.28434761320892
 20
352.31649257375921
 30
0.0
  0
VERTEX
  5
273A5
  8
0
 10
316.27558706929648
 20
352.37326715754352
 30
0.0
  0
VERTEX
  5
273A6
  8
0
 10
315.77314931738101
 20
352.38045729116402
 30
0.0
  0
SEQEND
  5
273A7
  8
0
  0
LINE
  5
213EA
  8
0
 10
313.08731598404762
 20
410.98045729116348
 30
0.0
 11
317.25591306585261
 21
410.98045729116348
 31
0.0
  0
LINE
  5
213EB
  8
0
 10
312.64398265071418
 20
408.48045729116342
 30
0.0
 11
318.4786592560647
 21
408.48045729116342
 31
0.0
  0
LINE
  5
213EC
  8
0
 10
312.64398265071418
 20
402.98045729116342
 30
0.0
 11
312.64398265071418
 21
408.48045729116342
 31
0.0
  0
POLYLINE
  5
213ED
  8
0
 66
     1
 10
0.0
 20
0.0
 30
0.0
  0
VERTEX
  5
273A8
  8
0
 10
318.90231598404762
 20
403.23987700057933
 30
0.0
  0
VERTEX
  5
273A9
  8
0
 10
319.14470278787257
 20
403.20349002792489
 30
0.0
  0
VERTEX
  5
273AA
  8
0
 10
319.6140868417956
 20
403.13969732945861
 30
0.0
  0
VERTEX
  5
273AB
  8
0
 10
320.06673532920649
 20
403.08724072251511
 30
0.0
  0
VERTEX
  5
273AC
  8
0
 10
320.28811248869351
 20
403.0650748253147
 30
0.0
  0
SEQEND
  5
273AD
  8
0
  0
POLYLINE
  5
213EE
  8
0
 66
     1
 10
0.0
 20
0.0
 30
0.0
  0
VERTEX
  5
273AE
  8
0
 10
315.77314931738101
 20
408.48045729116342
 30
0.0
  0
VERTEX
  5
273AF
  8
0
 10
315.27071156546549
 20
408.47326715754377
 30
0.0
  0
VERTEX
  5
273B0
  8
0
 10
314.26195102155322
 20
408.41649257375951
 30
0.0
  0
VERTEX
  5
273B1
  8
0
 10
313.20616112882908
 20
408.30188223500591
 30
0.0
  0
VERTEX
  5
273B2
  8
0
 10
312.64398265071418
 20
408.22103758174848
 30
0.0
  0
SEQEND
  5
273B3
  8
0
  0
POLYLINE
  5
213EF
  8
0
 66
     1
 10
0.0
 20
0.0
 30
0.0
  0
VERTEX
  5
273B4
  8
0
 10
312.64398265071418
 20
403.23987700057933
 30
0.0
  0
VERTEX
  5
273B5
  8
0
 10
313.20616112881379
 20
403.15903234732292
 30
0.0
  0
VERTEX
  5
273B6
  8
0
 10
314.26195102151019
 20
403.04442200857193
 30
0.0
  0
VERTEX
  5
273B7
  8
0
 10
315.27071156539529
 20
402.98764742478568
 30
0.0
  0
VERTEX
  5
273B8
  8
0
 10
315.7731493172962
 20
402.98045729116342
 30
0.0
  0
SEQEND
  5
273B9
  8
0
  0
POLYLINE
  5
213F0
  8
0
 66
     1
 10
0.0
 20
0.0
 30
0.0
  0
VERTEX
  5
273BA
  8
0
 10
315.77314931738101
 20
402.98045729116342
 30
0.0
  0
VERTEX
  5
273BB
  8
0
 10
316.27558706929648
 20
402.98764742478392
 30
0.0
  0
VERTEX
  5
273BC
  8
0
 10
317.28434761320892
 20
403.04442200856829
 30
0.0
  0
VERTEX
  5
273BD
  8
0
 10
318.34013750593272
 20
403.15903234732099
 30
0.0
  0
VERTEX
  5
273BE
  8
0
 10
318.90231598404762
 20
403.23987700057933
 30
0.0
  0
SEQEND
  5
273BF
  8
0
  0
LINE
  5
213F1
  8
0
 10
318.90231598404762
 20
403.23987700057933
 30
0.0
 11
318.90231598404762
 21
407.2107067619217
 31
0.0
  0
POLYLINE
  5
213F2
  8
0
 66
     1
 10
0.0
 20
0.0
 30
0.0
  0
VERTEX
  5
273C0
  8
0
 10
318.54007789630532
 20
408.27457250810579
 30
0.0
  0
VERTEX
  5
273C1
  8
0
 10
318.05174930222142
 20
408.3382871828361
 30
0.0
  0
VERTEX
  5
273C2
  8
0
 10
317.12148724608909
 20
408.42934431043699
 30
0.0
  0
VERTEX
  5
273C3
  8
0
 10
316.22226928207618
 20
408.47470973004511
 30
0.0
  0
VERTEX
  5
273C4
  8
0
 10
315.77314931738101
 20
408.48045729116342
 30
0.0
  0
SEQEND
  5
273C5
  8
0
  0
LINE
  5
213F3
  8
0
 10
303.90231598404762
 20
344.48045729116348
 30
0.0
 11
303.90231598404762
 21
411.48045729116342
 31
0.0
  0
ARC
  5
213F4
  8
0
 10
312.90231598404762
 20
344.48045729116348
 30
0.0
 40
8.9999999999999911
 50
180.0
 51
270.0
  0
LINE
  5
213F5
  8
0
 10
394.90231598404762
 20
335.48045729116348
 30
0.0
 11
312.90231598404762
 21
335.48045729116348
 31
0.0
  0
ARC
  5
213F6
  8
0
 10
394.90231598404762
 20
344.48045729116348
 30
0.0
 40
9.0000000000000142
 50
270.0
 51
0.0
  0
LINE
  5
213F7
  8
0
 10
403.90231598404762
 20
411.48045729116342
 30
0.0
 11
403.90231598404762
 21
344.48045729116348
 31
0.0
  0
ARC
  5
213F8
  8
0
 10
394.90231598404762
 20
411.48045729116342
 30
0.0
 40
9.0
 50
0.0
 51
90.0
  0
LINE
  5
213F9
  8
0
 10
312.90231598404762
 20
420.48045729116342
 30
0.0
 11
394.90231598404762
 21
420.48045729116342
 31
0.0
  0
ARC
  5
213FA
  8
0
 10
312.90231598404762
 20
411.48045729116342
 30
0.0
 40
8.9999999999999947
 50
90.0
 51
180.0
  0
LINE
  5
213FB
  8
0
 10
398.17139082527501
 20
406.55743234408777
 30
0.0
 11
395.67139082527501
 21
399.05743234408789
 31
0.0
  0
ARC
  5
213FC
  8
0
 10
391.40231598404762
 20
400.48045729116342
 30
0.0
 40
4.499999999999968
 50
161.56505117713979
 51
341.56505117713982
  0
LINE
  5
213FD
  8
0
 10
387.13324114282022
 20
401.90348223823912
 30
0.0
 11
389.63324114282022
 21
409.40348223823912
 31
0.0
  0
ARC
  5
213FE
  8
0
 10
393.90231598404762
 20
407.98045729116342
 30
0.0
 40
4.499999999999968
 50
341.56505117713982
 51
161.56505117713979
  0
LINE
  5
213FF
  8
0
 10
389.63324114282022
 20
346.55743234408777
 30
0.0
 11
387.13324114282022
 21
354.05743234408777
 31
0.0
  0
ARC
  5
21400
  8
0
 10
391.40231598404762
 20
355.48045729116348
 30
0.0
 40
4.4999999999999938
 50
18.434948822860211
 51
198.43494882286021
  0
LINE
  5
21401
  8
0
 10
395.67139082527501
 20
356.90348223823912
 30
0.0
 11
398.17139082527501
 21
349.40348223823912
 31
0.0
  0
ARC
  5
21402
  8
0
 10
393.90231598404762
 20
347.98045729116348
 30
0.0
 40
4.4999999999999929
 50
198.43494882286021
 51
18.434948822860211
  0
LINE
  5
21403
  8
0
 10
312.13324114282022
 20
399.05743234408789
 30
0.0
 11
309.63324114282022
 21
406.55743234408777
 31
0.0
  0
ARC
  5
21404
  8
0
 10
313.90231598404762
 20
407.98045729116342
 30
0.0
 40
4.4999999999999956
 50
18.434948822860211
 51
198.43494882286021
  0
LINE
  5
21405
  8
0
 10
318.17139082527501
 20
409.40348223823912
 30
0.0
 11
320.67139082527501
 21
401.90348223823912
 31
0.0
  0
ARC
  5
21406
  8
0
 10
316.40231598404762
 20
400.48045729116342
 30
0.0
 40
4.4999999999999956
 50
198.43494882286021
 51
18.434948822860211
  0
LINE
  5
21407
  8
0
 10
320.67139082527501
 20
354.05743234408777
 30
0.0
 11
318.17139082527501
 21
346.55743234408777
 31
0.0
  0
ARC
  5
21408
  8
0
 10
313.90231598404762
 20
347.98045729116348
 30
0.0
 40
4.5
 50
161.56505117713979
 51
341.56505117713982
  0
LINE
  5
21409
  8
0
 10
309.63324114282022
 20
349.40348223823912
 30
0.0
 11
312.13324114282022
 21
356.90348223823912
 31
0.0
  0
ARC
  5
2140A
  8
0
 10
316.40231598404762
 20
355.48045729116348
 30
0.0
 40
4.4999999999999956
 50
341.56505117713982
 51
161.56505117713979
  0
LINE
  5
2140B
  8
0
 10
320.31239914096682
 20
352.98045729116348
 30
0.0
 11
310.82556616046168
 21
352.98045729116348
 31
0.0
  0
LINE
  5
2140C
  8
0
 10
320.31239914096682
 20
402.98045729116342
 30
0.0
 11
310.82556616046168
 21
402.98045729116342
 31
0.0
  0
LINE
  5
2140D
  8
0
 10
310.90231598404762
 20
352.98045729116348
 30
0.0
 11
310.90231598404762
 21
353.21070676192181
 31
0.0
  0
LINE
  5
2140E
  8
0
 10
310.90231598404762
 20
402.7502078204061
 30
0.0
 11
310.90231598404762
 21
402.98045729116342
 31
0.0
  0
LINE
  5
21411
  8
0
 10
310.90231598404762
 20
402.88045729116391
 30
0.0
 11
310.85889949379498
 21
402.88045729116391
 31
0.0
  0
LINE
  5
21412
  8
0
 10
310.90231598404762
 20
353.08045729116378
 30
0.0
 11
310.85889949379498
 21
353.08045729116378
 31
0.0
  0
LINE
  5
21414
  8
0
 10
318.90231598404762
 20
182.51718786206399
 30
0.0
 11
325.16064931738077
 21
186.1304382967428
 31
0.0
  0
LINE
  5
21415
  8
0
 10
312.64398265071418
 20
186.1304382967428
 30
0.0
 11
318.90231598404762
 21
182.51718786206399
 31
0.0
  0
LINE
  5
21416
  8
0
 10
312.64398265071418
 20
193.35693916609941
 30
0.0
 11
312.64398265071418
 21
186.1304382967428
 31
0.0
  0
LINE
  5
21417
  8
0
 10
325.16064931738077
 20
193.35693916609941
 30
0.0
 11
318.90231598404762
 21
196.97018960077821
 31
0.0
  0
LINE
  5
21418
  8
0
 10
318.90231598404762
 20
196.97018960077821
 30
0.0
 11
312.64398265071418
 21
193.35693916609941
 31
0.0
  0
LINE
  5
21419
  8
0
 10
325.16064931738077
 20
186.1304382967428
 30
0.0
 11
325.16064931738077
 21
193.35693916609941
 31
0.0
  0
CIRCLE
  5
2141A
  8
0
 10
318.90231598404762
 20
189.74368873142151
 30
0.0
 40
6.2583333333333311
  0
LINE
  5
2141B
  8
0
 10
388.70231598404757
 20
264.44368873142139
 30
0.0
 11
388.70231598404757
 21
265.24368873142163
 31
0.0
  0
LINE
  5
2141C
  8
0
 10
319.10231598404772
 20
265.24368873142163
 30
0.0
 11
319.10231598404772
 21
264.44368873142139
 31
0.0
  0
LINE
  5
2141D
  8
0
 10
388.40353664802569
 20
255.94368873142139
 30
0.0
 11
389.90231598404762
 21
264.44368873142139
 31
0.0
  0
LINE
  5
2141E
  8
0
 10
317.90231598404762
 20
264.44368873142139
 30
0.0
 11
319.4010953200696
 21
255.94368873142139
 31
0.0
  0
LINE
  5
2141F
  8
0
 10
386.90231598404762
 20
245.7544196150057
 30
0.0
 11
386.90231598404762
 21
255.94368873142139
 31
0.0
  0
LINE
  5
21420
  8
0
 10
320.90231598404762
 20
255.94368873142139
 30
0.0
 11
320.90231598404762
 21
253.94368873142139
 31
0.0
  0
LINE
  5
21421
  8
0
 10
403.90231598404762
 20
267.74368873142163
 30
0.0
 11
403.90231598404762
 21
265.24368873142163
 31
0.0
  0
LINE
  5
21423
  8
0
 10
303.90231598404762
 20
267.74368873142163
 30
0.0
 11
303.90231598404762
 21
265.24368873142163
 31
0.0
  0
LINE
  5
21424
  8
0
 10
303.90231598404762
 20
267.74368873142163
 30
0.0
 11
403.90231598404762
 21
267.74368873142163
 31
0.0
  0
LINE
  5
21426
  8
0
 10
303.90231598404762
 20
265.24368873142163
 30
0.0
 11
403.90231598404762
 21
265.24368873142163
 31
0.0
  0
LINE
  5
21427
  8
0
 10
317.90231598404762
 20
264.44368873142139
 30
0.0
 11
389.90231598404762
 21
264.44368873142139
 31
0.0
  0
LINE
  5
21428
  8
0
 10
319.4010953200696
 20
255.94368873142139
 30
0.0
 11
388.40353664802569
 21
255.94368873142139
 31
0.0
  0
LINE
  5
21429
  8
0
 10
332.36165675550961
 20
253.94368873142139
 30
0.0
 11
310.90231598404762
 21
253.94368873142139
 31
0.0
  0
LINE
  5
2142A
  8
0
 10
332.36165675550961
 20
253.94368873142139
 30
0.0
 11
332.36165675550961
 21
184.54249534910099
 31
0.0
  0
LINE
  5
2142B
  8
0
 10
310.90231598404762
 20
253.94368873142139
 30
0.0
 11
310.90231598404762
 21
250.2436887314216
 31
0.0
  0
LINE
  5
2142C
  8
0
 10
331.06852671386918
 20
183.09119315923911
 30
0.0
 11
386.90231598404762
 21
245.7544196150057
 31
0.0
  0
ARC
  5
2142D
  8
0
 10
323.60231598404772
 20
189.74368873142151
 30
0.0
 40
9.9999999999999734
 50
270.0
 51
318.29852641013531
  0
LINE
  5
2142E
  8
0
 10
314.20231598404757
 20
179.74368873142151
 30
0.0
 11
323.60231598404772
 21
179.74368873142151
 31
0.0
  0
ARC
  5
2142F
  8
0
 10
314.20231598404757
 20
189.74368873142151
 30
0.0
 40
10.0
 50
173.6223446603245
 51
270.0
  0
LINE
  5
21430
  8
0
 10
310.90231598404762
 20
250.2436887314216
 30
0.0
 11
304.26420283282619
 21
190.85450239424699
 31
0.0
  0
CIRCLE
  5
21435
  8
0
 10
353.90231598404762
 20
377.98045729116348
 30
0.0
 40
8.9249999999999972
  0
CIRCLE
  5
21436
  8
0
 10
353.90231598404762
 20
377.98045729116348
 30
0.0
 40
13.57900689360916
  0
CIRCLE
  5
21437
  8
0
 10
353.90231598404762
 20
377.98045729116348
 30
0.0
 40
20.175000000000001
  0
CIRCLE
  5
21438
  8
0
 10
353.90231598404762
 20
377.98045729116348
 30
0.0
 40
23.802288713680468
  0
CIRCLE
  5
21439
  8
0
 10
353.90231598404762
 20
377.98045729116348
 30
0.0
 40
25.668546822706869
  0
CIRCLE
  5
2143A
  8
0
 10
353.90231598404762
 20
377.98045729116348
 30
0.0
 40
27.189555828815632
  0
CIRCLE
  5
2143B
  8
0
 10
353.90231598404762
 20
377.98045729116348
 30
0.0
 40
31.175000000000001
  0
LINE
  5
2143C
  8
1
 10
318.90231598404807
 20
428.1210307440524
 30
0.0
 11
318.90231598404688
 21
327.8398838382754
 31
0.0
  0
LINE
  5
2143D
  8
1
 10
257.08611600360518
 20
377.98045729116348
 30
0.0
 11
415.71851596449051
 21
377.98045729116348
 31
0.0
  0
LINE
  5
2143E
  8
1
 10
353.90231598404699
 20
323.66425731072098
 30
0.0
 11
353.9023159840483
 21
432.29665727160682
 31
0.0
  0
LINE
  5
2143F
  8
1
 10
306.42910223458449
 20
407.98045729116433
 30
0.0
 11
321.37552973351171
 21
407.98045729116433
 31
0.0
  0
LINE
  5
21440
  8
1
 10
313.90231598404807
 20
400.5072435417004
 30
0.0
 11
313.9023159840483
 21
415.45367104062819
 31
0.0
  0
LINE
  5
21441
  8
1
 10
308.92910223458438
 20
400.48045729116433
 30
0.0
 11
323.87552973351171
 21
400.48045729116433
 31
0.0
  0
LINE
  5
21442
  8
1
 10
316.40231598404807
 20
393.00724354170052
 30
0.0
 11
316.40231598404807
 21
407.95367104062819
 31
0.0
  0
LINE
  5
21443
  8
1
 10
306.4291022345833
 20
347.98045729116529
 30
0.0
 11
321.3755297335108
 21
347.98045729116438
 31
0.0
  0
LINE
  5
21444
  8
1
 10
313.90231598404722
 20
340.50724354170052
 30
0.0
 11
313.90231598404739
 21
355.45367104062819
 31
0.0
  0
LINE
  5
21445
  8
1
 10
308.9291022345837
 20
355.48045729116438
 30
0.0
 11
323.87552973351109
 21
355.48045729116438
 31
0.0
  0
LINE
  5
21446
  8
1
 10
316.40231598404722
 20
348.00724354170052
 30
0.0
 11
316.40231598404739
 21
362.95367104062831
 31
0.0
  0
LINE
  5
21447
  8
1
 10
383.92910223458449
 20
400.48045729116342
 30
0.0
 11
398.87552973351171
 21
400.48045729116342
 31
0.0
  0
LINE
  5
21448
  8
1
 10
391.40231598404807
 20
393.00724354169961
 30
0.0
 11
391.40231598404807
 21
407.95367104062728
 31
0.0
  0
LINE
  5
21449
  8
1
 10
386.42910223458438
 20
407.98045729116342
 30
0.0
 11
401.37552973351171
 21
407.98045729116342
 31
0.0
  0
LINE
  5
2144A
  8
1
 10
393.90231598404807
 20
400.50724354169949
 30
0.0
 11
393.9023159840483
 21
415.45367104062728
 31
0.0
  0
LINE
  5
2144B
  8
1
 10
383.9291022345837
 20
355.48045729116348
 30
0.0
 11
398.87552973351097
 21
355.48045729116348
 31
0.0
  0
LINE
  5
2144C
  8
1
 10
391.40231598404722
 20
348.00724354169961
 30
0.0
 11
391.40231598404739
 21
362.9536710406274
 31
0.0
  0
LINE
  5
2144D
  8
1
 10
386.42910223458352
 20
347.98045729116348
 30
0.0
 11
401.3755297335108
 21
347.98045729116348
 31
0.0
  0
LINE
  5
2144E
  8
1
 10
393.90231598404722
 20
340.50724354169961
 30
0.0
 11
393.90231598404739
 21
355.45367104062728
 31
0.0
  0
LINE
  5
2144F
  8
1
 10
353.90231598404779
 20
279.55988871186219
 30
0.0
 11
353.90231598404779
 21
220.9753275049043
 31
0.0
  0
LINE
  5
21450
  8
1
 10
257.08611600360518
 20
189.7436887314197
 30
0.0
 11
380.71851596449028
 21
189.7436887314197
 31
0.0
  0
LINE
  5
21451
  8
1
 10
318.90231598404762
 20
127.9274887509773
 30
0.0
 11
318.90231598404762
 21
241.84248576782011
 31
0.0
  0
ARC
  5
21467
  8
0
 10
318.90231598404762
 20
189.7436887314197
 30
0.0
 40
41.952105438837911
 50
104.09169334520099
 51
29.513826232139579
  0
ARC
  5
21468
  8
0
 10
318.90231598404762
 20
189.7436887314197
 30
0.0
 40
44.856316316513698
 50
102.71304986928639
 51
30.770982071497059
  0
ARC
  5
21469
  8
0
 10
318.90231598404762
 20
190.09273106680749
 30
0.0
 40
30.3421573257231
 50
112.4540158818247
 51
21.369992131261188
  0
ARC
  5
2146A
  8
0
 10
318.90231598404762
 20
189.7436887314197
 30
0.0
 40
40.0
 50
105.13907111719109
 51
28.560016000285358
  0
ARC
  5
2146B
  8
0
 10
318.90231598404762
 20
189.7436887314197
 30
0.0
 40
49.999999999999957
 50
100.68505840748
 51
32.623406550343368
  0
ARC
  5
2146C
  8
0
 10
318.90231598404762
 20
189.74368873142151
 30
0.0
 40
24.968730444297758
 50
119.6072044020824
 51
15.54396086727006
  0
LINE
  5
2157F
  8
0
 10
268.90231598404768
 20
380.98045729116348
 30
0.0
 11
268.90231598404768
 21
374.98045729116348
 31
0.0
  0
ARC
  5
21580
  8
0
 10
269.20231598404791
 20
374.98045729116348
 30
0.0
 40
0.3000000000000185
 50
180.0
 51
270.0
  0
LINE
  5
21581
  8
0
 10
269.20231598404791
 20
374.6804572911642
 30
0.0
 11
269.20231598404791
 21
372.28045729116371
 31
0.0
  0
ARC
  5
21582
  8
0
 10
269.20231598404791
 20
371.98045729116348
 30
0.0
 40
0.2999999999999998
 50
90.0
 51
180.0
  0
LINE
  5
21583
  8
0
 10
268.90231598404768
 20
371.98045729116348
 30
0.0
 11
268.90231598404768
 21
370.58030262485408
 31
0.0
  0
ARC
  5
21584
  8
0
 10
269.90231598404768
 20
370.58030262485408
 30
0.0
 40
1.0000000000000211
 50
180.0
 51
251.00000000002279
  0
LINE
  5
21585
  8
0
 10
269.57674782959077
 20
369.63478404925451
 30
0.0
 11
272.6192175925695
 21
368.58717769726172
 31
0.0
  0
ARC
  5
21586
  8
0
 10
273.59592205594038
 20
371.42373342406057
 30
0.0
 40
3.0000000000000022
 50
251.00000000002279
 51
270.0
  0
ARC
  5
21587
  8
0
 10
274.5459996675342
 20
367.92373342406057
 30
0.0
 40
0.5
 50
90.0
 51
270.0
  0
ARC
  5
21588
  8
0
 10
277.45021054520993
 20
366.92373342406057
 30
0.0
 40
0.5
 50
90.0
 51
270.0
  0
LINE
  5
21589
  8
0
 10
278.90231598404768
 20
366.42373342406057
 30
0.0
 11
288.42763934792089
 21
363.14390156436548
 31
0.0
  0
ARC
  5
2158A
  8
0
 10
289.40434381129182
 20
365.98045729116348
 30
0.0
 40
2.9999999999999121
 50
251.00000000002279
 51
270.0
  0
ARC
  5
2158B
  8
0
 10
289.40434381129268
 20
389.98045729116348
 30
0.0
 40
3.000000000000246
 50
90.0
 51
108.99999999997721
  0
LINE
  5
2158C
  8
0
 10
288.42763934792089
 20
392.81701301796147
 30
0.0
 11
278.90231598404768
 21
389.53718115826717
 31
0.0
  0
ARC
  5
2158D
  8
0
 10
277.45021054520993
 20
389.03718115826717
 30
0.0
 40
0.5
 50
90.0
 51
270.0
  0
ARC
  5
2158E
  8
0
 10
274.5459996675342
 20
388.03718115826717
 30
0.0
 40
0.5
 50
90.0
 51
270.0
  0
ARC
  5
2158F
  8
0
 10
273.59592205594038
 20
384.53718115826717
 30
0.0
 40
2.9999999999998561
 50
89.999999146226358
 51
108.99999999997721
  0
LINE
  5
21590
  8
0
 10
272.6192175925695
 20
387.37373688506523
 30
0.0
 11
269.57674782959077
 21
386.3261305330725
 31
0.0
  0
ARC
  5
21591
  8
0
 10
269.90231598404768
 20
385.38061195747292
 30
0.0
 40
1.0000000000000191
 50
108.99999999997721
 51
180.0
  0
LINE
  5
21592
  8
0
 10
268.90231598404768
 20
385.38061195747292
 30
0.0
 11
268.90231598404768
 21
383.98045729116348
 31
0.0
  0
ARC
  5
21593
  8
0
 10
269.20231598404791
 20
383.98045729116348
 30
0.0
 40
0.3000000000000043
 50
180.0
 51
270.0
  0
LINE
  5
21594
  8
0
 10
269.20231598404791
 20
383.6804572911642
 30
0.0
 11
269.20231598404791
 21
381.28045729116371
 31
0.0
  0
ARC
  5
21595
  8
0
 10
269.20231598404791
 20
380.98045729116348
 30
0.0
 40
0.2999999999999989
 50
90.0
 51
180.0
  0
LINE
  5
21596
  8
0
 10
269.20231598404791
 20
374.6804572911642
 30
0.0
 11
303.90231598404762
 21
374.6804572911642
 31
0.0
  0
LINE
  5
21597
  8
0
 10
269.20231598404791
 20
372.28045729116371
 30
0.0
 11
303.90231598404762
 21
372.28045729116371
 31
0.0
  0
LINE
  5
21598
  8
0
 10
273.59592205594038
 20
368.42373342406057
 30
0.0
 11
303.90231598404762
 21
368.42373342406057
 31
0.0
  0
LINE
  5
21599
  8
0
 10
274.5459996675342
 20
367.42373342406057
 30
0.0
 11
303.90231598404762
 21
367.42373342406057
 31
0.0
  0
LINE
  5
2159A
  8
0
 10
277.45021054520993
 20
366.42373342406057
 30
0.0
 11
303.90231598404762
 21
366.42373342406057
 31
0.0
  0
LINE
  5
2159B
  8
0
 10
289.40434381129182
 20
362.98045729116348
 30
0.0
 11
303.90231598404762
 21
362.98045729116348
 31
0.0
  0
LINE
  5
2159C
  8
0
 10
277.45021054520993
 20
389.53718115826717
 30
0.0
 11
303.90231598404762
 21
389.53718115826717
 31
0.0
  0
LINE
  5
2159D
  8
0
 10
274.5459996675342
 20
388.53718115826717
 30
0.0
 11
303.90231598404762
 21
388.53718115826717
 31
0.0
  0
LINE
  5
2159E
  8
0
 10
273.59592205594038
 20
387.53718115826717
 30
0.0
 11
303.90231598404762
 21
387.53718115826717
 31
0.0
  0
LINE
  5
2159F
  8
0
 10
269.20231598404791
 20
383.6804572911642
 30
0.0
 11
303.90231598404762
 21
383.6804572911642
 31
0.0
  0
LINE
  5
215A0
  8
0
 10
269.20231598404791
 20
381.28045729116371
 30
0.0
 11
303.90231598404762
 21
381.28045729116371
 31
0.0
  0
LINE
  5
215A1
  8
0
 10
289.40434381129182
 20
392.98045729116348
 30
0.0
 11
303.90231598404762
 21
392.98045729116348
 31
0.0
  0
TEXT
  5
27113
  8
0
 62
     3
 10
0.0
 20
0.0
 30
0.0
 40
10.0
  1
CAE2-100SBL
  7
STANDARD1
  0
ENDSEC
  0
EOF
