  0
SECTION
  2
HEADER
  9
$ACADVER
  1
AC1009
  9
$INSBASE
 10
0.0
 20
0.0
 30
0.0
  9
$EXTMIN
 10
0.0
 20
-2.960436562073669
 30
0.0
  9
$EXTMAX
 10
355.70461669698312
 20
270.63611567808528
 30
0.0
  9
$LIMMIN
 10
0.0
 20
0.0
  9
$LIMMAX
 10
375.0
 20
270.0
  9
$ORTHOMODE
 70
     0
  9
$REGENMODE
 70
     1
  9
$FILLMODE
 70
     1
  9
$QTEXTMODE
 70
     0
  9
$MIRRTEXT
 70
     1
  9
$DRAGMODE
 70
     2
  9
$LTSCALE
 40
10.0
  9
$OSMODE
 70
  3071
  9
$ATTMODE
 70
     1
  9
$TEXTSIZE
 40
5.0
  9
$TRACEWID
 40
0.05
  9
$TEXTSTYLE
  7
STANDARD
  9
$CLAYER
  8
0
  9
$CELTYPE
  6
BYLAYER
  9
$CECOLOR
 62
   256
  9
$DIMSCALE
 40
2.0
  9
$DIMASZ
 40
3.0
  9
$DIMEXO
 40
2.0
  9
$DIMDLI
 40
0.38
  9
$DIMRND
 40
0.0
  9
$DIMDLE
 40
0.0
  9
$DIMEXE
 40
2.0
  9
$DIMTP
 40
0.0
  9
$DIMTM
 40
0.0
  9
$DIMTXT
 40
3.2000000000000002
  9
$DIMCEN
 40
0.0
  9
$DIMTSZ
 40
0.0
  9
$DIMTOL
 70
     0
  9
$DIMLIM
 70
     0
  9
$DIMTIH
 70
     0
  9
$DIMTOH
 70
     0
  9
$DIMSE1
 70
     0
  9
$DIMSE2
 70
     0
  9
$DIMTAD
 70
     1
  9
$DIMZIN
 70
     8
  9
$DIMBLK
  1

  9
$DIMASO
 70
     0
  9
$DIMSHO
 70
     0
  9
$DIMPOST
  1

  9
$DIMAPOST
  1

  9
$DIMALT
 70
     0
  9
$DIMALTD
 70
     2
  9
$DIMALTF
 40
25.399999999999999
  9
$DIMLFAC
 40
1.0
  9
$DIMTOFL
 70
     0
  9
$DIMTVP
 40
1.6000000000000001
  9
$DIMTIX
 70
     1
  9
$DIMSOXD
 70
     0
  9
$DIMSAH
 70
     0
  9
$DIMBLK1
  1

  9
$DIMBLK2
  1

  9
$DIMSTYLE
  2
STANDARD
  9
$DIMCLRD
 70
     0
  9
$DIMCLRE
 70
     0
  9
$DIMCLRT
 70
     0
  9
$DIMTFAC
 40
1.0
  9
$DIMGAP
 40
1.1999999999999991
  9
$LUNITS
 70
     2
  9
$LUPREC
 70
     4
  9
$SKETCHINC
 40
0.1
  9
$FILLETRAD
 40
0.0
  9
$AUNITS
 70
     0
  9
$AUPREC
 70
     4
  9
$MENU
  1
ACAD
  9
$ELEVATION
 40
0.0
  9
$PELEVATION
 40
0.0
  9
$THICKNESS
 40
0.0
  9
$LIMCHECK
 70
     0
  9
$BLIPMODE
 70
     0
  9
$CHAMFERA
 40
0.0
  9
$CHAMFERB
 40
0.0
  9
$SKPOLY
 70
     0
  9
$TDCREATE
 40
2448055.7149187499
  9
$TDUPDATE
 40
2456598.5578325349
  9
$TDINDWG
 40
3.2828912616000001
  9
$TDUSRTIMER
 40
3.2828912616000001
  9
$USRTIMER
 70
     1
  9
$ANGBASE
 50
0.0
  9
$ANGDIR
 70
     0
  9
$PDMODE
 70
     0
  9
$PDSIZE
 40
0.0
  9
$PLINEWID
 40
0.0
  9
$COORDS
 70
     1
  9
$SPLFRAME
 70
     0
  9
$SPLINETYPE
 70
     6
  9
$SPLINESEGS
 70
     8
  9
$ATTDIA
 70
     0
  9
$ATTREQ
 70
     1
  9
$HANDLING
 70
     1
  9
$HANDSEED
  5
33F92
  9
$SURFTAB1
 70
     6
  9
$SURFTAB2
 70
     6
  9
$SURFTYPE
 70
     6
  9
$SURFU
 70
     6
  9
$SURFV
 70
     6
  9
$UCSNAME
  2

  9
$UCSORG
 10
0.0
 20
0.0
 30
0.0
  9
$UCSXDIR
 10
1.0
 20
0.0
 30
0.0
  9
$UCSYDIR
 10
0.0
 20
1.0
 30
0.0
  9
$PUCSNAME
  2

  9
$PUCSORG
 10
0.0
 20
0.0
 30
0.0
  9
$PUCSXDIR
 10
1.0
 20
0.0
 30
0.0
  9
$PUCSYDIR
 10
0.0
 20
1.0
 30
0.0
  9
$USERI1
 70
     0
  9
$USERI2
 70
     0
  9
$USERI3
 70
     0
  9
$USERI4
 70
     0
  9
$USERI5
 70
     0
  9
$USERR1
 40
0.0
  9
$USERR2
 40
0.0
  9
$USERR3
 40
0.0
  9
$USERR4
 40
0.0
  9
$USERR5
 40
0.0
  9
$WORLDVIEW
 70
     1
  9
$SHADEDGE
 70
     3
  9
$SHADEDIF
 70
    70
  9
$TILEMODE
 70
     1
  9
$MAXACTVP
 70
    16
  9
$PLIMCHECK
 70
     0
  9
$PEXTMIN
 10
1.0000000000000000E+020
 20
1.0000000000000000E+020
 30
1.0000000000000000E+020
  9
$PEXTMAX
 10
-1.0000000000000000E+020
 20
-1.0000000000000000E+020
 30
-1.0000000000000000E+020
  9
$PLIMMIN
 10
0.0
 20
0.0
  9
$PLIMMAX
 10
12.0
 20
9.0
  9
$UNITMODE
 70
     0
  9
$VISRETAIN
 70
     0
  9
$PLINEGEN
 70
     1
  9
$PSLTSCALE
 70
     0
  0
ENDSEC
  0
SECTION
  2
TABLES
  0
TABLE
  2
VPORT
 70
     1
  0
VPORT
  2
*ACTIVE
 70
     0
 10
0.0
 20
0.0
 11
1.0
 21
1.0
 12
195.0755853332565
 22
133.8417338312949
 13
0.0
 23
0.0
 14
5.0
 24
5.0
 15
10.0
 25
10.0
 16
0.0
 26
0.0
 36
1.0
 17
0.0
 27
0.0
 37
0.0
 40
276.05914231424822
 41
1.831871345029239
 42
50.0
 43
0.0
 44
0.0
 50
0.0
 51
0.0
 71
     0
 72
   500
 73
     1
 74
     1
 75
     0
 76
     0
 77
     0
 78
     2
  0
ENDTAB
  0
TABLE
  2
LTYPE
 70
     3
  0
LTYPE
  2
CONTINUOUS
 70
     0
  3
実線
 72
    65
 73
     0
 40
0.0
  0
LTYPE
  2
CENTER
 70
     0
  3
____ _ ____ _ ____ _ ____ _ ____ _ ____ _ ____
 72
    65
 73
     4
 40
2.0
 49
1.25
 49
-0.25
 49
0.25
 49
-0.25
  0
LTYPE
  2
PHANTOM2
 70
     0
  3
___ _ _ ___ _ _ ___ _ _ ___ _ _
 72
    65
 73
     6
 40
1.25
 49
0.625
 49
-0.125
 49
0.125
 49
-0.125
 49
0.125
 49
-0.125
  0
ENDTAB
  0
TABLE
  2
LAYER
 70
     5
  0
LAYER
  2
0
 70
     0
 62
     7
  6
CONTINUOUS
  0
LAYER
  2
1
 70
     0
 62
     1
  6
CENTER
  0
LAYER
  2
DEFPOINTS
 70
     0
 62
     7
  6
CONTINUOUS
  0
LAYER
  2
3
 70
     0
 62
     3
  6
CONTINUOUS
  0
LAYER
  2
20_CHOKU01
 70
     0
 62
    -4
  6
CONTINUOUS
  0
ENDTAB
  0
TABLE
  2
STYLE
 70
     4
  0
STYLE
  2
STANDARD
 70
     0
 40
0.0
 41
1.0
 50
0.0
 71
     0
 42
5.0
  3
simplex.shx
  4
bigfont.shx
  0
STYLE
  2
07500
 70
     0
 40
0.0
 41
0.75
 50
0.0
 71
     0
 42
0.2
  3
simplex.shx
  4
bigfont.shx
  0
STYLE
  2
IMAO_TXT_W100
 70
     0
 40
0.0
 41
1.0
 50
0.0
 71
     0
 42
2.5
  3
txt
  4

  0
STYLE
  2
STANDARD1
 70
     0
 40
0.0
 41
1.0
 50
0.0
 71
     0
 42
3.0
  3
txt
  4

  0
ENDTAB
  0
TABLE
  2
VIEW
 70
     2
  0
VIEW
  2
ALL
 70
     0
 40
270.0
 10
220.99159663865549
 20
135.0
 41
0.0
 11
0.0
 21
0.0
 31
1.0
 12
0.0
 22
0.0
 32
0.0
 42
0.0
 43
0.0
 44
0.0
 50
0.0
 71
     0
  0
VIEW
  2
OLE1
 70
     0
 40
168.2487151179721
 10
2892.3009567448912
 20
702.51600084347126
 41
162.5749581879237
 11
0.0
 21
0.0
 31
1.0
 12
0.0
 22
0.0
 32
0.0
 42
50.0
 43
0.0
 44
0.0
 50
0.0
 71
     0
  0
ENDTAB
  0
TABLE
  2
UCS
 70
     0
  0
ENDTAB
  0
TABLE
  2
APPID
 70
    49
  0
APPID
  2
ACAD
 70
     0
  0
APPID
  2
DCO15
 70
     0
  0
APPID
  2
GENIUS_GENOREF_13
 70
     0
  0
APPID
  2
GENIUS_GENOENT_13
 70
     0
  0
APPID
  2
GENIUS_GENBH_13
 70
     0
  0
APPID
  2
GENIUS_GENOBJ_13
 70
     0
  0
APPID
  2
GENIUS_GENODEF_13
 70
     0
  0
APPID
  2
GENIUS_GENOLIS_13
 70
     0
  0
APPID
  2
GENIUS_GENOBJ-NBEHI-BHF_13
 70
     0
  0
APPID
  2
GENIUS_GENOBJ-NBEHI-BHB_13
 70
     0
  0
APPID
  2
GENIUS_GENOBJ-F-PART_13
 70
     0
  0
APPID
  2
GENIUS_GEFSTDP_13
 70
     0
  0
APPID
  2
GENIUS_GENOBJ-N-RSSYM_13
 70
     0
  0
APPID
  2
GENIUS_GENSYMENT_13
 70
     0
  0
APPID
  2
GENIUS_GENOBJ-N-TIT_13
 70
     0
  0
APPID
  2
GENIUS_GENTITLE_13
 70
     0
  0
APPID
  2
GENIUS_GENZVEED_13
 70
     0
  0
APPID
  2
GENIUS_GENOBJ-N-LEADER_13
 70
     0
  0
APPID
  2
GENIUS_GENOBJ-N-FIL_13
 70
     0
  0
APPID
  2
GENIUS_GENOBJ-N-SEC_13
 70
     0
  0
APPID
  2
GENIUS_GENOBJ-N-CRS_13
 70
     0
  0
APPID
  2
GENIUS_GENOBJ-N-ZOO_13
 70
     0
  0
APPID
  2
GENIUS_GENZOO_13
 70
     0
  0
APPID
  2
GENIUS_GENOBJ-F-TOL_13
 70
     0
  0
APPID
  2
GENIUS_GENFIL_13
 70
     0
  0
APPID
  2
GENIUS_GENOBJ-N-CHA_13
 70
     0
  0
APPID
  2
_CALL_MAC$
 70
     0
  0
APPID
  2
ASM_BASE
 70
     0
  0
APPID
  2
ASM_EXPLO_VER_2_00
 70
     0
  0
APPID
  2
ASM_CADM_VER_12_00
 70
     0
  0
APPID
  2
ASM_BASEFORO
 70
     0
  0
APPID
  2
ASM_BASETRAVI
 70
     0
  0
APPID
  2
ASM_BASETRAVI1
 70
     0
  0
APPID
  2
ASM_GRUPPI
 70
     0
  0
APPID
  2
ASM_CADM_ALBERO
 70
     0
  0
APPID
  2
ASM_GOLE
 70
     0
  0
APPID
  2
ACAD_MLEADERVER
 70
     0
  0
APPID
  2
ACAD_DSTYLE_DIMJAG
 70
     0
  0
APPID
  2
ACAD_DSTYLE_DIMTALN
 70
     0
  0
APPID
  2
ACAD_EXEMPT_FROM_CAD_STANDARDS
 70
     0
  0
APPID
  2
ACAD_DSTYLE_DIMRADIAL_EXTENSION
 70
     0
  0
APPID
  2
ACAD_PSEXT
 70
     0
  0
APPID
  2
ACAD_DSTYLE_DIMBREAK
 70
     0
  0
APPID
  2
ACAECLAYERSTANDARD
 70
     0
  0
APPID
  2
ACCMTRANSPARENCY
 70
     0
  0
APPID
  2
GRADIENTCOLOR1ACI
 70
     0
  0
APPID
  2
GRADIENTCOLOR2ACI
 70
     0
  0
APPID
  2
ACAD_NAV_VCDISPLAY
 70
     0
  0
APPID
  2
ACAD_DSTYLE_DIM_LINETYPE
 70
     0
  0
ENDTAB
  0
TABLE
  2
DIMSTYLE
 70
     4
  0
DIMSTYLE
  2
STANDARD
 70
     0
  3

  4

  5

  6

  7

 40
1.0
 41
0.18
 42
0.0625
 43
0.38
 44
0.18
 45
0.0
 46
0.0
 47
0.0
 48
0.0
140
0.18
141
0.09
142
0.0
143
25.399999999999999
144
1.0
145
0.0
146
1.0
147
0.09
 71
     0
 72
     0
 73
     1
 74
     1
 75
     0
 76
     0
 77
     0
 78
     0
170
     0
171
     2
172
     0
173
     0
174
     0
175
     0
176
     0
177
     0
178
     0
  0
DIMSTYLE
  2
ISO-25
 70
     0
  3

  4

  5

  6

  7

 40
1.0
 41
2.5
 42
0.625
 43
3.75
 44
1.25
 45
0.0
 46
0.0
 47
0.0
 48
0.0
140
2.5
141
2.5
142
0.0
143
0.03937007874016
144
1.0
145
0.0
146
1.0
147
0.625
 71
     0
 72
     0
 73
     0
 74
     0
 75
     0
 76
     0
 77
     1
 78
     8
170
     0
171
     3
172
     1
173
     0
174
     0
175
     0
176
     0
177
     0
178
     0
  0
DIMSTYLE
  2
IMAO_DIM_HAN
 70
     0
  3

  4

  5

  6

  7

 40
1.0
 41
6.0
 42
1.0
 43
4.0
 44
1.0
 45
0.0
 46
0.0
 47
0.0
 48
0.0
140
6.0
141
0.09
142
0.0
143
25.399999999999999
144
1.0
145
0.0
146
1.0
147
0.9
 71
     0
 72
     0
 73
     0
 74
     0
 75
     0
 76
     0
 77
     1
 78
     8
170
     0
171
     2
172
     1
173
     0
174
     0
175
     0
176
   256
177
     0
178
   256
  0
DIMSTYLE
  2
IMAO_DIM_ZEN
 70
     0
  3

  4

  5

  6

  7

 40
1.0
 41
1.5
 42
1.0
 43
4.0
 44
1.0
 45
0.0
 46
0.0
 47
0.0
 48
0.0
140
1.8
141
0.09
142
0.0
143
25.399999999999999
144
1.0
145
0.0
146
1.0
147
0.65
 71
     0
 72
     0
 73
     0
 74
     0
 75
     0
 76
     0
 77
     1
 78
     8
170
     0
171
     2
172
     1
173
     0
174
     0
175
     0
176
   256
177
     0
178
   256
  0
ENDTAB
  0
ENDSEC
  0
SECTION
  2
BLOCKS
  0
BLOCK
  8
0
  2
$MODEL_SPACE
 70
     0
 10
0.0
 20
0.0
 30
0.0
  3
$MODEL_SPACE
  1

  0
ENDBLK
  5
36
  8
0
  0
BLOCK
 67
     1
  8
0
  2
$PAPER_SPACE
 70
     0
 10
0.0
 20
0.0
 30
0.0
  3
$PAPER_SPACE
  1

  0
ENDBLK
  5
34
 67
     1
  8
0
  0
ENDSEC
  0
SECTION
  2
ENTITIES
  0
LINE
  5
33882
  8
0
 10
194.82940602929349
 20
92.05929593667679
 30
0.0
 11
189.82940602929349
 21
94.946047282624917
 31
0.0
  0
LINE
  5
33883
  8
0
 10
194.82940602929349
 20
86.285793244780507
 30
0.0
 11
194.82940602929349
 21
92.05929593667679
 31
0.0
  0
LINE
  5
33884
  8
0
 10
189.82940602929349
 20
83.399041898832365
 30
0.0
 11
194.82940602929349
 21
86.285793244780507
 31
0.0
  0
LINE
  5
33885
  8
0
 10
184.82940602929349
 20
92.05929593667679
 30
0.0
 11
184.82940602929349
 21
86.285793244780507
 31
0.0
  0
LINE
  5
33886
  8
0
 10
184.82940602929349
 20
86.285793244780507
 30
0.0
 11
189.82940602929349
 21
83.399041898832365
 31
0.0
  0
LINE
  5
33887
  8
0
 10
189.82940602929349
 20
94.946047282624917
 30
0.0
 11
184.82940602929349
 21
92.05929593667679
 31
0.0
  0
CIRCLE
  5
33888
  8
0
 10
189.82940602929349
 20
89.172544590728634
 30
0.0
 40
4.9999999999999982
  0
ARC
  5
3388B
  8
0
 10
189.82940602929349
 20
89.172544590728634
 30
0.0
 40
15.275637355817
 50
176.3302163910019
 51
3.6697836089981268
  0
ARC
  5
3388C
  8
0
 10
189.82940602929349
 20
89.172544590728634
 30
0.0
 40
16.0
 50
174.46070691997471
 51
5.5392930800252671
  0
LINE
  5
3388D
  8
1
 10
154.82940602929361
 20
89.172544590728705
 30
0.0
 11
224.82940602929341
 21
89.172544590728705
 31
0.0
  0
LINE
  5
3388E
  8
1
 10
189.82940602929349
 20
54.172544590728869
 30
0.0
 11
189.82940602929349
 21
147.17254459072859
 31
0.0
  0
ARC
  5
3388F
  8
0
 10
189.82940602929349
 20
89.172544590728776
 30
0.0
 40
29.999999999999911
 50
139.449073732095
 51
40.550926267904913
  0
ARC
  5
33890
  8
0
 10
189.82940602929349
 20
89.172544590728634
 30
0.0
 40
28.945205479452049
 50
141.3153624441243
 51
38.684637555875632
  0
ARC
  5
33891
  8
0
 10
189.82940602929349
 20
89.172544590728634
 30
0.0
 40
26.5
 50
146.51629783278111
 51
33.483702167218873
  0
ARC
  5
33892
  8
0
 10
189.82940602929349
 20
89.172544590728634
 30
0.0
 40
23.371500000000001
 50
160.27398940814939
 51
19.726010591850539
  0
ARC
  5
33893
  8
0
 10
189.82940602929349
 20
89.172544590728634
 30
0.0
 40
23.351500000000001
 50
160.41130672494879
 51
19.588693275051131
  0
ARC
  5
33894
  8
0
 10
189.82940602929349
 20
89.172544590728634
 30
0.0
 40
17.00160000000001
 50
172.194194570463
 51
7.8058054295370081
  0
ARC
  5
33895
  8
0
 10
189.82940602929349
 20
89.172544590728634
 30
0.0
 40
16.659168266097321
 50
172.9320269495696
 51
7.0679730504303899
  0
LINE
  5
3389A
  8
0
 10
215.53540666562009
 20
129.19984907683099
 30
0.0
 11
164.12340539296699
 21
129.19984907683099
 31
0.0
  0
LINE
  5
3389B
  8
0
 10
211.87872035444369
 20
103.42021058303661
 30
0.0
 11
167.7800917041435
 21
103.42021058303661
 31
0.0
  0
LINE
  5
3389C
  8
0
 10
212.17938376677441
 20
105.53988763996939
 30
0.0
 11
167.47942829181261
 21
105.53988763996939
 31
0.0
  0
LINE
  5
3389D
  8
0
 10
163.82940602929349
 20
131.2725445907287
 30
0.0
 11
167.82940602929349
 21
103.0725445907286
 31
0.0
  0
LINE
  5
3389E
  8
0
 10
167.82940602929349
 20
103.0725445907286
 30
0.0
 11
167.82940602929349
 21
95.772544590728657
 31
0.0
  0
LINE
  5
3389F
  8
0
 10
167.82940602929349
 20
95.772544590728657
 30
0.0
 11
184.0722621998986
 21
82.254792432139766
 31
0.0
  0
ARC
  5
338A0
  8
0
 10
189.82940602929349
 20
89.172544590728634
 30
0.0
 40
8.9999999999999911
 50
230.2318405921624
 51
309.76815940783757
  0
LINE
  5
338A1
  8
0
 10
195.58654985868839
 20
82.254792432139766
 30
0.0
 11
211.82940602929349
 21
95.772544590728657
 31
0.0
  0
LINE
  5
338A2
  8
0
 10
211.82940602929349
 20
95.772544590728657
 30
0.0
 11
211.82940602929349
 21
103.0725445907286
 31
0.0
  0
LINE
  5
338A3
  8
0
 10
211.82940602929349
 20
103.0725445907286
 30
0.0
 11
215.82940602929349
 21
131.2725445907287
 31
0.0
  0
LINE
  5
338A4
  8
0
 10
163.82940602929349
 20
142.17254459072859
 30
0.0
 11
163.82940602929349
 21
131.2725445907287
 31
0.0
  0
LINE
  5
338A5
  8
0
 10
215.82940602929349
 20
138.67254459072859
 30
0.0
 11
163.82940602929349
 21
138.67254459072859
 31
0.0
  0
LINE
  5
338A6
  8
0
 10
215.82940602929349
 20
131.31952613376379
 30
0.0
 11
163.82940602929349
 21
131.31952613376379
 31
0.0
  0
LINE
  5
338A7
  8
0
 10
215.82940602929349
 20
131.2725445907287
 30
0.0
 11
215.82940602929349
 21
142.17254459072859
 31
0.0
  0
LINE
  5
338A8
  8
0
 10
159.82940602929349
 20
140.17254459072859
 30
0.0
 11
159.82940602929349
 21
142.17254459072859
 31
0.0
  0
LINE
  5
338A9
  8
0
 10
159.82940602929349
 20
142.17254459072859
 30
0.0
 11
219.82940602929349
 21
142.17254459072859
 31
0.0
  0
LINE
  5
338AA
  8
0
 10
163.82940602929349
 20
140.17254459072859
 30
0.0
 11
159.82940602929349
 21
140.17254459072859
 31
0.0
  0
LINE
  5
338AB
  8
0
 10
219.82940602929349
 20
142.17254459072859
 30
0.0
 11
219.82940602929349
 21
140.17254459072859
 31
0.0
  0
LINE
  5
338AC
  8
0
 10
219.82940602929349
 20
140.17254459072859
 30
0.0
 11
215.82940602929349
 21
140.17254459072859
 31
0.0
  0
ARC
  5
338AE
  8
0
 10
306.30461669698309
 20
85.722544590728646
 30
0.0
 40
0.5000000000000049
 50
323.13010235415391
 51
0.0
  0
ARC
  5
338AF
  8
0
 10
306.30461669698309
 20
92.622544590728637
 30
0.0
 40
0.5
 50
0.0
 51
36.869897645845199
  0
LINE
  5
338B0
  8
0
 10
337.70461669698312
 20
92.122544590728637
 30
0.0
 11
336.70461669698312
 21
92.122544590728637
 31
0.0
  0
LINE
  5
338B1
  8
0
 10
307.70461669698312
 20
92.122544590728637
 30
0.0
 11
306.80461669698309
 21
92.122544590728637
 31
0.0
  0
LINE
  5
338B2
  8
0
 10
306.80461669698309
 20
86.22254459072866
 30
0.0
 11
307.70461669698312
 21
86.22254459072866
 31
0.0
  0
LINE
  5
338B3
  8
0
 10
336.70461669698312
 20
86.22254459072866
 30
0.0
 11
337.70461669698312
 21
86.22254459072866
 31
0.0
  0
LINE
  5
338B4
  8
0
 10
344.29111669698312
 20
92.172544590728705
 30
0.0
 11
344.20461669698312
 21
92.172544590728705
 31
0.0
  0
LINE
  5
338B5
  8
0
 10
344.20461669698312
 20
86.172544590728705
 30
0.0
 11
344.29111669698312
 21
86.172544590728705
 31
0.0
  0
LINE
  5
338B6
  8
0
 10
344.904616696983
 20
91.559044590728661
 30
0.0
 11
344.29111669698312
 21
92.172544590728705
 31
0.0
  0
LINE
  5
338B7
  8
0
 10
344.29111669698312
 20
86.172544590728705
 30
0.0
 11
344.904616696983
 21
86.786044590728636
 31
0.0
  0
LINE
  5
338B8
  8
0
 10
304.49735727534619
 20
83.399041898832422
 30
0.0
 11
304.70461669698312
 21
84.172544590728705
 31
0.0
  0
LINE
  5
338B9
  8
0
 10
304.70461669698312
 20
94.172544590728705
 30
0.0
 11
304.49735727534619
 21
94.946047282624988
 31
0.0
  0
LINE
  5
338BA
  8
0
 10
300.20461669698312
 20
84.172544590728705
 30
0.0
 11
300.41187611861989
 21
83.399041898832422
 31
0.0
  0
LINE
  5
338BB
  8
0
 10
300.41187611861989
 20
94.946047282624988
 30
0.0
 11
300.20461669698312
 21
94.172544590728705
 31
0.0
  0
LINE
  5
338BC
  8
0
 10
306.804616696984
 20
85.722544590728646
 30
0.0
 11
306.80461669698212
 21
92.622544590728637
 31
0.0
  0
LINE
  5
338BD
  8
0
 10
344.29111669698398
 20
86.172544590728705
 30
0.0
 11
344.29111669698221
 21
92.172544590728705
 31
0.0
  0
LINE
  5
338BE
  8
0
 10
344.90461669698368
 20
86.786044590728636
 30
0.0
 11
344.90461669698232
 21
91.559044590728661
 31
0.0
  0
LINE
  5
338BF
  8
0
 10
300.20461669698449
 20
84.172544590728705
 30
0.0
 11
300.20461669698159
 21
94.172544590728705
 31
0.0
  0
POLYLINE
  5
338C0
  8
0
 66
     1
 10
0.0
 20
0.0
 30
0.0
 70
     8
  0
VERTEX
  5
338C1
  8
0
 10
304.49735727534619
 20
94.946047282624988
 30
0.0
 70
    32
  0
VERTEX
  5
338C2
  8
0
 10
304.56114510019182
 20
94.690225019192823
 30
0.0
 70
    32
  0
VERTEX
  5
338C3
  8
0
 10
304.65266072651031
 20
94.20563343754867
 30
0.0
 70
    32
  0
VERTEX
  5
338C4
  8
0
 10
304.69871166262328
 20
93.737652753064665
 30
0.0
 70
    32
  0
VERTEX
  5
338C5
  8
0
 10
304.70461669698312
 20
93.502671609650918
 30
0.0
 70
    32
  0
SEQEND
  5
338C6
  8
0
  0
POLYLINE
  5
338C7
  8
0
 66
     1
 10
0.0
 20
0.0
 30
0.0
 70
     8
  0
VERTEX
  5
338C8
  8
0
 10
304.70461669698312
 20
93.502671609650918
 30
0.0
 70
    32
  0
VERTEX
  5
338C9
  8
0
 10
304.69871166262323
 20
93.267690466237084
 30
0.0
 70
    32
  0
VERTEX
  5
338CA
  8
0
 10
304.65266072651002
 20
92.799709781753037
 30
0.0
 70
    32
  0
VERTEX
  5
338CB
  8
0
 10
304.56114510019182
 20
92.315118200108884
 30
0.0
 70
    32
  0
VERTEX
  5
338CC
  8
0
 10
304.49735727534619
 20
92.059295936676847
 30
0.0
 70
    32
  0
SEQEND
  5
338CD
  8
0
  0
POLYLINE
  5
338CE
  8
0
 66
     1
 10
0.0
 20
0.0
 30
0.0
 70
     8
  0
VERTEX
  5
338CF
  8
0
 10
300.41187611861989
 20
92.059295936676847
 30
0.0
 70
    32
  0
VERTEX
  5
338D0
  8
0
 10
300.34808829377442
 20
92.315118200108884
 30
0.0
 70
    32
  0
VERTEX
  5
338D1
  8
0
 10
300.25657266745588
 20
92.799709781753165
 30
0.0
 70
    32
  0
VERTEX
  5
338D2
  8
0
 10
300.21052173134268
 20
93.267690466237084
 30
0.0
 70
    32
  0
VERTEX
  5
338D3
  8
0
 10
300.20461669698312
 20
93.502671609650918
 30
0.0
 70
    32
  0
SEQEND
  5
338D4
  8
0
  0
POLYLINE
  5
338D5
  8
0
 66
     1
 10
0.0
 20
0.0
 30
0.0
 70
     8
  0
VERTEX
  5
338D6
  8
0
 10
300.20461669698312
 20
93.502671609650918
 30
0.0
 70
    32
  0
VERTEX
  5
338D7
  8
0
 10
300.21052173134302
 20
93.737652753064665
 30
0.0
 70
    32
  0
VERTEX
  5
338D8
  8
0
 10
300.25657266745611
 20
94.20563343754867
 30
0.0
 70
    32
  0
VERTEX
  5
338D9
  8
0
 10
300.34808829377442
 20
94.690225019192823
 30
0.0
 70
    32
  0
VERTEX
  5
338DA
  8
0
 10
300.41187611861989
 20
94.946047282624988
 30
0.0
 70
    32
  0
SEQEND
  5
338DB
  8
0
  0
LINE
  5
338DC
  8
0
 10
304.49735727534619
 20
92.059295936676847
 30
0.0
 11
300.41187611861989
 21
92.059295936676847
 31
0.0
  0
POLYLINE
  5
338DD
  8
0
 66
     1
 10
0.0
 20
0.0
 30
0.0
 70
     8
  0
VERTEX
  5
338DE
  8
0
 10
304.49735727534619
 20
92.059295936676847
 30
0.0
 70
    32
  0
VERTEX
  5
338DF
  8
0
 10
304.56114510019182
 20
91.547651409812659
 30
0.0
 70
    32
  0
VERTEX
  5
338E0
  8
0
 10
304.65266072651031
 20
90.578468246524196
 30
0.0
 70
    32
  0
VERTEX
  5
338E1
  8
0
 10
304.69871166262328
 20
89.6425068775564
 30
0.0
 70
    32
  0
VERTEX
  5
338E2
  8
0
 10
304.70461669698312
 20
89.172544590728705
 30
0.0
 70
    32
  0
SEQEND
  5
338E3
  8
0
  0
POLYLINE
  5
338E4
  8
0
 66
     1
 10
0.0
 20
0.0
 30
0.0
 70
     8
  0
VERTEX
  5
338E5
  8
0
 10
304.70461669698312
 20
89.172544590728705
 30
0.0
 70
    32
  0
VERTEX
  5
338E6
  8
0
 10
304.69871166262323
 20
88.702582303901011
 30
0.0
 70
    32
  0
VERTEX
  5
338E7
  8
0
 10
304.65266072651002
 20
87.766620934933087
 30
0.0
 70
    32
  0
VERTEX
  5
338E8
  8
0
 10
304.56114510019182
 20
86.797437771644638
 30
0.0
 70
    32
  0
VERTEX
  5
338E9
  8
0
 10
304.49735727534619
 20
86.285793244780564
 30
0.0
 70
    32
  0
SEQEND
  5
338EA
  8
0
  0
POLYLINE
  5
338EB
  8
0
 66
     1
 10
0.0
 20
0.0
 30
0.0
 70
     8
  0
VERTEX
  5
338EC
  8
0
 10
300.41187611861989
 20
86.285793244780564
 30
0.0
 70
    32
  0
VERTEX
  5
338ED
  8
0
 10
300.34808829377442
 20
86.797437771644638
 30
0.0
 70
    32
  0
VERTEX
  5
338EE
  8
0
 10
300.25657266745588
 20
87.766620934933187
 30
0.0
 70
    32
  0
VERTEX
  5
338EF
  8
0
 10
300.21052173134279
 20
88.702582303901011
 30
0.0
 70
    32
  0
VERTEX
  5
338F0
  8
0
 10
300.20461669698312
 20
89.172544590728705
 30
0.0
 70
    32
  0
SEQEND
  5
338F1
  8
0
  0
POLYLINE
  5
338F2
  8
0
 66
     1
 10
0.0
 20
0.0
 30
0.0
 70
     8
  0
VERTEX
  5
338F3
  8
0
 10
300.20461669698312
 20
89.172544590728705
 30
0.0
 70
    32
  0
VERTEX
  5
338F4
  8
0
 10
300.21052173134302
 20
89.6425068775564
 30
0.0
 70
    32
  0
VERTEX
  5
338F5
  8
0
 10
300.25657266745611
 20
90.578468246524196
 30
0.0
 70
    32
  0
VERTEX
  5
338F6
  8
0
 10
300.34808829377442
 20
91.547651409812659
 30
0.0
 70
    32
  0
VERTEX
  5
338F7
  8
0
 10
300.41187611861989
 20
92.059295936676847
 30
0.0
 70
    32
  0
SEQEND
  5
338F8
  8
0
  0
LINE
  5
338F9
  8
0
 10
304.49735727534619
 20
86.285793244780564
 30
0.0
 11
300.41187611861989
 21
86.285793244780564
 31
0.0
  0
POLYLINE
  5
338FA
  8
0
 66
     1
 10
0.0
 20
0.0
 30
0.0
 70
     8
  0
VERTEX
  5
338FB
  8
0
 10
304.49735727534619
 20
86.285793244780564
 30
0.0
 70
    32
  0
VERTEX
  5
338FC
  8
0
 10
304.56114510019182
 20
86.029970981348526
 30
0.0
 70
    32
  0
VERTEX
  5
338FD
  8
0
 10
304.65266072651031
 20
85.545379399704245
 30
0.0
 70
    32
  0
VERTEX
  5
338FE
  8
0
 10
304.69871166262328
 20
85.07739871522034
 30
0.0
 70
    32
  0
VERTEX
  5
338FF
  8
0
 10
304.70461669698312
 20
84.842417571806493
 30
0.0
 70
    32
  0
SEQEND
  5
33900
  8
0
  0
POLYLINE
  5
33901
  8
0
 66
     1
 10
0.0
 20
0.0
 30
0.0
 70
     8
  0
VERTEX
  5
33902
  8
0
 10
304.70461669698312
 20
84.842417571806493
 30
0.0
 70
    32
  0
VERTEX
  5
33903
  8
0
 10
304.69871166262323
 20
84.607436428392646
 30
0.0
 70
    32
  0
VERTEX
  5
33904
  8
0
 10
304.65266072651002
 20
84.139455743908741
 30
0.0
 70
    32
  0
VERTEX
  5
33905
  8
0
 10
304.56114510019182
 20
83.654864162264445
 30
0.0
 70
    32
  0
VERTEX
  5
33906
  8
0
 10
304.49735727534619
 20
83.399041898832422
 30
0.0
 70
    32
  0
SEQEND
  5
33907
  8
0
  0
POLYLINE
  5
33908
  8
0
 66
     1
 10
0.0
 20
0.0
 30
0.0
 70
     8
  0
VERTEX
  5
33909
  8
0
 10
300.41187611861989
 20
83.399041898832422
 30
0.0
 70
    32
  0
VERTEX
  5
3390A
  8
0
 10
300.34808829377442
 20
83.654864162264445
 30
0.0
 70
    32
  0
VERTEX
  5
3390B
  8
0
 10
300.25657266745588
 20
84.139455743908741
 30
0.0
 70
    32
  0
VERTEX
  5
3390C
  8
0
 10
300.21052173134279
 20
84.607436428392646
 30
0.0
 70
    32
  0
VERTEX
  5
3390D
  8
0
 10
300.20461669698312
 20
84.842417571806493
 30
0.0
 70
    32
  0
SEQEND
  5
3390E
  8
0
  0
POLYLINE
  5
3390F
  8
0
 66
     1
 10
0.0
 20
0.0
 30
0.0
 70
     8
  0
VERTEX
  5
33910
  8
0
 10
300.20461669698312
 20
84.842417571806493
 30
0.0
 70
    32
  0
VERTEX
  5
33911
  8
0
 10
300.21052173134302
 20
85.07739871522034
 30
0.0
 70
    32
  0
VERTEX
  5
33912
  8
0
 10
300.25657266745611
 20
85.545379399704245
 30
0.0
 70
    32
  0
VERTEX
  5
33913
  8
0
 10
300.34808829377442
 20
86.029970981348526
 30
0.0
 70
    32
  0
VERTEX
  5
33914
  8
0
 10
300.41187611861989
 20
86.285793244780564
 30
0.0
 70
    32
  0
SEQEND
  5
33915
  8
0
  0
LINE
  5
33916
  8
0
 10
304.49735727534619
 20
83.399041898832422
 30
0.0
 11
300.41187611861989
 21
83.399041898832422
 31
0.0
  0
LINE
  5
33917
  8
0
 10
304.49735727534619
 20
94.946047282624988
 30
0.0
 11
300.41187611861989
 21
94.946047282624988
 31
0.0
  0
LINE
  5
33918
  8
0
 10
307.4321166969832
 20
89.172544590728705
 30
0.0
 11
313.42711669698298
 21
89.172544590728705
 31
0.0
  0
ARC
  5
33919
  8
0
 10
308.20461669698318
 20
80.992815008079845
 30
0.0
 40
0.5000000000000391
 50
180.0
 51
195.9999999999948
  0
ARC
  5
3391A
  8
0
 10
308.20461669698318
 20
97.352274173377467
 30
0.0
 40
0.500000000000039
 50
164.0000000000052
 51
180.0
  0
LINE
  5
3391B
  8
0
 10
309.71918579077828
 20
104.4481819465457
 30
0.0
 11
307.7239858490139
 21
97.490092851285965
 31
0.0
  0
LINE
  5
3391C
  8
0
 10
307.7239858490139
 20
80.854996330171346
 30
0.0
 11
309.71918579077828
 21
73.89690723491168
 31
0.0
  0
ARC
  5
3391D
  8
0
 10
310.68044748671662
 20
74.172544590728705
 30
0.0
 40
1.0000000000000031
 50
196.00000000000151
 51
241.58654354456101
  0
ARC
  5
3391E
  8
0
 10
310.68044748671662
 20
104.17254459072871
 30
0.0
 40
0.9999999999999996
 50
118.4134564554389
 51
163.99999999999841
  0
LINE
  5
3391F
  8
0
 10
307.70461669698312
 20
80.992815008079845
 30
0.0
 11
307.70461669698312
 21
97.352274173377467
 31
0.0
  0
LINE
  5
33920
  8
0
 10
307.7239858490139
 20
80.854996330171346
 30
0.0
 11
307.7239858490139
 21
97.490092851285965
 31
0.0
  0
LINE
  5
33921
  8
0
 10
309.71918579077828
 20
73.89690723491168
 30
0.0
 11
309.71918579077828
 21
104.4481819465457
 31
0.0
  0
LINE
  5
33922
  8
0
 10
336.97711669698299
 20
89.172544590728705
 30
0.0
 11
330.9821166969831
 21
89.172544590728705
 31
0.0
  0
ARC
  5
33923
  8
0
 10
336.2046166969829
 20
97.352274173377467
 30
0.0
 40
0.5000000000000391
 50
0.0
 51
15.999999999994801
  0
ARC
  5
33924
  8
0
 10
336.2046166969829
 20
80.992815008079845
 30
0.0
 40
0.500000000000039
 50
343.99999999999852
 51
0.0
  0
LINE
  5
33925
  8
0
 10
334.69004760318791
 20
73.89690723491168
 30
0.0
 11
336.68524754495218
 21
80.854996330171346
 31
0.0
  0
LINE
  5
33926
  8
0
 10
336.68524754495218
 20
97.490092851285965
 30
0.0
 11
334.69004760318791
 21
104.4481819465457
 31
0.0
  0
ARC
  5
33927
  8
0
 10
333.72878590724952
 20
104.17254459072871
 30
0.0
 40
1.0000000000000151
 50
16.000000000001531
 51
61.586543544561032
  0
ARC
  5
33928
  8
0
 10
333.72878590724952
 20
74.172544590728705
 30
0.0
 40
1.0000000000000071
 50
298.4134564554389
 51
343.99999999999852
  0
LINE
  5
33929
  8
0
 10
336.70461669698312
 20
97.352274173377467
 30
0.0
 11
336.70461669698312
 21
80.992815008079845
 31
0.0
  0
LINE
  5
3392A
  8
0
 10
336.68524754495218
 20
97.490092851285965
 30
0.0
 11
336.68524754495218
 21
80.854996330171346
 31
0.0
  0
LINE
  5
3392B
  8
0
 10
334.69004760318791
 20
104.4481819465457
 30
0.0
 11
334.69004760318791
 21
73.89690723491168
 31
0.0
  0
LINE
  5
3392D
  8
1
 10
349.904616696983
 20
89.172544590728705
 30
0.0
 11
295.20461669698312
 21
89.172544590728705
 31
0.0
  0
ARC
  5
3392E
  8
0
 10
331.70461669698312
 20
115.67254459072871
 30
0.0
 40
2.500000000000004
 50
0.0
 51
77.98198808501165
  0
ARC
  5
3392F
  8
0
 10
331.70461669698312
 20
62.672544590728698
 30
0.0
 40
2.499999999999996
 50
282.01801191498828
 51
0.0
  0
ARC
  5
33930
  8
0
 10
322.20461669698301
 20
71.047544590728933
 30
0.0
 40
48.12499999999968
 50
77.98198808501165
 51
102.01801191498831
  0
ARC
  5
33931
  8
0
 10
322.20461669698301
 20
107.29754459072861
 30
0.0
 40
48.124999999999851
 50
257.98198808501161
 51
282.01801191498828
  0
ARC
  5
33932
  8
0
 10
312.70461669698312
 20
115.67254459072871
 30
0.0
 40
2.499999999999996
 50
102.01801191498831
 51
180.0
  0
ARC
  5
33933
  8
0
 10
312.70461669698312
 20
62.672544590728698
 30
0.0
 40
2.499999999999996
 50
180.0
 51
257.98198808501161
  0
LINE
  5
33934
  8
0
 10
334.20461669698312
 20
115.67254459072871
 30
0.0
 11
334.20461669698312
 21
62.672544590728698
 31
0.0
  0
LINE
  5
33935
  8
0
 10
332.22516464218859
 20
118.11775007018061
 30
0.0
 11
332.22516464218859
 21
60.227339111276763
 31
0.0
  0
LINE
  5
33936
  8
0
 10
312.18406875177749
 20
118.1177500701807
 30
0.0
 11
312.18406875177749
 21
60.227339111276649
 31
0.0
  0
LINE
  5
33937
  8
0
 10
310.20461669698312
 20
115.67254459072871
 30
0.0
 11
310.20461669698312
 21
62.672544590728698
 31
0.0
  0
LINE
  5
33938
  8
0
 10
339.47961669698299
 20
89.172544590728705
 30
0.0
 11
344.42961669698309
 21
89.172544590728705
 31
0.0
  0
LINE
  5
33939
  8
0
 10
339.70461669698312
 20
84.172544590728705
 30
0.0
 11
339.91187611861989
 21
83.399041898832422
 31
0.0
  0
LINE
  5
3393A
  8
0
 10
339.91187611861989
 20
94.946047282624988
 30
0.0
 11
339.70461669698312
 21
94.172544590728705
 31
0.0
  0
LINE
  5
3393B
  8
0
 10
343.99735727534619
 20
83.399041898832422
 30
0.0
 11
344.20461669698312
 21
84.172544590728705
 31
0.0
  0
LINE
  5
3393C
  8
0
 10
344.20461669698312
 20
94.172544590728705
 30
0.0
 11
343.99735727534619
 21
94.946047282624988
 31
0.0
  0
LINE
  5
3393D
  8
0
 10
344.20461669698312
 20
84.172544590728705
 30
0.0
 11
344.20461669698312
 21
94.172544590728705
 31
0.0
  0
POLYLINE
  5
3393E
  8
0
 66
     1
 10
0.0
 20
0.0
 30
0.0
 70
     8
  0
VERTEX
  5
3393F
  8
0
 10
339.91187611861989
 20
92.059295936676847
 30
0.0
 70
    32
  0
VERTEX
  5
33940
  8
0
 10
339.84839747831512
 20
92.313774184977845
 30
0.0
 70
    32
  0
VERTEX
  5
33941
  8
0
 10
339.7569051080128
 20
92.797421501687765
 30
0.0
 70
    32
  0
VERTEX
  5
33942
  8
0
 10
339.7105850834397
 20
93.266430546143113
 30
0.0
 70
    32
  0
VERTEX
  5
33943
  8
0
 10
339.70461669698312
 20
93.502671609650918
 30
0.0
 70
    32
  0
SEQEND
  5
33944
  8
0
  0
POLYLINE
  5
33945
  8
0
 66
     1
 10
0.0
 20
0.0
 30
0.0
 70
     8
  0
VERTEX
  5
33946
  8
0
 10
339.70461669698312
 20
93.502671609650918
 30
0.0
 70
    32
  0
VERTEX
  5
33947
  8
0
 10
339.7105850834397
 20
93.738912673158595
 30
0.0
 70
    32
  0
VERTEX
  5
33948
  8
0
 10
339.7569051080128
 20
94.207921717613942
 30
0.0
 70
    32
  0
VERTEX
  5
33949
  8
0
 10
339.84839747831512
 20
94.691569034323905
 30
0.0
 70
    32
  0
VERTEX
  5
3394A
  8
0
 10
339.91187611861989
 20
94.946047282624988
 30
0.0
 70
    32
  0
SEQEND
  5
3394B
  8
0
  0
POLYLINE
  5
3394C
  8
0
 66
     1
 10
0.0
 20
0.0
 30
0.0
 70
     8
  0
VERTEX
  5
3394D
  8
0
 10
343.99735727534619
 20
94.946047282624988
 30
0.0
 70
    32
  0
VERTEX
  5
3394E
  8
0
 10
344.06083591565113
 20
94.691569034323905
 30
0.0
 70
    32
  0
VERTEX
  5
3394F
  8
0
 10
344.15232828595327
 20
94.207921717613942
 30
0.0
 70
    32
  0
VERTEX
  5
33950
  8
0
 10
344.19864831052638
 20
93.738912673158595
 30
0.0
 70
    32
  0
VERTEX
  5
33951
  8
0
 10
344.20461669698312
 20
93.502671609650918
 30
0.0
 70
    32
  0
SEQEND
  5
33952
  8
0
  0
POLYLINE
  5
33953
  8
0
 66
     1
 10
0.0
 20
0.0
 30
0.0
 70
     8
  0
VERTEX
  5
33954
  8
0
 10
344.20461669698312
 20
93.502671609650918
 30
0.0
 70
    32
  0
VERTEX
  5
33955
  8
0
 10
344.19864831052638
 20
93.266430546143113
 30
0.0
 70
    32
  0
VERTEX
  5
33956
  8
0
 10
344.15232828595327
 20
92.797421501687765
 30
0.0
 70
    32
  0
VERTEX
  5
33957
  8
0
 10
344.06083591565113
 20
92.313774184977845
 30
0.0
 70
    32
  0
VERTEX
  5
33958
  8
0
 10
343.99735727534619
 20
92.059295936676847
 30
0.0
 70
    32
  0
SEQEND
  5
33959
  8
0
  0
LINE
  5
3395A
  8
0
 10
339.91187611861989
 20
94.946047282624988
 30
0.0
 11
343.99735727534619
 21
94.946047282624988
 31
0.0
  0
POLYLINE
  5
3395B
  8
0
 66
     1
 10
0.0
 20
0.0
 30
0.0
 70
     8
  0
VERTEX
  5
3395C
  8
0
 10
344.20461669698312
 20
84.842417571806493
 30
0.0
 70
    32
  0
VERTEX
  5
3395D
  8
0
 10
344.19864831052638
 20
84.606176508298688
 30
0.0
 70
    32
  0
VERTEX
  5
3395E
  8
0
 10
344.15232828595327
 20
84.137167463843468
 30
0.0
 70
    32
  0
VERTEX
  5
3395F
  8
0
 10
344.06083591565113
 20
83.653520147133506
 30
0.0
 70
    32
  0
VERTEX
  5
33960
  8
0
 10
343.99735727534619
 20
83.399041898832422
 30
0.0
 70
    32
  0
SEQEND
  5
33961
  8
0
  0
POLYLINE
  5
33962
  8
0
 66
     1
 10
0.0
 20
0.0
 30
0.0
 70
     8
  0
VERTEX
  5
33963
  8
0
 10
339.91187611861989
 20
83.399041898832422
 30
0.0
 70
    32
  0
VERTEX
  5
33964
  8
0
 10
339.84839747831512
 20
83.653520147133506
 30
0.0
 70
    32
  0
VERTEX
  5
33965
  8
0
 10
339.7569051080128
 20
84.137167463843468
 30
0.0
 70
    32
  0
VERTEX
  5
33966
  8
0
 10
339.7105850834397
 20
84.606176508298688
 30
0.0
 70
    32
  0
VERTEX
  5
33967
  8
0
 10
339.70461669698312
 20
84.842417571806493
 30
0.0
 70
    32
  0
SEQEND
  5
33968
  8
0
  0
POLYLINE
  5
33969
  8
0
 66
     1
 10
0.0
 20
0.0
 30
0.0
 70
     8
  0
VERTEX
  5
3396A
  8
0
 10
339.70461669698312
 20
84.842417571806493
 30
0.0
 70
    32
  0
VERTEX
  5
3396B
  8
0
 10
339.7105850834397
 20
85.078658635314298
 30
0.0
 70
    32
  0
VERTEX
  5
3396C
  8
0
 10
339.7569051080128
 20
85.547667679769518
 30
0.0
 70
    32
  0
VERTEX
  5
3396D
  8
0
 10
339.84839747831512
 20
86.031314996479466
 30
0.0
 70
    32
  0
VERTEX
  5
3396E
  8
0
 10
339.91187611861989
 20
86.285793244780564
 30
0.0
 70
    32
  0
SEQEND
  5
3396F
  8
0
  0
POLYLINE
  5
33970
  8
0
 66
     1
 10
0.0
 20
0.0
 30
0.0
 70
     8
  0
VERTEX
  5
33971
  8
0
 10
343.99735727534619
 20
86.285793244780564
 30
0.0
 70
    32
  0
VERTEX
  5
33972
  8
0
 10
344.06083591565113
 20
86.031314996479466
 30
0.0
 70
    32
  0
VERTEX
  5
33973
  8
0
 10
344.15232828595327
 20
85.547667679769518
 30
0.0
 70
    32
  0
VERTEX
  5
33974
  8
0
 10
344.19864831052638
 20
85.078658635314298
 30
0.0
 70
    32
  0
VERTEX
  5
33975
  8
0
 10
344.20461669698312
 20
84.842417571806493
 30
0.0
 70
    32
  0
SEQEND
  5
33976
  8
0
  0
LINE
  5
33977
  8
0
 10
339.91187611861989
 20
83.399041898832422
 30
0.0
 11
343.99735727534619
 21
83.399041898832422
 31
0.0
  0
POLYLINE
  5
33978
  8
0
 66
     1
 10
0.0
 20
0.0
 30
0.0
 70
     8
  0
VERTEX
  5
33979
  8
0
 10
344.20461669698312
 20
89.172544590728705
 30
0.0
 70
    32
  0
VERTEX
  5
3397A
  8
0
 10
344.19864831052638
 20
88.700062463713095
 30
0.0
 70
    32
  0
VERTEX
  5
3397B
  8
0
 10
344.15232828595327
 20
87.762044374802542
 30
0.0
 70
    32
  0
VERTEX
  5
3397C
  8
0
 10
344.06083591565113
 20
86.794749741382645
 30
0.0
 70
    32
  0
VERTEX
  5
3397D
  8
0
 10
343.99735727534619
 20
86.285793244780564
 30
0.0
 70
    32
  0
SEQEND
  5
3397E
  8
0
  0
LINE
  5
3397F
  8
0
 10
339.91187611861989
 20
86.285793244780564
 30
0.0
 11
343.99735727534619
 21
86.285793244780564
 31
0.0
  0
POLYLINE
  5
33980
  8
0
 66
     1
 10
0.0
 20
0.0
 30
0.0
 70
     8
  0
VERTEX
  5
33981
  8
0
 10
339.91187611861989
 20
86.285793244780564
 30
0.0
 70
    32
  0
VERTEX
  5
33982
  8
0
 10
339.84839747831512
 20
86.794749741382645
 30
0.0
 70
    32
  0
VERTEX
  5
33983
  8
0
 10
339.7569051080128
 20
87.762044374802542
 30
0.0
 70
    32
  0
VERTEX
  5
33984
  8
0
 10
339.7105850834397
 20
88.700062463713095
 30
0.0
 70
    32
  0
VERTEX
  5
33985
  8
0
 10
339.70461669698312
 20
89.172544590728705
 30
0.0
 70
    32
  0
SEQEND
  5
33986
  8
0
  0
POLYLINE
  5
33987
  8
0
 66
     1
 10
0.0
 20
0.0
 30
0.0
 70
     8
  0
VERTEX
  5
33988
  8
0
 10
339.70461669698312
 20
89.172544590728705
 30
0.0
 70
    32
  0
VERTEX
  5
33989
  8
0
 10
339.7105850834397
 20
89.645026717744202
 30
0.0
 70
    32
  0
VERTEX
  5
3398A
  8
0
 10
339.7569051080128
 20
90.583044806654755
 30
0.0
 70
    32
  0
VERTEX
  5
3398B
  8
0
 10
339.84839747831512
 20
91.550339440074652
 30
0.0
 70
    32
  0
VERTEX
  5
3398C
  8
0
 10
339.91187611861989
 20
92.059295936676847
 30
0.0
 70
    32
  0
SEQEND
  5
3398D
  8
0
  0
LINE
  5
3398E
  8
0
 10
339.91187611861989
 20
92.059295936676847
 30
0.0
 11
343.99735727534619
 21
92.059295936676847
 31
0.0
  0
POLYLINE
  5
3398F
  8
0
 66
     1
 10
0.0
 20
0.0
 30
0.0
 70
     8
  0
VERTEX
  5
33990
  8
0
 10
343.99735727534619
 20
92.059295936676847
 30
0.0
 70
    32
  0
VERTEX
  5
33991
  8
0
 10
344.06083591565113
 20
91.550339440074652
 30
0.0
 70
    32
  0
VERTEX
  5
33992
  8
0
 10
344.15232828595327
 20
90.583044806654755
 30
0.0
 70
    32
  0
VERTEX
  5
33993
  8
0
 10
344.19864831052638
 20
89.645026717744202
 30
0.0
 70
    32
  0
VERTEX
  5
33994
  8
0
 10
344.20461669698312
 20
89.172544590728705
 30
0.0
 70
    32
  0
SEQEND
  5
33995
  8
0
  0
LINE
  5
33996
  8
1
 10
322.20461669698312
 20
147.17254459072871
 30
0.0
 11
322.20461669698312
 21
54.172544590728762
 31
0.0
  0
LINE
  5
33997
  8
0
 10
337.70461669698312
 20
80.172544590728705
 30
0.0
 11
339.70461669698312
 21
80.172544590728705
 31
0.0
  0
LINE
  5
33998
  8
0
 10
304.70461669698312
 20
80.172544590728705
 30
0.0
 11
306.70461669698312
 21
80.172544590728705
 31
0.0
  0
ARC
  5
33999
  8
0
 10
312.20461669698312
 20
140.67254459072871
 30
0.0
 40
2.0000000000000071
 50
194.4775121859299
 51
270.0
  0
ARC
  5
3399A
  8
0
 10
332.20461669698312
 20
140.67254459072871
 30
0.0
 40
2.0000000000000062
 50
270.0
 51
345.52248781407008
  0
ARC
  5
3399B
  8
0
 10
352.20461669698312
 20
138.67254459072871
 30
0.0
 40
1.5
 50
0.0
 51
90.0
  0
LINE
  5
3399C
  8
0
 10
355.70461669698312
 20
138.67254459072871
 30
0.0
 11
355.70461669698312
 21
131.31952613376399
 31
0.0
  0
ARC
  5
3399D
  8
0
 10
351.70461669687791
 20
131.31952613376481
 30
0.0
 40
4.0000000001051879
 50
359.32702349335369
 51
0.0
  0
ARC
  5
3399E
  8
0
 10
351.70461669697158
 20
131.31952613376399
 30
0.0
 40
2.0000000000114779
 50
358.65395412015653
 51
0.0
  0
LINE
  5
3399F
  8
0
 10
353.70461669698301
 20
131.31952613376379
 30
0.0
 11
353.70461669698301
 21
138.67254459072871
 31
0.0
  0
LINE
  5
339A0
  8
0
 10
337.70461669698312
 20
82.254792432139823
 30
0.0
 11
339.70461669698312
 21
82.254792432139823
 31
0.0
  0
LINE
  5
339A1
  8
0
 10
304.70461669698312
 20
82.254792432139823
 30
0.0
 11
306.70461669698312
 21
82.254792432139823
 31
0.0
  0
LINE
  5
339A2
  8
0
 10
337.70461669698312
 20
95.772544590728614
 30
0.0
 11
339.70461669698312
 21
95.772544590728614
 31
0.0
  0
LINE
  5
339A3
  8
0
 10
304.70461669698312
 20
95.772544590728614
 30
0.0
 11
306.70461669698312
 21
95.772544590728614
 31
0.0
  0
POLYLINE
  5
339A4
  8
0
 66
     1
 10
0.0
 20
0.0
 30
0.0
 70
     8
  0
VERTEX
  5
339A5
  8
0
 10
337.70461669698312
 20
103.42021058303661
 30
0.0
 70
    32
  0
VERTEX
  5
339A6
  8
0
 10
337.705338738607
 20
103.51329107585271
 30
0.0
 70
    32
  0
VERTEX
  5
339A7
  8
0
 10
337.7111140289519
 20
103.6993624562231
 30
0.0
 70
    32
  0
VERTEX
  5
339A8
  8
0
 10
337.7226590499763
 20
103.8851651070682
 30
0.0
 70
    32
  0
VERTEX
  5
339A9
  8
0
 10
337.73059195308417
 20
103.9779097486129
 30
0.0
 70
    32
  0
VERTEX
  5
339AA
  8
0
 10
337.73996268770122
 20
104.0705201628207
 30
0.0
 70
    32
  0
VERTEX
  5
339AB
  8
0
 10
337.76300828453361
 20
104.25524918879699
 30
0.0
 70
    32
  0
VERTEX
  5
339AC
  8
0
 10
337.79177365530143
 20
104.4391743529701
 30
0.0
 70
    32
  0
VERTEX
  5
339AD
  8
0
 10
337.82623110861101
 20
104.622118597162
 30
0.0
 70
    32
  0
VERTEX
  5
339AE
  8
0
 10
337.86634747350411
 20
104.8039058074913
 30
0.0
 70
    32
  0
VERTEX
  5
339AF
  8
0
 10
337.91208413139111
 20
104.9843609839115
 30
0.0
 70
    32
  0
VERTEX
  5
339B0
  8
0
 10
337.93704652135318
 20
105.0740347179387
 30
0.0
 70
    32
  0
VERTEX
  5
339B1
  8
0
 10
337.96339705322703
 20
105.1633104086777
 30
0.0
 70
    32
  0
VERTEX
  5
339B2
  8
0
 10
338.02023684189709
 20
105.3405818135784
 30
0.0
 70
    32
  0
VERTEX
  5
339B3
  8
0
 10
338.0825487797693
 20
105.51600454577159
 30
0.0
 70
    32
  0
VERTEX
  5
339B4
  8
0
 10
338.15027288136969
 20
105.68940973206649
 30
0.0
 70
    32
  0
VERTEX
  5
339B5
  8
0
 10
338.2233439511275
 20
105.8606304414914
 30
0.0
 70
    32
  0
VERTEX
  5
339B6
  8
0
 10
338.30169164613687
 20
106.0295018459927
 30
0.0
 70
    32
  0
VERTEX
  5
339B7
  8
0
 10
338.34282085504248
 20
106.1130056642394
 30
0.0
 70
    32
  0
VERTEX
  5
339B8
  8
0
 10
338.38524054387392
 20
106.19586137910829
 30
0.0
 70
    32
  0
VERTEX
  5
339B9
  8
0
 10
338.47391021480252
 20
106.3595488924651
 30
0.0
 70
    32
  0
VERTEX
  5
339BA
  8
0
 10
338.56761529980139
 20
106.5204068099478
 30
0.0
 70
    32
  0
VERTEX
  5
339BB
  8
0
 10
338.6163281200445
 20
106.59972616843589
 30
0.0
 70
    32
  0
SEQEND
  5
339BC
  8
0
  0
LINE
  5
339BD
  8
0
 10
338.6163281200445
 20
106.59972616843589
 30
0.0
 11
353.40071288929602
 21
130.2596876052975
 31
0.0
  0
POLYLINE
  5
339BE
  8
0
 66
     1
 10
0.0
 20
0.0
 30
0.0
 70
     8
  0
VERTEX
  5
339BF
  8
0
 10
353.40071288929602
 20
130.2596876052975
 30
0.0
 70
    32
  0
VERTEX
  5
339C0
  8
0
 10
353.41627575462411
 20
130.28501017429531
 30
0.0
 70
    32
  0
VERTEX
  5
339C1
  8
0
 10
353.44626402658048
 20
130.33633511503649
 30
0.0
 70
    32
  0
VERTEX
  5
339C2
  8
0
 10
353.47471375079942
 20
130.38852859344991
 30
0.0
 70
    32
  0
VERTEX
  5
339C3
  8
0
 10
353.48835375001897
 20
130.41493665470341
 30
0.0
 70
    32
  0
VERTEX
  5
339C4
  8
0
 10
353.50159979517872
 20
130.44154450252131
 30
0.0
 70
    32
  0
VERTEX
  5
339C5
  8
0
 10
353.52689840894948
 20
130.49533600871229
 30
0.0
 70
    32
  0
VERTEX
  5
339C6
  8
0
 10
353.5505872436583
 20
130.5498555933325
 30
0.0
 70
    32
  0
VERTEX
  5
339C7
  8
0
 10
353.57264537290791
 20
130.60505509451721
 30
0.0
 70
    32
  0
VERTEX
  5
339C8
  8
0
 10
353.59305331084522
 20
130.66088574977189
 30
0.0
 70
    32
  0
VERTEX
  5
339C9
  8
0
 10
353.61179302937302
 20
130.71729823904971
 30
0.0
 70
    32
  0
VERTEX
  5
339CA
  8
0
 10
353.62053207512929
 20
130.7457071171892
 30
0.0
 70
    32
  0
VERTEX
  5
339CB
  8
0
 10
353.62884797407708
 20
130.77424272831931
 30
0.0
 70
    32
  0
VERTEX
  5
339CC
  8
0
 10
353.6442030788495
 20
130.83166891358741
 30
0.0
 70
    32
  0
VERTEX
  5
339CD
  8
0
 10
353.65784477919811
 20
130.88952606533741
 30
0.0
 70
    32
  0
VERTEX
  5
339CE
  8
0
 10
353.66976102422882
 20
130.94776307334249
 30
0.0
 70
    32
  0
VERTEX
  5
339CF
  8
0
 10
353.67994128729191
 20
131.00632849181619
 30
0.0
 70
    32
  0
VERTEX
  5
339D0
  8
0
 10
353.68837657528007
 20
131.06517058485829
 30
0.0
 70
    32
  0
VERTEX
  5
339D1
  8
0
 10
353.69193746458637
 20
131.09467914878849
 30
0.0
 70
    32
  0
VERTEX
  5
339D2
  8
0
 10
353.69505943657413
 20
131.12423737215829
 30
0.0
 70
    32
  0
VERTEX
  5
339D3
  8
0
 10
353.69998396762452
 20
131.18347667491381
 30
0.0
 70
    32
  0
VERTEX
  5
339D4
  8
0
 10
353.70314581816672
 20
131.2428361619246
 30
0.0
 70
    32
  0
VERTEX
  5
339D5
  8
0
 10
353.70406480449032
 20
131.27254459072859
 30
0.0
 70
    32
  0
SEQEND
  5
339D6
  8
0
  0
LINE
  5
339D7
  8
0
 10
353.70406480449032
 20
131.27254459072859
 30
0.0
 11
355.70434077929349
 21
131.27254459072859
 31
0.0
  0
POLYLINE
  5
339D8
  8
0
 66
     1
 10
0.0
 20
0.0
 30
0.0
 70
     8
  0
VERTEX
  5
339D9
  8
0
 10
355.70434077929349
 20
131.27254459072859
 30
0.0
 70
    32
  0
VERTEX
  5
339DA
  8
0
 10
355.70316596587571
 20
131.2118054568345
 30
0.0
 70
    32
  0
VERTEX
  5
339DB
  8
0
 10
355.69804985973769
 20
131.09041573545881
 30
0.0
 70
    32
  0
VERTEX
  5
339DC
  8
0
 10
355.68924940243039
 20
130.96923739189509
 30
0.0
 70
    32
  0
VERTEX
  5
339DD
  8
0
 10
355.6834699467791
 20
130.90876243455619
 30
0.0
 70
    32
  0
VERTEX
  5
339DE
  8
0
 10
355.67677271327688
 20
130.8483822255784
 30
0.0
 70
    32
  0
VERTEX
  5
339DF
  8
0
 10
355.66063130330127
 20
130.72796173777971
 30
0.0
 70
    32
  0
VERTEX
  5
339E0
  8
0
 10
355.6408400646078
 20
130.60808702873459
 30
0.0
 70
    32
  0
VERTEX
  5
339E1
  8
0
 10
355.61741725664132
 20
130.4888686951418
 30
0.0
 70
    32
  0
VERTEX
  5
339E2
  8
0
 10
355.59038448934149
 20
130.37041672812649
 30
0.0
 70
    32
  0
VERTEX
  5
339E3
  8
0
 10
355.55976670320558
 20
130.25284041176209
 30
0.0
 70
    32
  0
VERTEX
  5
339E4
  8
0
 10
355.54312212707862
 20
130.1944145556852
 30
0.0
 70
    32
  0
VERTEX
  5
339E5
  8
0
 10
355.52559214627752
 20
130.13624822224489
 30
0.0
 70
    32
  0
VERTEX
  5
339E6
  8
0
 10
355.48789234808692
 20
130.0207477278127
 30
0.0
 70
    32
  0
VERTEX
  5
339E7
  8
0
 10
355.44670209055943
 20
129.9064454895036
 30
0.0
 70
    32
  0
VERTEX
  5
339E8
  8
0
 10
355.40205937592691
 20
129.7934469628409
 30
0.0
 70
    32
  0
VERTEX
  5
339E9
  8
0
 10
355.35400539166687
 20
129.68185640054111
 30
0.0
 70
    32
  0
VERTEX
  5
339EA
  8
0
 10
355.30258447250219
 20
129.5717767563286
 30
0.0
 70
    32
  0
VERTEX
  5
339EB
  8
0
 10
355.27562611749948
 20
129.51733532294989
 30
0.0
 70
    32
  0
VERTEX
  5
339EC
  8
0
 10
355.2478440594985
 20
129.46330958995159
 30
0.0
 70
    32
  0
VERTEX
  5
339ED
  8
0
 10
355.1898346562939
 20
129.3565549734823
 30
0.0
 70
    32
  0
VERTEX
  5
339EE
  8
0
 10
355.12860978250541
 20
129.25161139898981
 30
0.0
 70
    32
  0
VERTEX
  5
339EF
  8
0
 10
355.0968090816088
 20
129.19984907683099
 30
0.0
 70
    32
  0
SEQEND
  5
339F0
  8
0
  0
LINE
  5
339F1
  8
0
 10
355.0968090816088
 20
129.19984907683099
 30
0.0
 11
340.31242431235739
 21
105.53988763996939
 31
0.0
  0
POLYLINE
  5
339F2
  8
0
 66
     1
 10
0.0
 20
0.0
 30
0.0
 70
     8
  0
VERTEX
  5
339F3
  8
0
 10
340.31242431235739
 20
105.53988763996939
 30
0.0
 70
    32
  0
VERTEX
  5
339F4
  8
0
 10
340.27994909886189
 20
105.487008067644
 30
0.0
 70
    32
  0
VERTEX
  5
339F5
  8
0
 10
340.21747904219598
 20
105.37976945598901
 30
0.0
 70
    32
  0
VERTEX
  5
339F6
  8
0
 10
340.1583659282436
 20
105.27064444708439
 30
0.0
 70
    32
  0
VERTEX
  5
339F7
  8
0
 10
340.13008613568951
 20
105.2154073038385
 30
0.0
 70
    32
  0
VERTEX
  5
339F8
  8
0
 10
340.1026666630857
 20
105.159738091674
 30
0.0
 70
    32
  0
VERTEX
  5
339F9
  8
0
 10
340.05043486641267
 20
105.0471571553398
 30
0.0
 70
    32
  0
VERTEX
  5
339FA
  8
0
 10
340.00172081990752
 20
104.9330100157231
 30
0.0
 70
    32
  0
VERTEX
  5
339FB
  8
0
 10
339.95657141884061
 20
104.8174065581933
 30
0.0
 70
    32
  0
VERTEX
  5
339FC
  8
0
 10
339.91503012692573
 20
104.7004580700645
 30
0.0
 70
    32
  0
VERTEX
  5
339FD
  8
0
 10
339.87713693447898
 20
104.582277133464
 30
0.0
 70
    32
  0
VERTEX
  5
339FE
  8
0
 10
339.85956991322979
 20
104.52276000630459
 30
0.0
 70
    32
  0
VERTEX
  5
339FF
  8
0
 10
339.84292831992173
 20
104.4629775169532
 30
0.0
 70
    32
  0
VERTEX
  5
33A00
  8
0
 10
339.81243721466382
 20
104.3426740660064
 30
0.0
 70
    32
  0
VERTEX
  5
33A01
  8
0
 10
339.78569297140172
 20
104.2214825924536
 30
0.0
 70
    32
  0
VERTEX
  5
33A02
  8
0
 10
339.76272133586201
 20
104.0995197629923
 30
0.0
 70
    32
  0
VERTEX
  5
33A03
  8
0
 10
339.74354442201673
 20
103.97690298687689
 30
0.0
 70
    32
  0
VERTEX
  5
33A04
  8
0
 10
339.72818069079528
 20
103.85375030289271
 30
0.0
 70
    32
  0
VERTEX
  5
33A05
  8
0
 10
339.72193353438388
 20
103.7920100267542
 30
0.0
 70
    32
  0
VERTEX
  5
33A06
  8
0
 10
339.71664493231191
 20
103.7301802657243
 30
0.0
 70
    32
  0
VERTEX
  5
33A07
  8
0
 10
339.7089482516289
 20
103.6063118318275
 30
0.0
 70
    32
  0
VERTEX
  5
33A08
  8
0
 10
339.70509805806569
 20
103.48226424491401
 30
0.0
 70
    32
  0
VERTEX
  5
33A09
  8
0
 10
339.70461669698312
 20
103.42021058303661
 30
0.0
 70
    32
  0
SEQEND
  5
33A0A
  8
0
  0
LINE
  5
33A0B
  8
0
 10
339.70461669698312
 20
103.42021058303661
 30
0.0
 11
339.70461669698312
 21
80.172544590728705
 31
0.0
  0
LINE
  5
33A0C
  8
0
 10
337.70461669698312
 20
103.0725445907286
 30
0.0
 11
339.70461669698312
 21
103.0725445907286
 31
0.0
  0
LINE
  5
33A0D
  8
0
 10
337.70461669698312
 20
80.172544590728705
 30
0.0
 11
337.70461669698312
 21
103.42021058303661
 31
0.0
  0
LINE
  5
33A0E
  8
0
 10
304.70461669698312
 20
103.0725445907286
 30
0.0
 11
306.70461669698312
 21
103.0725445907286
 31
0.0
  0
LINE
  5
33A0F
  8
0
 10
304.70461669698312
 20
80.172544590728705
 30
0.0
 11
304.70461669698312
 21
103.42021058303661
 31
0.0
  0
POLYLINE
  5
33A10
  8
0
 66
     1
 10
0.0
 20
0.0
 30
0.0
 70
     8
  0
VERTEX
  5
33A11
  8
0
 10
304.70461669698312
 20
103.42021058303661
 30
0.0
 70
    32
  0
VERTEX
  5
33A12
  8
0
 10
304.70413533590039
 20
103.48226424491401
 30
0.0
 70
    32
  0
VERTEX
  5
33A13
  8
0
 10
304.70028514233718
 20
103.6063118318275
 30
0.0
 70
    32
  0
VERTEX
  5
33A14
  8
0
 10
304.69258846165428
 20
103.7301802657243
 30
0.0
 70
    32
  0
VERTEX
  5
33A15
  8
0
 10
304.68729985958242
 20
103.7920100267542
 30
0.0
 70
    32
  0
VERTEX
  5
33A16
  8
0
 10
304.68105270317091
 20
103.85375030289271
 30
0.0
 70
    32
  0
VERTEX
  5
33A17
  8
0
 10
304.66568897194941
 20
103.97690298687689
 30
0.0
 70
    32
  0
VERTEX
  5
33A18
  8
0
 10
304.64651205810412
 20
104.0995197629923
 30
0.0
 70
    32
  0
VERTEX
  5
33A19
  8
0
 10
304.62354042256447
 20
104.2214825924536
 30
0.0
 70
    32
  0
VERTEX
  5
33A1A
  8
0
 10
304.59679617930237
 20
104.3426740660064
 30
0.0
 70
    32
  0
VERTEX
  5
33A1B
  8
0
 10
304.56630507404441
 20
104.4629775169532
 30
0.0
 70
    32
  0
VERTEX
  5
33A1C
  8
0
 10
304.54966348073629
 20
104.52276000630459
 30
0.0
 70
    32
  0
VERTEX
  5
33A1D
  8
0
 10
304.53209645948709
 20
104.582277133464
 30
0.0
 70
    32
  0
VERTEX
  5
33A1E
  8
0
 10
304.49420326704052
 20
104.7004580700645
 30
0.0
 70
    32
  0
VERTEX
  5
33A1F
  8
0
 10
304.45266197512558
 20
104.8174065581933
 30
0.0
 70
    32
  0
VERTEX
  5
33A20
  8
0
 10
304.40751257405861
 20
104.9330100157231
 30
0.0
 70
    32
  0
VERTEX
  5
33A21
  8
0
 10
304.3587985275534
 20
105.0471571553398
 30
0.0
 70
    32
  0
VERTEX
  5
33A22
  8
0
 10
304.30656673088049
 20
105.159738091674
 30
0.0
 70
    32
  0
VERTEX
  5
33A23
  8
0
 10
304.27914725827679
 20
105.2154073038385
 30
0.0
 70
    32
  0
VERTEX
  5
33A24
  8
0
 10
304.25086746572248
 20
105.27064444708439
 30
0.0
 70
    32
  0
VERTEX
  5
33A25
  8
0
 10
304.1917543517701
 20
105.37976945598901
 30
0.0
 70
    32
  0
VERTEX
  5
33A26
  8
0
 10
304.12928429510418
 20
105.4870080676441
 30
0.0
 70
    32
  0
VERTEX
  5
33A27
  8
0
 10
304.09680908160868
 20
105.53988763996939
 30
0.0
 70
    32
  0
SEQEND
  5
33A28
  8
0
  0
LINE
  5
33A29
  8
0
 10
304.09680908160868
 20
105.53988763996939
 30
0.0
 11
289.31242431235739
 21
129.19984907683099
 31
0.0
  0
POLYLINE
  5
33A2A
  8
0
 66
     1
 10
0.0
 20
0.0
 30
0.0
 70
     8
  0
VERTEX
  5
33A2B
  8
0
 10
289.31242431235739
 20
129.19984907683099
 30
0.0
 70
    32
  0
VERTEX
  5
33A2C
  8
0
 10
289.28062361146078
 20
129.25161139898981
 30
0.0
 70
    32
  0
VERTEX
  5
33A2D
  8
0
 10
289.21939873767218
 20
129.3565549734823
 30
0.0
 70
    32
  0
VERTEX
  5
33A2E
  8
0
 10
289.16138933446769
 20
129.46330958995159
 30
0.0
 70
    32
  0
VERTEX
  5
33A2F
  8
0
 10
289.13360727646659
 20
129.51733532294989
 30
0.0
 70
    32
  0
VERTEX
  5
33A30
  8
0
 10
289.10664892146389
 20
129.5717767563286
 30
0.0
 70
    32
  0
VERTEX
  5
33A31
  8
0
 10
289.05522800229932
 20
129.68185640054111
 30
0.0
 70
    32
  0
VERTEX
  5
33A32
  8
0
 10
289.00717401803922
 20
129.7934469628409
 30
0.0
 70
    32
  0
VERTEX
  5
33A33
  8
0
 10
288.96253130340682
 20
129.9064454895036
 30
0.0
 70
    32
  0
VERTEX
  5
33A34
  8
0
 10
288.92134104587927
 20
130.0207477278127
 30
0.0
 70
    32
  0
VERTEX
  5
33A35
  8
0
 10
288.88364124768862
 20
130.13624822224489
 30
0.0
 70
    32
  0
VERTEX
  5
33A36
  8
0
 10
288.86611126688751
 20
130.1944145556852
 30
0.0
 70
    32
  0
VERTEX
  5
33A37
  8
0
 10
288.84946669076061
 20
130.25284041176209
 30
0.0
 70
    32
  0
VERTEX
  5
33A38
  8
0
 10
288.81884890462459
 20
130.37041672812649
 30
0.0
 70
    32
  0
VERTEX
  5
33A39
  8
0
 10
288.79181613732487
 20
130.4888686951418
 30
0.0
 70
    32
  0
VERTEX
  5
33A3A
  8
0
 10
288.76839332935828
 20
130.60808702873459
 30
0.0
 70
    32
  0
VERTEX
  5
33A3B
  8
0
 10
288.7486020906648
 20
130.72796173777971
 30
0.0
 70
    32
  0
VERTEX
  5
33A3C
  8
0
 10
288.7324606806892
 20
130.8483822255784
 30
0.0
 70
    32
  0
VERTEX
  5
33A3D
  8
0
 10
288.72576344718698
 20
130.90876243455619
 30
0.0
 70
    32
  0
VERTEX
  5
33A3E
  8
0
 10
288.71998399153568
 20
130.96923739189509
 30
0.0
 70
    32
  0
VERTEX
  5
33A3F
  8
0
 10
288.7111835342285
 20
131.09041573545881
 30
0.0
 70
    32
  0
VERTEX
  5
33A40
  8
0
 10
288.70606742809048
 20
131.2118054568345
 30
0.0
 70
    32
  0
VERTEX
  5
33A41
  8
0
 10
288.7048926146727
 20
131.27254459072859
 30
0.0
 70
    32
  0
SEQEND
  5
33A42
  8
0
  0
POLYLINE
  5
33A43
  8
0
 66
     1
 10
0.0
 20
0.0
 30
0.0
 70
     8
  0
VERTEX
  5
33A44
  8
0
 10
290.70516858947587
 20
131.27254459072859
 30
0.0
 70
    32
  0
VERTEX
  5
33A45
  8
0
 10
290.70608757579942
 20
131.2428361619246
 30
0.0
 70
    32
  0
VERTEX
  5
33A46
  8
0
 10
290.70924942634173
 20
131.18347667491381
 30
0.0
 70
    32
  0
VERTEX
  5
33A47
  8
0
 10
290.71417395739212
 20
131.12423737215829
 30
0.0
 70
    32
  0
VERTEX
  5
33A48
  8
0
 10
290.7172959293797
 20
131.09467914878849
 30
0.0
 70
    32
  0
VERTEX
  5
33A49
  8
0
 10
290.720856818686
 20
131.06517058485829
 30
0.0
 70
    32
  0
VERTEX
  5
33A4A
  8
0
 10
290.72929210667428
 20
131.00632849181619
 30
0.0
 70
    32
  0
VERTEX
  5
33A4B
  8
0
 10
290.73947236973731
 20
130.94776307334249
 30
0.0
 70
    32
  0
VERTEX
  5
33A4C
  8
0
 10
290.75138861476808
 20
130.88952606533741
 30
0.0
 70
    32
  0
VERTEX
  5
33A4D
  8
0
 10
290.76503031511658
 20
130.83166891358741
 30
0.0
 70
    32
  0
VERTEX
  5
33A4E
  8
0
 10
290.78038541988911
 20
130.77424272831931
 30
0.0
 70
    32
  0
VERTEX
  5
33A4F
  8
0
 10
290.78870131883679
 20
130.7457071171892
 30
0.0
 70
    32
  0
VERTEX
  5
33A50
  8
0
 10
290.79744036459317
 20
130.71729823904971
 30
0.0
 70
    32
  0
VERTEX
  5
33A51
  8
0
 10
290.81618008312091
 20
130.66088574977189
 30
0.0
 70
    32
  0
VERTEX
  5
33A52
  8
0
 10
290.83658802105822
 20
130.60505509451721
 30
0.0
 70
    32
  0
VERTEX
  5
33A53
  8
0
 10
290.85864615030789
 20
130.5498555933325
 30
0.0
 70
    32
  0
VERTEX
  5
33A54
  8
0
 10
290.8823349850166
 20
130.49533600871229
 30
0.0
 70
    32
  0
VERTEX
  5
33A55
  8
0
 10
290.90763359878741
 20
130.44154450252131
 30
0.0
 70
    32
  0
VERTEX
  5
33A56
  8
0
 10
290.92087964394722
 20
130.41493665470341
 30
0.0
 70
    32
  0
VERTEX
  5
33A57
  8
0
 10
290.93451964316671
 20
130.38852859344991
 30
0.0
 70
    32
  0
VERTEX
  5
33A58
  8
0
 10
290.9629693673856
 20
130.33633511503649
 30
0.0
 70
    32
  0
VERTEX
  5
33A59
  8
0
 10
290.99295763934202
 20
130.28501017429531
 30
0.0
 70
    32
  0
VERTEX
  5
33A5A
  8
0
 10
291.00852050467017
 20
130.2596876052975
 30
0.0
 70
    32
  0
SEQEND
  5
33A5B
  8
0
  0
LINE
  5
33A5C
  8
0
 10
291.00852050467017
 20
130.2596876052975
 30
0.0
 11
305.79290527392158
 21
106.59972616843589
 31
0.0
  0
POLYLINE
  5
33A5D
  8
0
 66
     1
 10
0.0
 20
0.0
 30
0.0
 70
     8
  0
VERTEX
  5
33A5E
  8
0
 10
305.79290527392158
 20
106.59972616843589
 30
0.0
 70
    32
  0
VERTEX
  5
33A5F
  8
0
 10
305.84161809416469
 20
106.5204068099478
 30
0.0
 70
    32
  0
VERTEX
  5
33A60
  8
0
 10
305.93532317916367
 20
106.3595488924651
 30
0.0
 70
    32
  0
VERTEX
  5
33A61
  8
0
 10
306.02399285009221
 20
106.19586137910829
 30
0.0
 70
    32
  0
VERTEX
  5
33A62
  8
0
 10
306.0664125389236
 20
106.1130056642394
 30
0.0
 70
    32
  0
VERTEX
  5
33A63
  8
0
 10
306.10754174782932
 20
106.0295018459927
 30
0.0
 70
    32
  0
VERTEX
  5
33A64
  8
0
 10
306.18588944283857
 20
105.8606304414914
 30
0.0
 70
    32
  0
VERTEX
  5
33A65
  8
0
 10
306.25896051259639
 20
105.68940973206649
 30
0.0
 70
    32
  0
VERTEX
  5
33A66
  8
0
 10
306.32668461419678
 20
105.51600454577159
 30
0.0
 70
    32
  0
VERTEX
  5
33A67
  8
0
 10
306.38899655206899
 20
105.3405818135784
 30
0.0
 70
    32
  0
VERTEX
  5
33A68
  8
0
 10
306.44583634073911
 20
105.1633104086777
 30
0.0
 70
    32
  0
VERTEX
  5
33A69
  8
0
 10
306.47218687261301
 20
105.0740347179387
 30
0.0
 70
    32
  0
VERTEX
  5
33A6A
  8
0
 10
306.49714926257502
 20
104.9843609839115
 30
0.0
 70
    32
  0
VERTEX
  5
33A6B
  8
0
 10
306.54288592046203
 20
104.8039058074913
 30
0.0
 70
    32
  0
VERTEX
  5
33A6C
  8
0
 10
306.58300228535518
 20
104.622118597162
 30
0.0
 70
    32
  0
VERTEX
  5
33A6D
  8
0
 10
306.61745973866471
 20
104.4391743529701
 30
0.0
 70
    32
  0
VERTEX
  5
33A6E
  8
0
 10
306.64622510943252
 20
104.25524918879699
 30
0.0
 70
    32
  0
VERTEX
  5
33A6F
  8
0
 10
306.66927070626491
 20
104.0705201628207
 30
0.0
 70
    32
  0
VERTEX
  5
33A70
  8
0
 10
306.67864144088202
 20
103.9779097486129
 30
0.0
 70
    32
  0
VERTEX
  5
33A71
  8
0
 10
306.68657434398978
 20
103.8851651070682
 30
0.0
 70
    32
  0
VERTEX
  5
33A72
  8
0
 10
306.69811936501418
 20
103.6993624562231
 30
0.0
 70
    32
  0
VERTEX
  5
33A73
  8
0
 10
306.70389465535908
 20
103.51329107585271
 30
0.0
 70
    32
  0
VERTEX
  5
33A74
  8
0
 10
306.70461669698312
 20
103.42021058303661
 30
0.0
 70
    32
  0
SEQEND
  5
33A75
  8
0
  0
LINE
  5
33A76
  8
0
 10
306.70461669698312
 20
103.42021058303661
 30
0.0
 11
306.70461669698312
 21
80.172544590728705
 31
0.0
  0
ARC
  5
33A77
  8
0
 10
292.20461669698312
 20
138.67254459072871
 30
0.0
 40
3.4999999999999929
 50
90.0
 51
180.0
  0
ARC
  5
33A78
  8
0
 10
292.20461669698312
 20
138.67254459072871
 30
0.0
 40
1.4999999999999929
 50
90.0
 51
180.0
  0
LINE
  5
33A79
  8
0
 10
290.70461669698312
 20
138.67254459072871
 30
0.0
 11
290.70461669698312
 21
131.31952613376379
 31
0.0
  0
ARC
  5
33A7A
  8
0
 10
292.70461669704599
 20
131.3195261337643
 30
0.0
 40
2.0000000000629679
 50
180.0
 51
181.3460458798109
  0
LINE
  5
33A7B
  8
0
 10
288.7048926146727
 20
131.27254459072859
 30
0.0
 11
290.70516858947587
 21
131.27254459072859
 31
0.0
  0
ARC
  5
33A7C
  8
0
 10
292.70461669709249
 20
131.31952613376481
 30
0.0
 40
4.0000000001094227
 50
180.0
 51
180.67297650663971
  0
LINE
  5
33A7D
  8
0
 10
288.70461669698312
 20
131.31952613376399
 30
0.0
 11
288.70461669698312
 21
138.67254459072871
 31
0.0
  0
ARC
  5
33A7E
  8
0
 10
352.20461669698312
 20
138.67254459072871
 30
0.0
 40
3.5000000000000129
 50
0.0000008537736463
 51
90.0
  0
LINE
  5
33A7F
  8
0
 10
292.20461669698312
 20
142.17254459072871
 30
0.0
 11
292.20461669698312
 21
140.17254459072871
 31
0.0
  0
LINE
  5
33A80
  8
0
 10
292.20461669698312
 20
142.17254459072871
 30
0.0
 11
352.20461669698312
 21
142.17254459072871
 31
0.0
  0
LINE
  5
33A81
  8
0
 10
296.20461669698312
 20
142.17254459072871
 30
0.0
 11
296.20461669698312
 21
140.17254459072871
 31
0.0
  0
LINE
  5
33A82
  8
0
 10
348.20461669698312
 20
140.17254459072871
 30
0.0
 11
348.20461669698312
 21
142.17254459072871
 31
0.0
  0
LINE
  5
33A83
  8
0
 10
352.20461669698312
 20
142.17254459072871
 30
0.0
 11
352.20461669698312
 21
140.17254459072871
 31
0.0
  0
LINE
  5
33A84
  8
0
 10
352.20461669698312
 20
140.17254459072871
 30
0.0
 11
292.20461669698312
 21
140.17254459072871
 31
0.0
  0
LINE
  5
33A85
  8
0
 10
312.20461669698312
 20
138.67254459072871
 30
0.0
 11
332.20461669698312
 21
138.67254459072871
 31
0.0
  0
LINE
  5
33A86
  8
1
 10
189.82940602929349
 20
193.63611567808519
 30
0.0
 11
189.82940602929349
 21
270.63611567808528
 31
0.0
  0
LINE
  5
33A87
  8
1
 10
154.82940602929349
 20
232.13611567808519
 30
0.0
 11
224.82940602929349
 21
232.13611567808519
 31
0.0
  0
LINE
  5
33A8E
  8
1
 10
202.82940602929349
 20
242.63611567808519
 30
0.0
 11
207.82940602929349
 21
242.63611567808519
 31
0.0
  0
LINE
  5
33A8F
  8
1
 10
205.32940602929349
 20
240.13611567808519
 30
0.0
 11
205.32940602929349
 21
245.13611567808519
 31
0.0
  0
LINE
  5
33A94
  8
1
 10
209.82940602929349
 20
256.13611567808522
 30
0.0
 11
217.82940602929349
 21
256.13611567808522
 31
0.0
  0
LINE
  5
33A95
  8
1
 10
213.82940602929349
 20
252.13611567808519
 30
0.0
 11
213.82940602929349
 21
260.13611567808522
 31
0.0
  0
LINE
  5
33A96
  8
1
 10
205.5867653421742
 20
251.89347499096601
 30
0.0
 11
213.5867653421742
 21
251.89347499096601
 31
0.0
  0
LINE
  5
33A97
  8
1
 10
209.5867653421742
 20
247.8934749909659
 30
0.0
 11
209.5867653421742
 21
255.8934749909659
 31
0.0
  0
LINE
  5
33AA0
  8
0
 10
215.82940602929349
 20
202.13611567808519
 30
0.0
 11
163.82940602929349
 21
202.13611567808519
 31
0.0
  0
LINE
  5
33AA1
  8
0
 10
219.82940602929349
 20
258.13611567808522
 30
0.0
 11
219.82940602929349
 21
206.13611567808519
 31
0.0
  0
LINE
  5
33AA3
  8
0
 10
163.82940602929349
 20
202.13611567808519
 30
0.0
 11
163.82940602929349
 21
198.63611567808519
 31
0.0
  0
LINE
  5
33AA4
  8
0
 10
215.82940602929349
 20
198.63611567808519
 30
0.0
 11
163.82940602929349
 21
198.63611567808519
 31
0.0
  0
LINE
  5
33AA5
  8
0
 10
215.82940602929349
 20
198.63611567808519
 30
0.0
 11
215.82940602929349
 21
202.13611567808519
 31
0.0
  0
LINE
  5
33AA6
  8
0
 10
159.82940602929349
 20
258.13611567808522
 30
0.0
 11
159.82940602929349
 21
206.13611567808519
 31
0.0
  0
LINE
  5
33AA7
  8
0
 10
215.82940602929349
 20
262.13611567808522
 30
0.0
 11
163.82940602929349
 21
262.13611567808522
 31
0.0
  0
LINE
  5
33AA8
  8
0
 10
163.82940602929349
 20
265.63611567808522
 30
0.0
 11
163.82940602929349
 21
262.13611567808522
 31
0.0
  0
LINE
  5
33AA9
  8
0
 10
215.82940602929349
 20
265.63611567808522
 30
0.0
 11
163.82940602929349
 21
265.63611567808522
 31
0.0
  0
LINE
  5
33AAA
  8
0
 10
215.82940602929349
 20
262.13611567808522
 30
0.0
 11
215.82940602929349
 21
265.63611567808522
 31
0.0
  0
LINE
  5
33AAB
  8
0
 10
163.82940602929349
 20
262.13611567808522
 30
0.0
 11
159.82940602929349
 21
258.13611567808522
 31
0.0
  0
LINE
  5
33AAC
  8
0
 10
159.82940602929349
 20
206.13611567808519
 30
0.0
 11
163.82940602929349
 21
202.13611567808519
 31
0.0
  0
LINE
  5
33AAD
  8
0
 10
215.82940602929349
 20
202.13611567808519
 30
0.0
 11
219.82940602929349
 21
206.13611567808519
 31
0.0
  0
LINE
  5
33AAE
  8
0
 10
219.82940602929349
 20
258.13611567808522
 30
0.0
 11
215.82940602929349
 21
262.13611567808522
 31
0.0
  0
ARC
  5
33AAF
  8
0
 10
174.32940602929349
 20
221.63611567808519
 30
0.0
 40
1.5
 50
180.0
 51
0.0
  0
LINE
  5
33AB0
  8
0
 10
172.82940602929349
 20
221.63611567808519
 30
0.0
 11
172.82940602929349
 21
242.63611567808519
 31
0.0
  0
ARC
  5
33AB1
  8
0
 10
174.32940602929349
 20
242.63611567808519
 30
0.0
 40
1.5
 50
0.0
 51
180.0
  0
LINE
  5
33AB2
  8
0
 10
175.82940602929349
 20
242.63611567808519
 30
0.0
 11
175.82940602929349
 21
221.63611567808519
 31
0.0
  0
ARC
  5
33AB3
  8
0
 10
205.32940602929349
 20
221.63611567808519
 30
0.0
 40
1.5
 50
180.0
 51
0.0
  0
LINE
  5
33AB4
  8
0
 10
203.82940602929349
 20
221.63611567808519
 30
0.0
 11
203.82940602929349
 21
242.63611567808519
 31
0.0
  0
ARC
  5
33AB5
  8
0
 10
205.32940602929349
 20
242.63611567808519
 30
0.0
 40
1.5
 50
0.0
 51
180.0
  0
LINE
  5
33AB6
  8
0
 10
206.82940602929349
 20
242.63611567808519
 30
0.0
 11
206.82940602929349
 21
221.63611567808519
 31
0.0
  0
CIRCLE
  5
33AB7
  8
0
 10
189.82940602929349
 20
232.13611567808519
 30
0.0
 40
5.0
  0
ARC
  5
33AB8
  8
0
 10
165.82940602929349
 20
208.13611567808519
 30
0.0
 40
3.0000000000000031
 50
134.9999999999998
 51
314.99999999999989
  0
LINE
  5
33AB9
  8
0
 10
163.70808568573381
 20
210.25743602164491
 30
0.0
 11
167.9507263728531
 21
214.5000767087642
 31
0.0
  0
ARC
  5
33ABA
  8
0
 10
170.07204671641281
 20
212.37875636520459
 30
0.0
 40
3.0000000000000009
 50
314.99999999999989
 51
134.9999999999998
  0
LINE
  5
33ABB
  8
0
 10
172.19336705997239
 20
210.25743602164491
 30
0.0
 11
167.9507263728531
 21
206.01479533452559
 31
0.0
  0
ARC
  5
33ABC
  8
0
 10
213.82940602929349
 20
256.13611567808522
 30
0.0
 40
3.0000000000000009
 50
314.99999999999989
 51
134.9999999999998
  0
LINE
  5
33ABD
  8
0
 10
215.95072637285321
 20
254.01479533452559
 30
0.0
 11
211.70808568573381
 21
249.77215464740621
 31
0.0
  0
ARC
  5
33ABE
  8
0
 10
209.5867653421742
 20
251.8934749909659
 30
0.0
 40
3.0000000000000031
 50
134.9999999999998
 51
314.99999999999989
  0
LINE
  5
33ABF
  8
0
 10
207.46544499861469
 20
254.01479533452559
 30
0.0
 11
211.70808568573381
 21
258.25743602164488
 31
0.0
  0
ARC
  5
33AC0
  8
0
 10
165.82940602929349
 20
256.13611567808522
 30
0.0
 40
3.0000000000000031
 50
45.000000000000149
 51
225.00000000000011
  0
LINE
  5
33AC1
  8
0
 10
167.9507263728531
 20
258.25743602164488
 30
0.0
 11
172.19336705997239
 21
254.01479533452559
 31
0.0
  0
ARC
  5
33AC2
  8
0
 10
170.07204671641281
 20
251.89347499096601
 30
0.0
 40
3.0000000000000031
 50
225.00000000000011
 51
45.000000000000149
  0
LINE
  5
33AC3
  8
0
 10
167.9507263728531
 20
249.77215464740621
 30
0.0
 11
163.70808568573381
 21
254.01479533452559
 31
0.0
  0
ARC
  5
33AC4
  8
0
 10
213.82940602929349
 20
208.13611567808519
 30
0.0
 40
3.0000000000000031
 50
225.00000000000011
 51
45.000000000000149
  0
LINE
  5
33AC5
  8
0
 10
211.70808568573381
 20
206.01479533452559
 30
0.0
 11
207.46544499861469
 21
210.25743602164491
 31
0.0
  0
ARC
  5
33AC6
  8
0
 10
209.5867653421742
 20
212.37875636520459
 30
0.0
 40
3.0000000000000031
 50
45.000000000000149
 51
225.00000000000011
  0
LINE
  5
33AC7
  8
0
 10
211.70808568573381
 20
214.5000767087642
 30
0.0
 11
215.95072637285321
 21
210.25743602164491
 31
0.0
  0
LINE
  5
33BEB
  8
1
 10
202.82940602929349
 20
221.63611567808519
 30
0.0
 11
207.82940602929349
 21
221.63611567808519
 31
0.0
  0
LINE
  5
33BEC
  8
1
 10
205.32940602929349
 20
224.13611567808519
 30
0.0
 11
205.32940602929349
 21
219.13611567808519
 31
0.0
  0
LINE
  5
33BED
  8
1
 10
176.82940602929349
 20
242.63611567808519
 30
0.0
 11
171.82940602929349
 21
242.63611567808519
 31
0.0
  0
LINE
  5
33BEE
  8
1
 10
174.32940602929349
 20
240.13611567808519
 30
0.0
 11
174.32940602929349
 21
245.13611567808519
 31
0.0
  0
LINE
  5
33BEF
  8
1
 10
176.82940602929349
 20
221.63611567808519
 30
0.0
 11
171.82940602929349
 21
221.63611567808519
 31
0.0
  0
LINE
  5
33BF0
  8
1
 10
174.32940602929349
 20
224.13611567808519
 30
0.0
 11
174.32940602929349
 21
219.13611567808519
 31
0.0
  0
LINE
  5
33BF1
  8
1
 10
209.82940602929349
 20
208.13611567808519
 30
0.0
 11
217.82940602929349
 21
208.13611567808519
 31
0.0
  0
LINE
  5
33BF2
  8
1
 10
213.82940602929349
 20
212.13611567808519
 30
0.0
 11
213.82940602929349
 21
204.13611567808519
 31
0.0
  0
LINE
  5
33BF3
  8
1
 10
205.5867653421742
 20
212.37875636520451
 30
0.0
 11
213.5867653421742
 21
212.37875636520451
 31
0.0
  0
LINE
  5
33BF4
  8
1
 10
209.5867653421742
 20
216.37875636520459
 30
0.0
 11
209.5867653421742
 21
208.37875636520451
 31
0.0
  0
LINE
  5
33BF5
  8
1
 10
169.82940602929349
 20
256.13611567808522
 30
0.0
 11
161.82940602929349
 21
256.13611567808522
 31
0.0
  0
LINE
  5
33BF6
  8
1
 10
165.82940602929349
 20
252.13611567808519
 30
0.0
 11
165.82940602929349
 21
260.13611567808522
 31
0.0
  0
LINE
  5
33BF7
  8
1
 10
174.07204671641281
 20
251.89347499096601
 30
0.0
 11
166.07204671641281
 21
251.89347499096601
 31
0.0
  0
LINE
  5
33BF8
  8
1
 10
170.07204671641281
 20
247.8934749909659
 30
0.0
 11
170.07204671641281
 21
255.8934749909659
 31
0.0
  0
LINE
  5
33BF9
  8
1
 10
169.82940602929349
 20
208.13611567808519
 30
0.0
 11
161.82940602929349
 21
208.13611567808519
 31
0.0
  0
LINE
  5
33BFA
  8
1
 10
165.82940602929349
 20
212.13611567808519
 30
0.0
 11
165.82940602929349
 21
204.13611567808519
 31
0.0
  0
LINE
  5
33BFB
  8
1
 10
174.07204671641281
 20
212.37875636520451
 30
0.0
 11
166.07204671641281
 21
212.37875636520451
 31
0.0
  0
LINE
  5
33BFC
  8
1
 10
170.07204671641281
 20
216.37875636520459
 30
0.0
 11
170.07204671641281
 21
208.37875636520451
 31
0.0
  0
ARC
  5
33C08
  8
0
 10
73.354195361603956
 20
85.722544590728646
 30
0.0
 40
0.5000000000000049
 50
180.0
 51
216.86989764584629
  0
ARC
  5
33C09
  8
0
 10
73.354195361603956
 20
92.622544590728637
 30
0.0
 40
0.5
 50
143.13010235415501
 51
180.0
  0
LINE
  5
33C0A
  8
0
 10
41.954195361603979
 20
92.122544590728637
 30
0.0
 11
42.954195361603972
 21
92.122544590728637
 31
0.0
  0
LINE
  5
33C0B
  8
0
 10
71.954195361603979
 20
92.122544590728637
 30
0.0
 11
72.854195361603956
 21
92.122544590728637
 31
0.0
  0
LINE
  5
33C0C
  8
0
 10
72.854195361603956
 20
86.22254459072866
 30
0.0
 11
71.954195361603979
 21
86.22254459072866
 31
0.0
  0
LINE
  5
33C0D
  8
0
 10
42.954195361603972
 20
86.22254459072866
 30
0.0
 11
41.954195361603979
 21
86.22254459072866
 31
0.0
  0
LINE
  5
33C0E
  8
0
 10
35.367695361603978
 20
92.172544590728705
 30
0.0
 11
35.454195361603979
 21
92.172544590728705
 31
0.0
  0
LINE
  5
33C0F
  8
0
 10
35.454195361603979
 20
86.172544590728705
 30
0.0
 11
35.367695361603978
 21
86.172544590728705
 31
0.0
  0
LINE
  5
33C10
  8
0
 10
34.754195361604047
 20
91.559044590728661
 30
0.0
 11
35.367695361603978
 21
92.172544590728705
 31
0.0
  0
LINE
  5
33C11
  8
0
 10
35.367695361603978
 20
86.172544590728705
 30
0.0
 11
34.754195361604047
 21
86.786044590728636
 31
0.0
  0
LINE
  5
33C12
  8
0
 10
75.161454783240856
 20
83.399041898832422
 30
0.0
 11
74.954195361603965
 21
84.172544590728705
 31
0.0
  0
LINE
  5
33C13
  8
0
 10
74.954195361603965
 20
94.172544590728705
 30
0.0
 11
75.161454783240856
 21
94.946047282624988
 31
0.0
  0
LINE
  5
33C14
  8
0
 10
79.454195361603979
 20
84.172544590728705
 30
0.0
 11
79.246935939967102
 21
83.399041898832422
 31
0.0
  0
LINE
  5
33C15
  8
0
 10
79.246935939967102
 20
94.946047282624988
 30
0.0
 11
79.454195361603979
 21
94.172544590728705
 31
0.0
  0
LINE
  5
33C16
  8
0
 10
72.854195361603047
 20
85.722544590728646
 30
0.0
 11
72.85419536160498
 21
92.622544590728637
 31
0.0
  0
LINE
  5
33C17
  8
0
 10
35.367695361603069
 20
86.172544590728705
 30
0.0
 11
35.367695361604888
 21
92.172544590728705
 31
0.0
  0
LINE
  5
33C18
  8
0
 10
34.754195361603372
 20
86.786044590728636
 30
0.0
 11
34.754195361604729
 21
91.559044590728661
 31
0.0
  0
LINE
  5
33C19
  8
0
 10
79.454195361602501
 20
84.172544590728705
 30
0.0
 11
79.454195361605457
 21
94.172544590728705
 31
0.0
  0
POLYLINE
  5
33C1A
  8
0
 66
     1
 10
0.0
 20
0.0
 30
0.0
 70
     8
  0
VERTEX
  5
33C1B
  8
0
 10
75.161454783240856
 20
94.946047282624988
 30
0.0
 70
    32
  0
VERTEX
  5
33C1C
  8
0
 10
75.09766695839528
 20
94.690225019192823
 30
0.0
 70
    32
  0
VERTEX
  5
33C1D
  8
0
 10
75.006151332076797
 20
94.20563343754867
 30
0.0
 70
    32
  0
VERTEX
  5
33C1E
  8
0
 10
74.960100395963764
 20
93.737652753064665
 30
0.0
 70
    32
  0
VERTEX
  5
33C1F
  8
0
 10
74.954195361603965
 20
93.502671609650918
 30
0.0
 70
    32
  0
SEQEND
  5
33C20
  8
0
  0
POLYLINE
  5
33C21
  8
0
 66
     1
 10
0.0
 20
0.0
 30
0.0
 70
     8
  0
VERTEX
  5
33C22
  8
0
 10
74.954195361603965
 20
93.502671609650918
 30
0.0
 70
    32
  0
VERTEX
  5
33C23
  8
0
 10
74.960100395963877
 20
93.267690466237084
 30
0.0
 70
    32
  0
VERTEX
  5
33C24
  8
0
 10
75.006151332077025
 20
92.799709781753037
 30
0.0
 70
    32
  0
VERTEX
  5
33C25
  8
0
 10
75.09766695839528
 20
92.315118200108884
 30
0.0
 70
    32
  0
VERTEX
  5
33C26
  8
0
 10
75.161454783240856
 20
92.059295936676847
 30
0.0
 70
    32
  0
SEQEND
  5
33C27
  8
0
  0
POLYLINE
  5
33C28
  8
0
 66
     1
 10
0.0
 20
0.0
 30
0.0
 70
     8
  0
VERTEX
  5
33C29
  8
0
 10
79.246935939967102
 20
92.059295936676847
 30
0.0
 70
    32
  0
VERTEX
  5
33C2A
  8
0
 10
79.310723764812664
 20
92.315118200108884
 30
0.0
 70
    32
  0
VERTEX
  5
33C2B
  8
0
 10
79.402239391131161
 20
92.799709781753165
 30
0.0
 70
    32
  0
VERTEX
  5
33C2C
  8
0
 10
79.448290327244308
 20
93.267690466237084
 30
0.0
 70
    32
  0
VERTEX
  5
33C2D
  8
0
 10
79.454195361603979
 20
93.502671609650918
 30
0.0
 70
    32
  0
SEQEND
  5
33C2E
  8
0
  0
POLYLINE
  5
33C2F
  8
0
 66
     1
 10
0.0
 20
0.0
 30
0.0
 70
     8
  0
VERTEX
  5
33C30
  8
0
 10
79.454195361603979
 20
93.502671609650918
 30
0.0
 70
    32
  0
VERTEX
  5
33C31
  8
0
 10
79.448290327244081
 20
93.737652753064665
 30
0.0
 70
    32
  0
VERTEX
  5
33C32
  8
0
 10
79.402239391130934
 20
94.20563343754867
 30
0.0
 70
    32
  0
VERTEX
  5
33C33
  8
0
 10
79.310723764812664
 20
94.690225019192823
 30
0.0
 70
    32
  0
VERTEX
  5
33C34
  8
0
 10
79.246935939967102
 20
94.946047282624988
 30
0.0
 70
    32
  0
SEQEND
  5
33C35
  8
0
  0
LINE
  5
33C36
  8
0
 10
75.161454783240856
 20
92.059295936676847
 30
0.0
 11
79.246935939967102
 21
92.059295936676847
 31
0.0
  0
POLYLINE
  5
33C37
  8
0
 66
     1
 10
0.0
 20
0.0
 30
0.0
 70
     8
  0
VERTEX
  5
33C38
  8
0
 10
75.161454783240856
 20
92.059295936676847
 30
0.0
 70
    32
  0
VERTEX
  5
33C39
  8
0
 10
75.09766695839528
 20
91.547651409812659
 30
0.0
 70
    32
  0
VERTEX
  5
33C3A
  8
0
 10
75.006151332076797
 20
90.578468246524196
 30
0.0
 70
    32
  0
VERTEX
  5
33C3B
  8
0
 10
74.960100395963764
 20
89.6425068775564
 30
0.0
 70
    32
  0
VERTEX
  5
33C3C
  8
0
 10
74.954195361603965
 20
89.172544590728705
 30
0.0
 70
    32
  0
SEQEND
  5
33C3D
  8
0
  0
POLYLINE
  5
33C3E
  8
0
 66
     1
 10
0.0
 20
0.0
 30
0.0
 70
     8
  0
VERTEX
  5
33C3F
  8
0
 10
74.954195361603965
 20
89.172544590728705
 30
0.0
 70
    32
  0
VERTEX
  5
33C40
  8
0
 10
74.960100395963877
 20
88.702582303901011
 30
0.0
 70
    32
  0
VERTEX
  5
33C41
  8
0
 10
75.006151332077025
 20
87.766620934933087
 30
0.0
 70
    32
  0
VERTEX
  5
33C42
  8
0
 10
75.09766695839528
 20
86.797437771644638
 30
0.0
 70
    32
  0
VERTEX
  5
33C43
  8
0
 10
75.161454783240856
 20
86.285793244780564
 30
0.0
 70
    32
  0
SEQEND
  5
33C44
  8
0
  0
POLYLINE
  5
33C45
  8
0
 66
     1
 10
0.0
 20
0.0
 30
0.0
 70
     8
  0
VERTEX
  5
33C46
  8
0
 10
79.246935939967102
 20
86.285793244780564
 30
0.0
 70
    32
  0
VERTEX
  5
33C47
  8
0
 10
79.310723764812664
 20
86.797437771644638
 30
0.0
 70
    32
  0
VERTEX
  5
33C48
  8
0
 10
79.402239391131161
 20
87.766620934933187
 30
0.0
 70
    32
  0
VERTEX
  5
33C49
  8
0
 10
79.448290327244194
 20
88.702582303901011
 30
0.0
 70
    32
  0
VERTEX
  5
33C4A
  8
0
 10
79.454195361603979
 20
89.172544590728705
 30
0.0
 70
    32
  0
SEQEND
  5
33C4B
  8
0
  0
POLYLINE
  5
33C4C
  8
0
 66
     1
 10
0.0
 20
0.0
 30
0.0
 70
     8
  0
VERTEX
  5
33C4D
  8
0
 10
79.454195361603979
 20
89.172544590728705
 30
0.0
 70
    32
  0
VERTEX
  5
33C4E
  8
0
 10
79.448290327244081
 20
89.6425068775564
 30
0.0
 70
    32
  0
VERTEX
  5
33C4F
  8
0
 10
79.402239391130934
 20
90.578468246524196
 30
0.0
 70
    32
  0
VERTEX
  5
33C50
  8
0
 10
79.310723764812664
 20
91.547651409812659
 30
0.0
 70
    32
  0
VERTEX
  5
33C51
  8
0
 10
79.246935939967102
 20
92.059295936676847
 30
0.0
 70
    32
  0
SEQEND
  5
33C52
  8
0
  0
LINE
  5
33C53
  8
0
 10
75.161454783240856
 20
86.285793244780564
 30
0.0
 11
79.246935939967102
 21
86.285793244780564
 31
0.0
  0
POLYLINE
  5
33C54
  8
0
 66
     1
 10
0.0
 20
0.0
 30
0.0
 70
     8
  0
VERTEX
  5
33C55
  8
0
 10
75.161454783240856
 20
86.285793244780564
 30
0.0
 70
    32
  0
VERTEX
  5
33C56
  8
0
 10
75.09766695839528
 20
86.029970981348526
 30
0.0
 70
    32
  0
VERTEX
  5
33C57
  8
0
 10
75.006151332076797
 20
85.545379399704245
 30
0.0
 70
    32
  0
VERTEX
  5
33C58
  8
0
 10
74.960100395963764
 20
85.07739871522034
 30
0.0
 70
    32
  0
VERTEX
  5
33C59
  8
0
 10
74.954195361603965
 20
84.842417571806493
 30
0.0
 70
    32
  0
SEQEND
  5
33C5A
  8
0
  0
POLYLINE
  5
33C5B
  8
0
 66
     1
 10
0.0
 20
0.0
 30
0.0
 70
     8
  0
VERTEX
  5
33C5C
  8
0
 10
74.954195361603965
 20
84.842417571806493
 30
0.0
 70
    32
  0
VERTEX
  5
33C5D
  8
0
 10
74.960100395963877
 20
84.607436428392646
 30
0.0
 70
    32
  0
VERTEX
  5
33C5E
  8
0
 10
75.006151332077025
 20
84.139455743908741
 30
0.0
 70
    32
  0
VERTEX
  5
33C5F
  8
0
 10
75.09766695839528
 20
83.654864162264445
 30
0.0
 70
    32
  0
VERTEX
  5
33C60
  8
0
 10
75.161454783240856
 20
83.399041898832422
 30
0.0
 70
    32
  0
SEQEND
  5
33C61
  8
0
  0
POLYLINE
  5
33C62
  8
0
 66
     1
 10
0.0
 20
0.0
 30
0.0
 70
     8
  0
VERTEX
  5
33C63
  8
0
 10
79.246935939967102
 20
83.399041898832422
 30
0.0
 70
    32
  0
VERTEX
  5
33C64
  8
0
 10
79.310723764812664
 20
83.654864162264445
 30
0.0
 70
    32
  0
VERTEX
  5
33C65
  8
0
 10
79.402239391131161
 20
84.139455743908741
 30
0.0
 70
    32
  0
VERTEX
  5
33C66
  8
0
 10
79.448290327244194
 20
84.607436428392646
 30
0.0
 70
    32
  0
VERTEX
  5
33C67
  8
0
 10
79.454195361603979
 20
84.842417571806493
 30
0.0
 70
    32
  0
SEQEND
  5
33C68
  8
0
  0
POLYLINE
  5
33C69
  8
0
 66
     1
 10
0.0
 20
0.0
 30
0.0
 70
     8
  0
VERTEX
  5
33C6A
  8
0
 10
79.454195361603979
 20
84.842417571806493
 30
0.0
 70
    32
  0
VERTEX
  5
33C6B
  8
0
 10
79.448290327244081
 20
85.07739871522034
 30
0.0
 70
    32
  0
VERTEX
  5
33C6C
  8
0
 10
79.402239391130934
 20
85.545379399704245
 30
0.0
 70
    32
  0
VERTEX
  5
33C6D
  8
0
 10
79.310723764812664
 20
86.029970981348526
 30
0.0
 70
    32
  0
VERTEX
  5
33C6E
  8
0
 10
79.246935939967102
 20
86.285793244780564
 30
0.0
 70
    32
  0
SEQEND
  5
33C6F
  8
0
  0
LINE
  5
33C70
  8
0
 10
75.161454783240856
 20
83.399041898832422
 30
0.0
 11
79.246935939967102
 21
83.399041898832422
 31
0.0
  0
LINE
  5
33C71
  8
0
 10
75.161454783240856
 20
94.946047282624988
 30
0.0
 11
79.246935939967102
 21
94.946047282624988
 31
0.0
  0
LINE
  5
33C72
  8
0
 10
72.226695361603902
 20
89.172544590728705
 30
0.0
 11
66.231695361604011
 21
89.172544590728705
 31
0.0
  0
ARC
  5
33C73
  8
0
 10
71.454195361603865
 20
80.992815008079845
 30
0.0
 40
0.5000000000000391
 50
344.00000000000517
 51
0.0
  0
ARC
  5
33C74
  8
0
 10
71.454195361603865
 20
97.352274173377467
 30
0.0
 40
0.500000000000039
 50
0.0
 51
15.999999999994809
  0
LINE
  5
33C75
  8
0
 10
69.939626267808762
 20
104.4481819465457
 30
0.0
 11
71.934826209573089
 21
97.490092851285965
 31
0.0
  0
LINE
  5
33C76
  8
0
 10
71.934826209573089
 20
80.854996330171346
 30
0.0
 11
69.939626267808762
 21
73.89690723491168
 31
0.0
  0
ARC
  5
33C77
  8
0
 10
68.978364571870429
 20
74.172544590728705
 30
0.0
 40
1.0000000000000031
 50
298.4134564554389
 51
343.99999999999852
  0
ARC
  5
33C78
  8
0
 10
68.978364571870429
 20
104.17254459072871
 30
0.0
 40
0.9999999999999996
 50
16.00000000000151
 51
61.586543544561053
  0
LINE
  5
33C79
  8
0
 10
71.954195361603979
 20
80.992815008079845
 30
0.0
 11
71.954195361603979
 21
97.352274173377467
 31
0.0
  0
LINE
  5
33C7A
  8
0
 10
71.934826209573089
 20
80.854996330171346
 30
0.0
 11
71.934826209573089
 21
97.490092851285965
 31
0.0
  0
LINE
  5
33C7B
  8
0
 10
69.939626267808762
 20
73.89690723491168
 30
0.0
 11
69.939626267808762
 21
104.4481819465457
 31
0.0
  0
LINE
  5
33C7C
  8
0
 10
42.681695361604064
 20
89.172544590728705
 30
0.0
 11
48.676695361603947
 21
89.172544590728705
 31
0.0
  0
ARC
  5
33C7D
  8
0
 10
43.454195361604093
 20
97.352274173377467
 30
0.0
 40
0.5000000000000391
 50
164.0000000000052
 51
180.0
  0
ARC
  5
33C7E
  8
0
 10
43.454195361604093
 20
80.992815008079845
 30
0.0
 40
0.500000000000039
 50
180.0
 51
196.00000000000151
  0
LINE
  5
33C7F
  8
0
 10
44.968764455399189
 20
73.89690723491168
 30
0.0
 11
42.973564513634862
 21
80.854996330171346
 31
0.0
  0
LINE
  5
33C80
  8
0
 10
42.973564513634862
 20
97.490092851285965
 30
0.0
 11
44.968764455399189
 21
104.4481819465457
 31
0.0
  0
ARC
  5
33C81
  8
0
 10
45.930026151337529
 20
104.17254459072871
 30
0.0
 40
1.0000000000000151
 50
118.4134564554389
 51
163.99999999999849
  0
ARC
  5
33C82
  8
0
 10
45.930026151337529
 20
74.172544590728705
 30
0.0
 40
1.0000000000000071
 50
196.00000000000151
 51
241.5865435445611
  0
LINE
  5
33C83
  8
0
 10
42.954195361603972
 20
97.352274173377467
 30
0.0
 11
42.954195361603972
 21
80.992815008079845
 31
0.0
  0
LINE
  5
33C84
  8
0
 10
42.973564513634862
 20
97.490092851285965
 30
0.0
 11
42.973564513634862
 21
80.854996330171346
 31
0.0
  0
LINE
  5
33C85
  8
0
 10
44.968764455399189
 20
104.4481819465457
 30
0.0
 11
44.968764455399189
 21
73.89690723491168
 31
0.0
  0
LINE
  5
33C87
  8
1
 10
29.754195361604051
 20
89.172544590728705
 30
0.0
 11
84.454195361603979
 21
89.172544590728705
 31
0.0
  0
ARC
  5
33C88
  8
0
 10
47.954195361603972
 20
115.67254459072871
 30
0.0
 40
2.500000000000004
 50
102.01801191498831
 51
180.0
  0
ARC
  5
33C89
  8
0
 10
47.954195361603972
 20
62.672544590728698
 30
0.0
 40
2.499999999999996
 50
180.0
 51
257.98198808501161
  0
ARC
  5
33C8A
  8
0
 10
57.454195361604093
 20
71.047544590728933
 30
0.0
 40
48.12499999999968
 50
77.98198808501165
 51
102.01801191498831
  0
ARC
  5
33C8B
  8
0
 10
57.454195361604093
 20
107.29754459072861
 30
0.0
 40
48.124999999999851
 50
257.98198808501161
 51
282.01801191498828
  0
ARC
  5
33C8C
  8
0
 10
66.954195361603979
 20
115.67254459072871
 30
0.0
 40
2.499999999999996
 50
0.0
 51
77.98198808501165
  0
ARC
  5
33C8D
  8
0
 10
66.954195361603979
 20
62.672544590728698
 30
0.0
 40
2.499999999999996
 50
282.01801191498828
 51
0.0
  0
LINE
  5
33C8E
  8
0
 10
45.454195361603972
 20
115.67254459072871
 30
0.0
 11
45.454195361603972
 21
62.672544590728698
 31
0.0
  0
LINE
  5
33C8F
  8
0
 10
47.433647416398458
 20
118.11775007018061
 30
0.0
 11
47.433647416398458
 21
60.227339111276763
 31
0.0
  0
LINE
  5
33C90
  8
0
 10
67.474743306809501
 20
118.1177500701807
 30
0.0
 11
67.474743306809501
 21
60.227339111276649
 31
0.0
  0
LINE
  5
33C91
  8
0
 10
69.454195361603979
 20
115.67254459072871
 30
0.0
 11
69.454195361603979
 21
62.672544590728698
 31
0.0
  0
LINE
  5
33C92
  8
0
 10
40.179195361604002
 20
89.172544590728705
 30
0.0
 11
35.229195361603963
 21
89.172544590728705
 31
0.0
  0
LINE
  5
33C93
  8
0
 10
39.954195361603979
 20
84.172544590728705
 30
0.0
 11
39.746935939967102
 21
83.399041898832422
 31
0.0
  0
LINE
  5
33C94
  8
0
 10
39.746935939967102
 20
94.946047282624988
 30
0.0
 11
39.954195361603979
 21
94.172544590728705
 31
0.0
  0
LINE
  5
33C95
  8
0
 10
35.661454783240863
 20
83.399041898832422
 30
0.0
 11
35.454195361603979
 21
84.172544590728705
 31
0.0
  0
LINE
  5
33C96
  8
0
 10
35.454195361603979
 20
94.172544590728705
 30
0.0
 11
35.661454783240863
 21
94.946047282624988
 31
0.0
  0
LINE
  5
33C97
  8
0
 10
35.454195361603979
 20
84.172544590728705
 30
0.0
 11
35.454195361603979
 21
94.172544590728705
 31
0.0
  0
POLYLINE
  5
33C98
  8
0
 66
     1
 10
0.0
 20
0.0
 30
0.0
 70
     8
  0
VERTEX
  5
33C99
  8
0
 10
39.746935939967102
 20
92.059295936676847
 30
0.0
 70
    32
  0
VERTEX
  5
33C9A
  8
0
 10
39.810414580271981
 20
92.313774184977845
 30
0.0
 70
    32
  0
VERTEX
  5
33C9B
  8
0
 10
39.901906950574251
 20
92.797421501687765
 30
0.0
 70
    32
  0
VERTEX
  5
33C9C
  8
0
 10
39.94822697514735
 20
93.266430546143113
 30
0.0
 70
    32
  0
VERTEX
  5
33C9D
  8
0
 10
39.954195361603979
 20
93.502671609650918
 30
0.0
 70
    32
  0
SEQEND
  5
33C9E
  8
0
  0
POLYLINE
  5
33C9F
  8
0
 66
     1
 10
0.0
 20
0.0
 30
0.0
 70
     8
  0
VERTEX
  5
33CA0
  8
0
 10
39.954195361603979
 20
93.502671609650918
 30
0.0
 70
    32
  0
VERTEX
  5
33CA1
  8
0
 10
39.94822697514735
 20
93.738912673158595
 30
0.0
 70
    32
  0
VERTEX
  5
33CA2
  8
0
 10
39.901906950574251
 20
94.207921717613942
 30
0.0
 70
    32
  0
VERTEX
  5
33CA3
  8
0
 10
39.810414580271981
 20
94.691569034323905
 30
0.0
 70
    32
  0
VERTEX
  5
33CA4
  8
0
 10
39.746935939967102
 20
94.946047282624988
 30
0.0
 70
    32
  0
SEQEND
  5
33CA5
  8
0
  0
POLYLINE
  5
33CA6
  8
0
 66
     1
 10
0.0
 20
0.0
 30
0.0
 70
     8
  0
VERTEX
  5
33CA7
  8
0
 10
35.661454783240863
 20
94.946047282624988
 30
0.0
 70
    32
  0
VERTEX
  5
33CA8
  8
0
 10
35.597976142935977
 20
94.691569034323905
 30
0.0
 70
    32
  0
VERTEX
  5
33CA9
  8
0
 10
35.506483772633707
 20
94.207921717613942
 30
0.0
 70
    32
  0
VERTEX
  5
33CAA
  8
0
 10
35.460163748060609
 20
93.738912673158595
 30
0.0
 70
    32
  0
VERTEX
  5
33CAB
  8
0
 10
35.454195361603979
 20
93.502671609650918
 30
0.0
 70
    32
  0
SEQEND
  5
33CAC
  8
0
  0
POLYLINE
  5
33CAD
  8
0
 66
     1
 10
0.0
 20
0.0
 30
0.0
 70
     8
  0
VERTEX
  5
33CAE
  8
0
 10
35.454195361603979
 20
93.502671609650918
 30
0.0
 70
    32
  0
VERTEX
  5
33CAF
  8
0
 10
35.460163748060609
 20
93.266430546143113
 30
0.0
 70
    32
  0
VERTEX
  5
33CB0
  8
0
 10
35.506483772633707
 20
92.797421501687765
 30
0.0
 70
    32
  0
VERTEX
  5
33CB1
  8
0
 10
35.597976142935977
 20
92.313774184977845
 30
0.0
 70
    32
  0
VERTEX
  5
33CB2
  8
0
 10
35.661454783240863
 20
92.059295936676847
 30
0.0
 70
    32
  0
SEQEND
  5
33CB3
  8
0
  0
LINE
  5
33CB4
  8
0
 10
39.746935939967102
 20
94.946047282624988
 30
0.0
 11
35.661454783240863
 21
94.946047282624988
 31
0.0
  0
POLYLINE
  5
33CB5
  8
0
 66
     1
 10
0.0
 20
0.0
 30
0.0
 70
     8
  0
VERTEX
  5
33CB6
  8
0
 10
35.454195361603979
 20
84.842417571806493
 30
0.0
 70
    32
  0
VERTEX
  5
33CB7
  8
0
 10
35.460163748060609
 20
84.606176508298688
 30
0.0
 70
    32
  0
VERTEX
  5
33CB8
  8
0
 10
35.506483772633707
 20
84.137167463843468
 30
0.0
 70
    32
  0
VERTEX
  5
33CB9
  8
0
 10
35.597976142935977
 20
83.653520147133506
 30
0.0
 70
    32
  0
VERTEX
  5
33CBA
  8
0
 10
35.661454783240863
 20
83.399041898832422
 30
0.0
 70
    32
  0
SEQEND
  5
33CBB
  8
0
  0
POLYLINE
  5
33CBC
  8
0
 66
     1
 10
0.0
 20
0.0
 30
0.0
 70
     8
  0
VERTEX
  5
33CBD
  8
0
 10
39.746935939967102
 20
83.399041898832422
 30
0.0
 70
    32
  0
VERTEX
  5
33CBE
  8
0
 10
39.810414580271981
 20
83.653520147133506
 30
0.0
 70
    32
  0
VERTEX
  5
33CBF
  8
0
 10
39.901906950574251
 20
84.137167463843468
 30
0.0
 70
    32
  0
VERTEX
  5
33CC0
  8
0
 10
39.94822697514735
 20
84.606176508298688
 30
0.0
 70
    32
  0
VERTEX
  5
33CC1
  8
0
 10
39.954195361603979
 20
84.842417571806493
 30
0.0
 70
    32
  0
SEQEND
  5
33CC2
  8
0
  0
POLYLINE
  5
33CC3
  8
0
 66
     1
 10
0.0
 20
0.0
 30
0.0
 70
     8
  0
VERTEX
  5
33CC4
  8
0
 10
39.954195361603979
 20
84.842417571806493
 30
0.0
 70
    32
  0
VERTEX
  5
33CC5
  8
0
 10
39.94822697514735
 20
85.078658635314298
 30
0.0
 70
    32
  0
VERTEX
  5
33CC6
  8
0
 10
39.901906950574251
 20
85.547667679769518
 30
0.0
 70
    32
  0
VERTEX
  5
33CC7
  8
0
 10
39.810414580271981
 20
86.031314996479466
 30
0.0
 70
    32
  0
VERTEX
  5
33CC8
  8
0
 10
39.746935939967102
 20
86.285793244780564
 30
0.0
 70
    32
  0
SEQEND
  5
33CC9
  8
0
  0
POLYLINE
  5
33CCA
  8
0
 66
     1
 10
0.0
 20
0.0
 30
0.0
 70
     8
  0
VERTEX
  5
33CCB
  8
0
 10
35.661454783240863
 20
86.285793244780564
 30
0.0
 70
    32
  0
VERTEX
  5
33CCC
  8
0
 10
35.597976142935977
 20
86.031314996479466
 30
0.0
 70
    32
  0
VERTEX
  5
33CCD
  8
0
 10
35.506483772633707
 20
85.547667679769518
 30
0.0
 70
    32
  0
VERTEX
  5
33CCE
  8
0
 10
35.460163748060609
 20
85.078658635314298
 30
0.0
 70
    32
  0
VERTEX
  5
33CCF
  8
0
 10
35.454195361603979
 20
84.842417571806493
 30
0.0
 70
    32
  0
SEQEND
  5
33CD0
  8
0
  0
LINE
  5
33CD1
  8
0
 10
39.746935939967102
 20
83.399041898832422
 30
0.0
 11
35.661454783240863
 21
83.399041898832422
 31
0.0
  0
POLYLINE
  5
33CD2
  8
0
 66
     1
 10
0.0
 20
0.0
 30
0.0
 70
     8
  0
VERTEX
  5
33CD3
  8
0
 10
35.454195361603979
 20
89.172544590728705
 30
0.0
 70
    32
  0
VERTEX
  5
33CD4
  8
0
 10
35.460163748060609
 20
88.700062463713095
 30
0.0
 70
    32
  0
VERTEX
  5
33CD5
  8
0
 10
35.506483772633707
 20
87.762044374802542
 30
0.0
 70
    32
  0
VERTEX
  5
33CD6
  8
0
 10
35.597976142935977
 20
86.794749741382645
 30
0.0
 70
    32
  0
VERTEX
  5
33CD7
  8
0
 10
35.661454783240863
 20
86.285793244780564
 30
0.0
 70
    32
  0
SEQEND
  5
33CD8
  8
0
  0
LINE
  5
33CD9
  8
0
 10
39.746935939967102
 20
86.285793244780564
 30
0.0
 11
35.661454783240863
 21
86.285793244780564
 31
0.0
  0
POLYLINE
  5
33CDA
  8
0
 66
     1
 10
0.0
 20
0.0
 30
0.0
 70
     8
  0
VERTEX
  5
33CDB
  8
0
 10
39.746935939967102
 20
86.285793244780564
 30
0.0
 70
    32
  0
VERTEX
  5
33CDC
  8
0
 10
39.810414580271981
 20
86.794749741382645
 30
0.0
 70
    32
  0
VERTEX
  5
33CDD
  8
0
 10
39.901906950574251
 20
87.762044374802542
 30
0.0
 70
    32
  0
VERTEX
  5
33CDE
  8
0
 10
39.94822697514735
 20
88.700062463713095
 30
0.0
 70
    32
  0
VERTEX
  5
33CDF
  8
0
 10
39.954195361603979
 20
89.172544590728705
 30
0.0
 70
    32
  0
SEQEND
  5
33CE0
  8
0
  0
POLYLINE
  5
33CE1
  8
0
 66
     1
 10
0.0
 20
0.0
 30
0.0
 70
     8
  0
VERTEX
  5
33CE2
  8
0
 10
39.954195361603979
 20
89.172544590728705
 30
0.0
 70
    32
  0
VERTEX
  5
33CE3
  8
0
 10
39.94822697514735
 20
89.645026717744202
 30
0.0
 70
    32
  0
VERTEX
  5
33CE4
  8
0
 10
39.901906950574251
 20
90.583044806654755
 30
0.0
 70
    32
  0
VERTEX
  5
33CE5
  8
0
 10
39.810414580271981
 20
91.550339440074652
 30
0.0
 70
    32
  0
VERTEX
  5
33CE6
  8
0
 10
39.746935939967102
 20
92.059295936676847
 30
0.0
 70
    32
  0
SEQEND
  5
33CE7
  8
0
  0
LINE
  5
33CE8
  8
0
 10
39.746935939967102
 20
92.059295936676847
 30
0.0
 11
35.661454783240863
 21
92.059295936676847
 31
0.0
  0
POLYLINE
  5
33CE9
  8
0
 66
     1
 10
0.0
 20
0.0
 30
0.0
 70
     8
  0
VERTEX
  5
33CEA
  8
0
 10
35.661454783240863
 20
92.059295936676847
 30
0.0
 70
    32
  0
VERTEX
  5
33CEB
  8
0
 10
35.597976142935977
 20
91.550339440074652
 30
0.0
 70
    32
  0
VERTEX
  5
33CEC
  8
0
 10
35.506483772633707
 20
90.583044806654755
 30
0.0
 70
    32
  0
VERTEX
  5
33CED
  8
0
 10
35.460163748060609
 20
89.645026717744202
 30
0.0
 70
    32
  0
VERTEX
  5
33CEE
  8
0
 10
35.454195361603979
 20
89.172544590728705
 30
0.0
 70
    32
  0
SEQEND
  5
33CEF
  8
0
  0
LINE
  5
33CF0
  8
1
 10
57.454195361603972
 20
147.17254459072871
 30
0.0
 11
57.454195361603972
 21
54.172544590728762
 31
0.0
  0
LINE
  5
33CF1
  8
0
 10
41.954195361603979
 20
80.172544590728705
 30
0.0
 11
39.954195361603979
 21
80.172544590728705
 31
0.0
  0
LINE
  5
33CF2
  8
0
 10
74.954195361603965
 20
80.172544590728705
 30
0.0
 11
72.954195361603979
 21
80.172544590728705
 31
0.0
  0
ARC
  5
33CF3
  8
0
 10
67.454195361603965
 20
140.67254459072871
 30
0.0
 40
2.0000000000000071
 50
270.0
 51
345.52248781407002
  0
ARC
  5
33CF4
  8
0
 10
47.454195361603972
 20
140.67254459072871
 30
0.0
 40
2.0000000000000062
 50
194.47751218593001
 51
270.0
  0
ARC
  5
33CF5
  8
0
 10
27.454195361603979
 20
138.67254459072871
 30
0.0
 40
1.5
 50
90.0
 51
180.0
  0
LINE
  5
33CF6
  8
0
 10
23.954195361603979
 20
138.67254459072871
 30
0.0
 11
23.954195361603979
 21
131.31952613376399
 31
0.0
  0
ARC
  5
33CF7
  8
0
 10
27.954195361709139
 20
131.31952613376481
 30
0.0
 40
4.0000000001051879
 50
180.0
 51
180.67297650664619
  0
ARC
  5
33CF8
  8
0
 10
27.954195361615461
 20
131.31952613376399
 30
0.0
 40
2.0000000000114779
 50
180.0
 51
181.3460458798435
  0
LINE
  5
33CF9
  8
0
 10
25.954195361603979
 20
131.31952613376379
 30
0.0
 11
25.954195361603979
 21
138.67254459072871
 31
0.0
  0
LINE
  5
33CFA
  8
0
 10
41.954195361603979
 20
82.254792432139823
 30
0.0
 11
39.954195361603979
 21
82.254792432139823
 31
0.0
  0
LINE
  5
33CFB
  8
0
 10
74.954195361603965
 20
82.254792432139823
 30
0.0
 11
72.954195361603979
 21
82.254792432139823
 31
0.0
  0
LINE
  5
33CFC
  8
0
 10
41.954195361603979
 20
95.772544590728614
 30
0.0
 11
39.954195361603979
 21
95.772544590728614
 31
0.0
  0
LINE
  5
33CFD
  8
0
 10
74.954195361603965
 20
95.772544590728614
 30
0.0
 11
72.954195361603979
 21
95.772544590728614
 31
0.0
  0
POLYLINE
  5
33CFE
  8
0
 66
     1
 10
0.0
 20
0.0
 30
0.0
 70
     8
  0
VERTEX
  5
33CFF
  8
0
 10
41.954195361603979
 20
103.42021058303661
 30
0.0
 70
    32
  0
VERTEX
  5
33D00
  8
0
 10
41.953473319980048
 20
103.51329107585271
 30
0.0
 70
    32
  0
VERTEX
  5
33D01
  8
0
 10
41.947698029635148
 20
103.6993624562231
 30
0.0
 70
    32
  0
VERTEX
  5
33D02
  8
0
 10
41.936153008610752
 20
103.8851651070682
 30
0.0
 70
    32
  0
VERTEX
  5
33D03
  8
0
 10
41.928220105502866
 20
103.9779097486129
 30
0.0
 70
    32
  0
VERTEX
  5
33D04
  8
0
 10
41.918849370885823
 20
104.0705201628207
 30
0.0
 70
    32
  0
VERTEX
  5
33D05
  8
0
 10
41.895803774053427
 20
104.25524918879699
 30
0.0
 70
    32
  0
VERTEX
  5
33D06
  8
0
 10
41.867038403285612
 20
104.4391743529701
 30
0.0
 70
    32
  0
VERTEX
  5
33D07
  8
0
 10
41.832580949976091
 20
104.622118597162
 30
0.0
 70
    32
  0
VERTEX
  5
33D08
  8
0
 10
41.792464585082939
 20
104.8039058074913
 30
0.0
 70
    32
  0
VERTEX
  5
33D09
  8
0
 10
41.746727927195927
 20
104.9843609839115
 30
0.0
 70
    32
  0
VERTEX
  5
33D0A
  8
0
 10
41.721765537233857
 20
105.0740347179387
 30
0.0
 70
    32
  0
VERTEX
  5
33D0B
  8
0
 10
41.695415005360012
 20
105.1633104086777
 30
0.0
 70
    32
  0
VERTEX
  5
33D0C
  8
0
 10
41.638575216689887
 20
105.3405818135784
 30
0.0
 70
    32
  0
VERTEX
  5
33D0D
  8
0
 10
41.576263278817692
 20
105.51600454577159
 30
0.0
 70
    32
  0
VERTEX
  5
33D0E
  8
0
 10
41.508539177217351
 20
105.68940973206649
 30
0.0
 70
    32
  0
VERTEX
  5
33D0F
  8
0
 10
41.435468107459542
 20
105.8606304414914
 30
0.0
 70
    32
  0
VERTEX
  5
33D10
  8
0
 10
41.357120412450172
 20
106.0295018459927
 30
0.0
 70
    32
  0
VERTEX
  5
33D11
  8
0
 10
41.315991203544513
 20
106.1130056642394
 30
0.0
 70
    32
  0
VERTEX
  5
33D12
  8
0
 10
41.273571514713119
 20
106.19586137910829
 30
0.0
 70
    32
  0
VERTEX
  5
33D13
  8
0
 10
41.18490184378458
 20
106.3595488924651
 30
0.0
 70
    32
  0
VERTEX
  5
33D14
  8
0
 10
41.091196758785593
 20
106.5204068099478
 30
0.0
 70
    32
  0
VERTEX
  5
33D15
  8
0
 10
41.042483938542553
 20
106.59972616843589
 30
0.0
 70
    32
  0
SEQEND
  5
33D16
  8
0
  0
LINE
  5
33D17
  8
0
 10
41.042483938542553
 20
106.59972616843589
 30
0.0
 11
26.258099169291089
 21
130.2596876052975
 31
0.0
  0
POLYLINE
  5
33D18
  8
0
 66
     1
 10
0.0
 20
0.0
 30
0.0
 70
     8
  0
VERTEX
  5
33D19
  8
0
 10
26.258099169291089
 20
130.2596876052975
 30
0.0
 70
    32
  0
VERTEX
  5
33D1A
  8
0
 10
26.242536303962879
 20
130.28501017429531
 30
0.0
 70
    32
  0
VERTEX
  5
33D1B
  8
0
 10
26.21254803200657
 20
130.33633511503649
 30
0.0
 70
    32
  0
VERTEX
  5
33D1C
  8
0
 10
26.184098307787622
 20
130.38852859344991
 30
0.0
 70
    32
  0
VERTEX
  5
33D1D
  8
0
 10
26.170458308568069
 20
130.41493665470341
 30
0.0
 70
    32
  0
VERTEX
  5
33D1E
  8
0
 10
26.157212263408379
 20
130.44154450252131
 30
0.0
 70
    32
  0
VERTEX
  5
33D1F
  8
0
 10
26.131913649637571
 20
130.49533600871229
 30
0.0
 70
    32
  0
VERTEX
  5
33D20
  8
0
 10
26.1082248149288
 20
130.5498555933325
 30
0.0
 70
    32
  0
VERTEX
  5
33D21
  8
0
 10
26.086166685679132
 20
130.60505509451721
 30
0.0
 70
    32
  0
VERTEX
  5
33D22
  8
0
 10
26.065758747741832
 20
130.66088574977189
 30
0.0
 70
    32
  0
VERTEX
  5
33D23
  8
0
 10
26.047019029214091
 20
130.71729823904971
 30
0.0
 70
    32
  0
VERTEX
  5
33D24
  8
0
 10
26.038279983457759
 20
130.7457071171892
 30
0.0
 70
    32
  0
VERTEX
  5
33D25
  8
0
 10
26.02996408450997
 20
130.77424272831931
 30
0.0
 70
    32
  0
VERTEX
  5
33D26
  8
0
 10
26.014608979737549
 20
130.83166891358741
 30
0.0
 70
    32
  0
VERTEX
  5
33D27
  8
0
 10
26.000967279388991
 20
130.88952606533741
 30
0.0
 70
    32
  0
VERTEX
  5
33D28
  8
0
 10
25.98905103435823
 20
130.94776307334249
 30
0.0
 70
    32
  0
VERTEX
  5
33D29
  8
0
 10
25.978870771295188
 20
131.00632849181619
 30
0.0
 70
    32
  0
VERTEX
  5
33D2A
  8
0
 10
25.970435483306922
 20
131.06517058485829
 30
0.0
 70
    32
  0
VERTEX
  5
33D2B
  8
0
 10
25.966874594000618
 20
131.09467914878849
 30
0.0
 70
    32
  0
VERTEX
  5
33D2C
  8
0
 10
25.963752622012979
 20
131.12423737215829
 30
0.0
 70
    32
  0
VERTEX
  5
33D2D
  8
0
 10
25.95882809096258
 20
131.18347667491381
 30
0.0
 70
    32
  0
VERTEX
  5
33D2E
  8
0
 10
25.955666240420332
 20
131.2428361619246
 30
0.0
 70
    32
  0
VERTEX
  5
33D2F
  8
0
 10
25.954747254096791
 20
131.27254459072859
 30
0.0
 70
    32
  0
SEQEND
  5
33D30
  8
0
  0
LINE
  5
33D31
  8
0
 10
25.954747254096791
 20
131.27254459072859
 30
0.0
 11
23.954471279293561
 21
131.27254459072859
 31
0.0
  0
POLYLINE
  5
33D32
  8
0
 66
     1
 10
0.0
 20
0.0
 30
0.0
 70
     8
  0
VERTEX
  5
33D33
  8
0
 10
23.954471279293561
 20
131.27254459072859
 30
0.0
 70
    32
  0
VERTEX
  5
33D34
  8
0
 10
23.95564609271139
 20
131.2118054568345
 30
0.0
 70
    32
  0
VERTEX
  5
33D35
  8
0
 10
23.960762198849348
 20
131.09041573545881
 30
0.0
 70
    32
  0
VERTEX
  5
33D36
  8
0
 10
23.969562656156651
 20
130.96923739189509
 30
0.0
 70
    32
  0
VERTEX
  5
33D37
  8
0
 10
23.97534211180789
 20
130.90876243455619
 30
0.0
 70
    32
  0
VERTEX
  5
33D38
  8
0
 10
23.98203934531011
 20
130.8483822255784
 30
0.0
 70
    32
  0
VERTEX
  5
33D39
  8
0
 10
23.99818075528572
 20
130.72796173777971
 30
0.0
 70
    32
  0
VERTEX
  5
33D3A
  8
0
 10
24.017971993979248
 20
130.60808702873459
 30
0.0
 70
    32
  0
VERTEX
  5
33D3B
  8
0
 10
24.041394801945788
 20
130.4888686951418
 30
0.0
 70
    32
  0
VERTEX
  5
33D3C
  8
0
 10
24.0684275692455
 20
130.37041672812649
 30
0.0
 70
    32
  0
VERTEX
  5
33D3D
  8
0
 10
24.09904535538146
 20
130.25284041176209
 30
0.0
 70
    32
  0
VERTEX
  5
33D3E
  8
0
 10
24.115689931508431
 20
130.1944145556852
 30
0.0
 70
    32
  0
VERTEX
  5
33D3F
  8
0
 10
24.133219912309531
 20
130.13624822224489
 30
0.0
 70
    32
  0
VERTEX
  5
33D40
  8
0
 10
24.170919710500129
 20
130.0207477278127
 30
0.0
 70
    32
  0
VERTEX
  5
33D41
  8
0
 10
24.212109968027679
 20
129.9064454895036
 30
0.0
 70
    32
  0
VERTEX
  5
33D42
  8
0
 10
24.256752682660139
 20
129.7934469628409
 30
0.0
 70
    32
  0
VERTEX
  5
33D43
  8
0
 10
24.304806666920172
 20
129.68185640054111
 30
0.0
 70
    32
  0
VERTEX
  5
33D44
  8
0
 10
24.356227586084859
 20
129.5717767563286
 30
0.0
 70
    32
  0
VERTEX
  5
33D45
  8
0
 10
24.3831859410875
 20
129.51733532294989
 30
0.0
 70
    32
  0
VERTEX
  5
33D46
  8
0
 10
24.410967999088601
 20
129.46330958995159
 30
0.0
 70
    32
  0
VERTEX
  5
33D47
  8
0
 10
24.468977402293149
 20
129.3565549734823
 30
0.0
 70
    32
  0
VERTEX
  5
33D48
  8
0
 10
24.530202276081699
 20
129.25161139898981
 30
0.0
 70
    32
  0
VERTEX
  5
33D49
  8
0
 10
24.562002976978309
 20
129.19984907683099
 30
0.0
 70
    32
  0
SEQEND
  5
33D4A
  8
0
  0
LINE
  5
33D4B
  8
0
 10
24.562002976978309
 20
129.19984907683099
 30
0.0
 11
39.346387746229652
 21
105.53988763996939
 31
0.0
  0
POLYLINE
  5
33D4C
  8
0
 66
     1
 10
0.0
 20
0.0
 30
0.0
 70
     8
  0
VERTEX
  5
33D4D
  8
0
 10
39.346387746229652
 20
105.53988763996939
 30
0.0
 70
    32
  0
VERTEX
  5
33D4E
  8
0
 10
39.378862959725097
 20
105.487008067644
 30
0.0
 70
    32
  0
VERTEX
  5
33D4F
  8
0
 10
39.44133301639102
 20
105.37976945598901
 30
0.0
 70
    32
  0
VERTEX
  5
33D50
  8
0
 10
39.500446130343448
 20
105.27064444708439
 30
0.0
 70
    32
  0
VERTEX
  5
33D51
  8
0
 10
39.528725922897593
 20
105.2154073038385
 30
0.0
 70
    32
  0
VERTEX
  5
33D52
  8
0
 10
39.556145395501403
 20
105.159738091674
 30
0.0
 70
    32
  0
VERTEX
  5
33D53
  8
0
 10
39.608377192174324
 20
105.0471571553398
 30
0.0
 70
    32
  0
VERTEX
  5
33D54
  8
0
 10
39.657091238679527
 20
104.9330100157231
 30
0.0
 70
    32
  0
VERTEX
  5
33D55
  8
0
 10
39.702240639746492
 20
104.8174065581933
 30
0.0
 70
    32
  0
VERTEX
  5
33D56
  8
0
 10
39.743781931661367
 20
104.7004580700645
 30
0.0
 70
    32
  0
VERTEX
  5
33D57
  8
0
 10
39.781675124108013
 20
104.582277133464
 30
0.0
 70
    32
  0
VERTEX
  5
33D58
  8
0
 10
39.799242145357198
 20
104.52276000630459
 30
0.0
 70
    32
  0
VERTEX
  5
33D59
  8
0
 10
39.81588373866532
 20
104.4629775169532
 30
0.0
 70
    32
  0
VERTEX
  5
33D5A
  8
0
 10
39.846374843923293
 20
104.3426740660064
 30
0.0
 70
    32
  0
VERTEX
  5
33D5B
  8
0
 10
39.873119087185387
 20
104.2214825924536
 30
0.0
 70
    32
  0
VERTEX
  5
33D5C
  8
0
 10
39.896090722725042
 20
104.0995197629923
 30
0.0
 70
    32
  0
VERTEX
  5
33D5D
  8
0
 10
39.91526763657032
 20
103.97690298687689
 30
0.0
 70
    32
  0
VERTEX
  5
33D5E
  8
0
 10
39.930631367791761
 20
103.85375030289271
 30
0.0
 70
    32
  0
VERTEX
  5
33D5F
  8
0
 10
39.936878524203173
 20
103.7920100267542
 30
0.0
 70
    32
  0
VERTEX
  5
33D60
  8
0
 10
39.942167126275187
 20
103.7301802657243
 30
0.0
 70
    32
  0
VERTEX
  5
33D61
  8
0
 10
39.949863806958092
 20
103.6063118318275
 30
0.0
 70
    32
  0
VERTEX
  5
33D62
  8
0
 10
39.953714000521359
 20
103.48226424491401
 30
0.0
 70
    32
  0
VERTEX
  5
33D63
  8
0
 10
39.954195361603979
 20
103.42021058303661
 30
0.0
 70
    32
  0
SEQEND
  5
33D64
  8
0
  0
LINE
  5
33D65
  8
0
 10
39.954195361603979
 20
103.42021058303661
 30
0.0
 11
39.954195361603979
 21
80.172544590728705
 31
0.0
  0
LINE
  5
33D66
  8
0
 10
41.954195361603979
 20
103.0725445907286
 30
0.0
 11
39.954195361603979
 21
103.0725445907286
 31
0.0
  0
LINE
  5
33D67
  8
0
 10
41.954195361603979
 20
80.172544590728705
 30
0.0
 11
41.954195361603979
 21
103.42021058303661
 31
0.0
  0
LINE
  5
33D68
  8
0
 10
74.954195361603965
 20
103.0725445907286
 30
0.0
 11
72.954195361603979
 21
103.0725445907286
 31
0.0
  0
LINE
  5
33D69
  8
0
 10
74.954195361603965
 20
80.172544590728705
 30
0.0
 11
74.954195361603965
 21
103.42021058303661
 31
0.0
  0
POLYLINE
  5
33D6A
  8
0
 66
     1
 10
0.0
 20
0.0
 30
0.0
 70
     8
  0
VERTEX
  5
33D6B
  8
0
 10
74.954195361603965
 20
103.42021058303661
 30
0.0
 70
    32
  0
VERTEX
  5
33D6C
  8
0
 10
74.954676722686585
 20
103.48226424491401
 30
0.0
 70
    32
  0
VERTEX
  5
33D6D
  8
0
 10
74.958526916249866
 20
103.6063118318275
 30
0.0
 70
    32
  0
VERTEX
  5
33D6E
  8
0
 10
74.966223596932764
 20
103.7301802657243
 30
0.0
 70
    32
  0
VERTEX
  5
33D6F
  8
0
 10
74.971512199004678
 20
103.7920100267542
 30
0.0
 70
    32
  0
VERTEX
  5
33D70
  8
0
 10
74.977759355416197
 20
103.85375030289271
 30
0.0
 70
    32
  0
VERTEX
  5
33D71
  8
0
 10
74.993123086637638
 20
103.97690298687689
 30
0.0
 70
    32
  0
VERTEX
  5
33D72
  8
0
 10
75.012300000482924
 20
104.0995197629923
 30
0.0
 70
    32
  0
VERTEX
  5
33D73
  8
0
 10
75.035271636022571
 20
104.2214825924536
 30
0.0
 70
    32
  0
VERTEX
  5
33D74
  8
0
 10
75.062015879284672
 20
104.3426740660064
 30
0.0
 70
    32
  0
VERTEX
  5
33D75
  8
0
 10
75.092506984542624
 20
104.4629775169532
 30
0.0
 70
    32
  0
VERTEX
  5
33D76
  8
0
 10
75.10914857785076
 20
104.52276000630459
 30
0.0
 70
    32
  0
VERTEX
  5
33D77
  8
0
 10
75.126715599099953
 20
104.582277133464
 30
0.0
 70
    32
  0
VERTEX
  5
33D78
  8
0
 10
75.164608791546584
 20
104.7004580700645
 30
0.0
 70
    32
  0
VERTEX
  5
33D79
  8
0
 10
75.206150083461466
 20
104.8174065581933
 30
0.0
 70
    32
  0
VERTEX
  5
33D7A
  8
0
 10
75.251299484528431
 20
104.9330100157231
 30
0.0
 70
    32
  0
VERTEX
  5
33D7B
  8
0
 10
75.300013531033642
 20
105.0471571553398
 30
0.0
 70
    32
  0
VERTEX
  5
33D7C
  8
0
 10
75.352245327706555
 20
105.159738091674
 30
0.0
 70
    32
  0
VERTEX
  5
33D7D
  8
0
 10
75.379664800310252
 20
105.2154073038385
 30
0.0
 70
    32
  0
VERTEX
  5
33D7E
  8
0
 10
75.40794459286451
 20
105.27064444708439
 30
0.0
 70
    32
  0
VERTEX
  5
33D7F
  8
0
 10
75.467057706816945
 20
105.37976945598901
 30
0.0
 70
    32
  0
VERTEX
  5
33D80
  8
0
 10
75.529527763482861
 20
105.4870080676441
 30
0.0
 70
    32
  0
VERTEX
  5
33D81
  8
0
 10
75.562002976978306
 20
105.53988763996939
 30
0.0
 70
    32
  0
SEQEND
  5
33D82
  8
0
  0
LINE
  5
33D83
  8
0
 10
75.562002976978306
 20
105.53988763996939
 30
0.0
 11
90.346387746229652
 21
129.19984907683099
 31
0.0
  0
POLYLINE
  5
33D84
  8
0
 66
     1
 10
0.0
 20
0.0
 30
0.0
 70
     8
  0
VERTEX
  5
33D85
  8
0
 10
90.346387746229652
 20
129.19984907683099
 30
0.0
 70
    32
  0
VERTEX
  5
33D86
  8
0
 10
90.378188447126263
 20
129.25161139898981
 30
0.0
 70
    32
  0
VERTEX
  5
33D87
  8
0
 10
90.439413320914809
 20
129.3565549734823
 30
0.0
 70
    32
  0
VERTEX
  5
33D88
  8
0
 10
90.49742272411936
 20
129.46330958995159
 30
0.0
 70
    32
  0
VERTEX
  5
33D89
  8
0
 10
90.525204782120454
 20
129.51733532294989
 30
0.0
 70
    32
  0
VERTEX
  5
33D8A
  8
0
 10
90.552163137123102
 20
129.5717767563286
 30
0.0
 70
    32
  0
VERTEX
  5
33D8B
  8
0
 10
90.603584056287787
 20
129.68185640054111
 30
0.0
 70
    32
  0
VERTEX
  5
33D8C
  8
0
 10
90.651638040547809
 20
129.7934469628409
 30
0.0
 70
    32
  0
VERTEX
  5
33D8D
  8
0
 10
90.696280755180283
 20
129.9064454895036
 30
0.0
 70
    32
  0
VERTEX
  5
33D8E
  8
0
 10
90.737471012707715
 20
130.0207477278127
 30
0.0
 70
    32
  0
VERTEX
  5
33D8F
  8
0
 10
90.775170810898416
 20
130.13624822224489
 30
0.0
 70
    32
  0
VERTEX
  5
33D90
  8
0
 10
90.792700791699531
 20
130.1944145556852
 30
0.0
 70
    32
  0
VERTEX
  5
33D91
  8
0
 10
90.809345367826495
 20
130.25284041176209
 30
0.0
 70
    32
  0
VERTEX
  5
33D92
  8
0
 10
90.839963153962458
 20
130.37041672812649
 30
0.0
 70
    32
  0
VERTEX
  5
33D93
  8
0
 10
90.866995921262173
 20
130.4888686951418
 30
0.0
 70
    32
  0
VERTEX
  5
33D94
  8
0
 10
90.890418729228713
 20
130.60808702873459
 30
0.0
 70
    32
  0
VERTEX
  5
33D95
  8
0
 10
90.910209967922242
 20
130.72796173777971
 30
0.0
 70
    32
  0
VERTEX
  5
33D96
  8
0
 10
90.926351377897845
 20
130.8483822255784
 30
0.0
 70
    32
  0
VERTEX
  5
33D97
  8
0
 10
90.933048611400068
 20
130.90876243455619
 30
0.0
 70
    32
  0
VERTEX
  5
33D98
  8
0
 10
90.938828067051304
 20
130.96923739189509
 30
0.0
 70
    32
  0
VERTEX
  5
33D99
  8
0
 10
90.947628524358606
 20
131.09041573545881
 30
0.0
 70
    32
  0
VERTEX
  5
33D9A
  8
0
 10
90.952744630496568
 20
131.2118054568345
 30
0.0
 70
    32
  0
VERTEX
  5
33D9B
  8
0
 10
90.953919443914401
 20
131.27254459072859
 30
0.0
 70
    32
  0
SEQEND
  5
33D9C
  8
0
  0
POLYLINE
  5
33D9D
  8
0
 66
     1
 10
0.0
 20
0.0
 30
0.0
 70
     8
  0
VERTEX
  5
33D9E
  8
0
 10
88.953643469111171
 20
131.27254459072859
 30
0.0
 70
    32
  0
VERTEX
  5
33D9F
  8
0
 10
88.95272448278763
 20
131.2428361619246
 30
0.0
 70
    32
  0
VERTEX
  5
33DA0
  8
0
 10
88.949562632245375
 20
131.18347667491381
 30
0.0
 70
    32
  0
VERTEX
  5
33DA1
  8
0
 10
88.944638101194982
 20
131.12423737215829
 30
0.0
 70
    32
  0
VERTEX
  5
33DA2
  8
0
 10
88.941516129207344
 20
131.09467914878849
 30
0.0
 70
    32
  0
VERTEX
  5
33DA3
  8
0
 10
88.937955239901044
 20
131.06517058485829
 30
0.0
 70
    32
  0
VERTEX
  5
33DA4
  8
0
 10
88.929519951912766
 20
131.00632849181619
 30
0.0
 70
    32
  0
VERTEX
  5
33DA5
  8
0
 10
88.919339688849732
 20
130.94776307334249
 30
0.0
 70
    32
  0
VERTEX
  5
33DA6
  8
0
 10
88.907423443818956
 20
130.88952606533741
 30
0.0
 70
    32
  0
VERTEX
  5
33DA7
  8
0
 10
88.893781743470413
 20
130.83166891358741
 30
0.0
 70
    32
  0
VERTEX
  5
33DA8
  8
0
 10
88.878426638697988
 20
130.77424272831931
 30
0.0
 70
    32
  0
VERTEX
  5
33DA9
  8
0
 10
88.870110739750203
 20
130.7457071171892
 30
0.0
 70
    32
  0
VERTEX
  5
33DAA
  8
0
 10
88.861371693993874
 20
130.71729823904971
 30
0.0
 70
    32
  0
VERTEX
  5
33DAB
  8
0
 10
88.842631975466134
 20
130.66088574977189
 30
0.0
 70
    32
  0
VERTEX
  5
33DAC
  8
0
 10
88.822224037528827
 20
130.60505509451721
 30
0.0
 70
    32
  0
VERTEX
  5
33DAD
  8
0
 10
88.800165908279155
 20
130.5498555933325
 30
0.0
 70
    32
  0
VERTEX
  5
33DAE
  8
0
 10
88.776477073570405
 20
130.49533600871229
 30
0.0
 70
    32
  0
VERTEX
  5
33DAF
  8
0
 10
88.751178459799576
 20
130.44154450252131
 30
0.0
 70
    32
  0
VERTEX
  5
33DB0
  8
0
 10
88.737932414639886
 20
130.41493665470341
 30
0.0
 70
    32
  0
VERTEX
  5
33DB1
  8
0
 10
88.724292415420337
 20
130.38852859344991
 30
0.0
 70
    32
  0
VERTEX
  5
33DB2
  8
0
 10
88.695842691201392
 20
130.33633511503649
 30
0.0
 70
    32
  0
VERTEX
  5
33DB3
  8
0
 10
88.665854419245079
 20
130.28501017429531
 30
0.0
 70
    32
  0
VERTEX
  5
33DB4
  8
0
 10
88.650291553916858
 20
130.2596876052975
 30
0.0
 70
    32
  0
SEQEND
  5
33DB5
  8
0
  0
LINE
  5
33DB6
  8
0
 10
88.650291553916858
 20
130.2596876052975
 30
0.0
 11
73.865906784665412
 21
106.59972616843589
 31
0.0
  0
POLYLINE
  5
33DB7
  8
0
 66
     1
 10
0.0
 20
0.0
 30
0.0
 70
     8
  0
VERTEX
  5
33DB8
  8
0
 10
73.865906784665412
 20
106.59972616843589
 30
0.0
 70
    32
  0
VERTEX
  5
33DB9
  8
0
 10
73.817193964422344
 20
106.5204068099478
 30
0.0
 70
    32
  0
VERTEX
  5
33DBA
  8
0
 10
73.723488879423371
 20
106.3595488924651
 30
0.0
 70
    32
  0
VERTEX
  5
33DBB
  8
0
 10
73.634819208494832
 20
106.19586137910829
 30
0.0
 70
    32
  0
VERTEX
  5
33DBC
  8
0
 10
73.592399519663445
 20
106.1130056642394
 30
0.0
 70
    32
  0
VERTEX
  5
33DBD
  8
0
 10
73.551270310757786
 20
106.0295018459927
 30
0.0
 70
    32
  0
VERTEX
  5
33DBE
  8
0
 10
73.472922615748416
 20
105.8606304414914
 30
0.0
 70
    32
  0
VERTEX
  5
33DBF
  8
0
 10
73.3998515459906
 20
105.68940973206649
 30
0.0
 70
    32
  0
VERTEX
  5
33DC0
  8
0
 10
73.332127444390267
 20
105.51600454577159
 30
0.0
 70
    32
  0
VERTEX
  5
33DC1
  8
0
 10
73.269815506518043
 20
105.3405818135784
 30
0.0
 70
    32
  0
VERTEX
  5
33DC2
  8
0
 10
73.212975717847939
 20
105.1633104086777
 30
0.0
 70
    32
  0
VERTEX
  5
33DC3
  8
0
 10
73.186625185974094
 20
105.0740347179387
 30
0.0
 70
    32
  0
VERTEX
  5
33DC4
  8
0
 10
73.161662796012024
 20
104.9843609839115
 30
0.0
 70
    32
  0
VERTEX
  5
33DC5
  8
0
 10
73.115926138125019
 20
104.8039058074913
 30
0.0
 70
    32
  0
VERTEX
  5
33DC6
  8
0
 10
73.075809773231867
 20
104.622118597162
 30
0.0
 70
    32
  0
VERTEX
  5
33DC7
  8
0
 10
73.041352319922325
 20
104.4391743529701
 30
0.0
 70
    32
  0
VERTEX
  5
33DC8
  8
0
 10
73.012586949154525
 20
104.25524918879699
 30
0.0
 70
    32
  0
VERTEX
  5
33DC9
  8
0
 10
72.989541352322135
 20
104.0705201628207
 30
0.0
 70
    32
  0
VERTEX
  5
33DCA
  8
0
 10
72.980170617705085
 20
103.9779097486129
 30
0.0
 70
    32
  0
VERTEX
  5
33DCB
  8
0
 10
72.972237714597213
 20
103.8851651070682
 30
0.0
 70
    32
  0
VERTEX
  5
33DCC
  8
0
 10
72.96069269357281
 20
103.6993624562231
 30
0.0
 70
    32
  0
VERTEX
  5
33DCD
  8
0
 10
72.95491740322791
 20
103.51329107585271
 30
0.0
 70
    32
  0
VERTEX
  5
33DCE
  8
0
 10
72.954195361603979
 20
103.42021058303661
 30
0.0
 70
    32
  0
SEQEND
  5
33DCF
  8
0
  0
LINE
  5
33DD0
  8
0
 10
72.954195361603979
 20
103.42021058303661
 30
0.0
 11
72.954195361603979
 21
80.172544590728705
 31
0.0
  0
ARC
  5
33DD1
  8
0
 10
87.454195361603965
 20
138.67254459072871
 30
0.0
 40
3.4999999999999929
 50
0.0
 51
90.0
  0
ARC
  5
33DD2
  8
0
 10
87.454195361603965
 20
138.67254459072871
 30
0.0
 40
1.4999999999999929
 50
0.0
 51
90.0
  0
LINE
  5
33DD3
  8
0
 10
88.954195361603979
 20
138.67254459072871
 30
0.0
 11
88.954195361603979
 21
131.31952613376379
 31
0.0
  0
ARC
  5
33DD4
  8
0
 10
86.954195361540997
 20
131.3195261337643
 30
0.0
 40
2.0000000000629679
 50
358.6539541201891
 51
0.0
  0
LINE
  5
33DD5
  8
0
 10
90.953919443914401
 20
131.27254459072859
 30
0.0
 11
88.953643469111171
 21
131.27254459072859
 31
0.0
  0
ARC
  5
33DD6
  8
0
 10
86.954195361494484
 20
131.31952613376481
 30
0.0
 40
4.0000000001094227
 50
359.32702349336029
 51
0.0
  0
LINE
  5
33DD7
  8
0
 10
90.954195361603965
 20
131.31952613376399
 30
0.0
 11
90.954195361603965
 21
138.67254459072871
 31
0.0
  0
ARC
  5
33DD8
  8
0
 10
27.454195361603979
 20
138.67254459072871
 30
0.0
 40
3.5000000000000129
 50
90.0
 51
179.99999914622629
  0
LINE
  5
33DD9
  8
0
 10
87.454195361603965
 20
142.17254459072871
 30
0.0
 11
87.454195361603965
 21
140.17254459072871
 31
0.0
  0
LINE
  5
33DDA
  8
0
 10
87.454195361603965
 20
142.17254459072871
 30
0.0
 11
27.454195361603979
 21
142.17254459072871
 31
0.0
  0
LINE
  5
33DDB
  8
0
 10
83.454195361603965
 20
142.17254459072871
 30
0.0
 11
83.454195361603965
 21
140.17254459072871
 31
0.0
  0
LINE
  5
33DDC
  8
0
 10
31.454195361603979
 20
140.17254459072871
 30
0.0
 11
31.454195361603979
 21
142.17254459072871
 31
0.0
  0
LINE
  5
33DDD
  8
0
 10
27.454195361603979
 20
142.17254459072871
 30
0.0
 11
27.454195361603979
 21
140.17254459072871
 31
0.0
  0
LINE
  5
33DDE
  8
0
 10
27.454195361603979
 20
140.17254459072871
 30
0.0
 11
87.454195361603965
 21
140.17254459072871
 31
0.0
  0
LINE
  5
33DDF
  8
0
 10
67.454195361603965
 20
138.67254459072871
 30
0.0
 11
47.454195361603972
 21
138.67254459072871
 31
0.0
  0
TEXT
  5
33F37
  8
0
 62
     3
 10
0.0
 20
0.0
 30
0.0
 40
10.0
  1
CAC7-060PBL
  7
STANDARD1
  0
ENDSEC
  0
EOF
