  0
SECTION
  2
HEADER
  9
$ACADVER
  1
AC1009
  9
$INSBASE
 10
0.0
 20
0.0
 30
0.0
  9
$EXTMIN
 10
0.0
 20
-2.960436562073669
 30
0.0
  9
$EXTMAX
 10
314.47850216684901
 20
238.72620277266881
 30
0.0
  9
$LIMMIN
 10
0.0
 20
0.0
  9
$LIMMAX
 10
375.0
 20
270.0
  9
$ORTHOMODE
 70
     1
  9
$REGENMODE
 70
     1
  9
$FILLMODE
 70
     1
  9
$QTEXTMODE
 70
     0
  9
$MIRRTEXT
 70
     1
  9
$DRAGMODE
 70
     2
  9
$LTSCALE
 40
10.0
  9
$OSMODE
 70
  3071
  9
$ATTMODE
 70
     1
  9
$TEXTSIZE
 40
5.0
  9
$TRACEWID
 40
0.05
  9
$TEXTSTYLE
  7
STANDARD
  9
$CLAYER
  8
0
  9
$CELTYPE
  6
BYLAYER
  9
$CECOLOR
 62
     6
  9
$DIMSCALE
 40
2.0
  9
$DIMASZ
 40
3.0
  9
$DIMEXO
 40
2.0
  9
$DIMDLI
 40
0.38
  9
$DIMRND
 40
0.0
  9
$DIMDLE
 40
0.0
  9
$DIMEXE
 40
2.0
  9
$DIMTP
 40
0.0
  9
$DIMTM
 40
0.0
  9
$DIMTXT
 40
3.2000000000000002
  9
$DIMCEN
 40
0.0
  9
$DIMTSZ
 40
0.0
  9
$DIMTOL
 70
     0
  9
$DIMLIM
 70
     0
  9
$DIMTIH
 70
     0
  9
$DIMTOH
 70
     0
  9
$DIMSE1
 70
     0
  9
$DIMSE2
 70
     0
  9
$DIMTAD
 70
     1
  9
$DIMZIN
 70
     8
  9
$DIMBLK
  1

  9
$DIMASO
 70
     0
  9
$DIMSHO
 70
     0
  9
$DIMPOST
  1

  9
$DIMAPOST
  1

  9
$DIMALT
 70
     0
  9
$DIMALTD
 70
     2
  9
$DIMALTF
 40
25.399999999999999
  9
$DIMLFAC
 40
1.0
  9
$DIMTOFL
 70
     0
  9
$DIMTVP
 40
1.6000000000000001
  9
$DIMTIX
 70
     1
  9
$DIMSOXD
 70
     0
  9
$DIMSAH
 70
     0
  9
$DIMBLK1
  1

  9
$DIMBLK2
  1

  9
$DIMSTYLE
  2
STANDARD
  9
$DIMCLRD
 70
     0
  9
$DIMCLRE
 70
     0
  9
$DIMCLRT
 70
     0
  9
$DIMTFAC
 40
1.0
  9
$DIMGAP
 40
1.1999999999999991
  9
$LUNITS
 70
     2
  9
$LUPREC
 70
     4
  9
$SKETCHINC
 40
0.1
  9
$FILLETRAD
 40
0.0
  9
$AUNITS
 70
     0
  9
$AUPREC
 70
     4
  9
$MENU
  1
ACAD
  9
$ELEVATION
 40
0.0
  9
$PELEVATION
 40
0.0
  9
$THICKNESS
 40
0.0
  9
$LIMCHECK
 70
     0
  9
$BLIPMODE
 70
     0
  9
$CHAMFERA
 40
0.0
  9
$CHAMFERB
 40
0.0
  9
$SKPOLY
 70
     0
  9
$TDCREATE
 40
2448055.7149187499
  9
$TDUPDATE
 40
2456598.5575741669
  9
$TDINDWG
 40
3.3396082523000001
  9
$TDUSRTIMER
 40
3.3396082523000001
  9
$USRTIMER
 70
     1
  9
$ANGBASE
 50
0.0
  9
$ANGDIR
 70
     0
  9
$PDMODE
 70
     0
  9
$PDSIZE
 40
0.0
  9
$PLINEWID
 40
0.0
  9
$COORDS
 70
     1
  9
$SPLFRAME
 70
     0
  9
$SPLINETYPE
 70
     6
  9
$SPLINESEGS
 70
     8
  9
$ATTDIA
 70
     0
  9
$ATTREQ
 70
     1
  9
$HANDLING
 70
     1
  9
$HANDSEED
  5
34ADA
  9
$SURFTAB1
 70
     6
  9
$SURFTAB2
 70
     6
  9
$SURFTYPE
 70
     6
  9
$SURFU
 70
     6
  9
$SURFV
 70
     6
  9
$UCSNAME
  2

  9
$UCSORG
 10
0.0
 20
0.0
 30
0.0
  9
$UCSXDIR
 10
1.0
 20
0.0
 30
0.0
  9
$UCSYDIR
 10
0.0
 20
1.0
 30
0.0
  9
$PUCSNAME
  2

  9
$PUCSORG
 10
0.0
 20
0.0
 30
0.0
  9
$PUCSXDIR
 10
1.0
 20
0.0
 30
0.0
  9
$PUCSYDIR
 10
0.0
 20
1.0
 30
0.0
  9
$USERI1
 70
     0
  9
$USERI2
 70
     0
  9
$USERI3
 70
     0
  9
$USERI4
 70
     0
  9
$USERI5
 70
     0
  9
$USERR1
 40
0.0
  9
$USERR2
 40
0.0
  9
$USERR3
 40
0.0
  9
$USERR4
 40
0.0
  9
$USERR5
 40
0.0
  9
$WORLDVIEW
 70
     1
  9
$SHADEDGE
 70
     3
  9
$SHADEDIF
 70
    70
  9
$TILEMODE
 70
     1
  9
$MAXACTVP
 70
    16
  9
$PLIMCHECK
 70
     0
  9
$PEXTMIN
 10
1.0000000000000000E+020
 20
1.0000000000000000E+020
 30
1.0000000000000000E+020
  9
$PEXTMAX
 10
-1.0000000000000000E+020
 20
-1.0000000000000000E+020
 30
-1.0000000000000000E+020
  9
$PLIMMIN
 10
0.0
 20
0.0
  9
$PLIMMAX
 10
12.0
 20
9.0
  9
$UNITMODE
 70
     0
  9
$VISRETAIN
 70
     0
  9
$PLINEGEN
 70
     1
  9
$PSLTSCALE
 70
     0
  0
ENDSEC
  0
SECTION
  2
TABLES
  0
TABLE
  2
VPORT
 70
     1
  0
VPORT
  2
*ACTIVE
 70
     0
 10
0.0
 20
0.0
 11
1.0
 21
1.0
 12
195.0581083320873
 22
133.5127261426681
 13
0.0
 23
0.0
 14
5.0
 24
5.0
 15
10.0
 25
10.0
 16
0.0
 26
0.0
 36
1.0
 17
0.0
 27
0.0
 37
0.0
 40
275.42274993631997
 41
1.831871345029239
 42
50.0
 43
0.0
 44
0.0
 50
0.0
 51
0.0
 71
     0
 72
   500
 73
     1
 74
     1
 75
     0
 76
     0
 77
     0
 78
     2
  0
ENDTAB
  0
TABLE
  2
LTYPE
 70
     3
  0
LTYPE
  2
CONTINUOUS
 70
     0
  3
実線
 72
    65
 73
     0
 40
0.0
  0
LTYPE
  2
CENTER
 70
     0
  3
____ _ ____ _ ____ _ ____ _ ____ _ ____ _ ____
 72
    65
 73
     4
 40
2.0
 49
1.25
 49
-0.25
 49
0.25
 49
-0.25
  0
LTYPE
  2
PHANTOM2
 70
     0
  3
___ _ _ ___ _ _ ___ _ _ ___ _ _
 72
    65
 73
     6
 40
1.25
 49
0.625
 49
-0.125
 49
0.125
 49
-0.125
 49
0.125
 49
-0.125
  0
ENDTAB
  0
TABLE
  2
LAYER
 70
     4
  0
LAYER
  2
0
 70
     0
 62
     7
  6
CONTINUOUS
  0
LAYER
  2
1
 70
     0
 62
     1
  6
CENTER
  0
LAYER
  2
DEFPOINTS
 70
     0
 62
     7
  6
CONTINUOUS
  0
LAYER
  2
3
 70
     0
 62
     3
  6
CONTINUOUS
  0
ENDTAB
  0
TABLE
  2
STYLE
 70
     3
  0
STYLE
  2
STANDARD
 70
     0
 40
0.0
 41
1.0
 50
0.0
 71
     0
 42
5.0
  3
simplex.shx
  4
bigfont.shx
  0
STYLE
  2
07500
 70
     0
 40
0.0
 41
0.75
 50
0.0
 71
     0
 42
0.2
  3
simplex.shx
  4
bigfont.shx
  0
STYLE
  2
STANDARD1
 70
     0
 40
0.0
 41
1.0
 50
0.0
 71
     0
 42
3.0
  3
txt
  4

  0
ENDTAB
  0
TABLE
  2
VIEW
 70
     2
  0
VIEW
  2
ALL
 70
     0
 40
270.0
 10
220.99159663865549
 20
135.0
 41
0.0
 11
0.0
 21
0.0
 31
1.0
 12
0.0
 22
0.0
 32
0.0
 42
0.0
 43
0.0
 44
0.0
 50
0.0
 71
     0
  0
VIEW
  2
OLE1
 70
     0
 40
168.2487151179721
 10
2892.3009567448912
 20
702.51600084347126
 41
162.5749581879237
 11
0.0
 21
0.0
 31
1.0
 12
0.0
 22
0.0
 32
0.0
 42
50.0
 43
0.0
 44
0.0
 50
0.0
 71
     0
  0
ENDTAB
  0
TABLE
  2
UCS
 70
     0
  0
ENDTAB
  0
TABLE
  2
APPID
 70
    48
  0
APPID
  2
ACAD
 70
     0
  0
APPID
  2
DCO15
 70
     0
  0
APPID
  2
GENIUS_GENOREF_13
 70
     0
  0
APPID
  2
GENIUS_GENOENT_13
 70
     0
  0
APPID
  2
GENIUS_GENBH_13
 70
     0
  0
APPID
  2
GENIUS_GENOBJ_13
 70
     0
  0
APPID
  2
GENIUS_GENODEF_13
 70
     0
  0
APPID
  2
GENIUS_GENOLIS_13
 70
     0
  0
APPID
  2
GENIUS_GENOBJ-NBEHI-BHF_13
 70
     0
  0
APPID
  2
GENIUS_GENOBJ-NBEHI-BHB_13
 70
     0
  0
APPID
  2
GENIUS_GENOBJ-F-PART_13
 70
     0
  0
APPID
  2
GENIUS_GEFSTDP_13
 70
     0
  0
APPID
  2
GENIUS_GENOBJ-N-RSSYM_13
 70
     0
  0
APPID
  2
GENIUS_GENSYMENT_13
 70
     0
  0
APPID
  2
GENIUS_GENOBJ-N-TIT_13
 70
     0
  0
APPID
  2
GENIUS_GENTITLE_13
 70
     0
  0
APPID
  2
GENIUS_GENZVEED_13
 70
     0
  0
APPID
  2
GENIUS_GENOBJ-N-LEADER_13
 70
     0
  0
APPID
  2
GENIUS_GENOBJ-N-FIL_13
 70
     0
  0
APPID
  2
GENIUS_GENOBJ-N-SEC_13
 70
     0
  0
APPID
  2
GENIUS_GENOBJ-N-CRS_13
 70
     0
  0
APPID
  2
GENIUS_GENOBJ-N-ZOO_13
 70
     0
  0
APPID
  2
GENIUS_GENZOO_13
 70
     0
  0
APPID
  2
GENIUS_GENOBJ-F-TOL_13
 70
     0
  0
APPID
  2
GENIUS_GENFIL_13
 70
     0
  0
APPID
  2
GENIUS_GENOBJ-N-CHA_13
 70
     0
  0
APPID
  2
_CALL_MAC$
 70
     0
  0
APPID
  2
ASM_BASE
 70
     0
  0
APPID
  2
ASM_EXPLO_VER_2_00
 70
     0
  0
APPID
  2
ASM_CADM_VER_12_00
 70
     0
  0
APPID
  2
ASM_BASEFORO
 70
     0
  0
APPID
  2
ASM_BASETRAVI
 70
     0
  0
APPID
  2
ASM_BASETRAVI1
 70
     0
  0
APPID
  2
ASM_GRUPPI
 70
     0
  0
APPID
  2
ASM_CADM_ALBERO
 70
     0
  0
APPID
  2
ASM_GOLE
 70
     0
  0
APPID
  2
ACAD_MLEADERVER
 70
     0
  0
APPID
  2
ACAD_DSTYLE_DIMJAG
 70
     0
  0
APPID
  2
ACAD_DSTYLE_DIMTALN
 70
     0
  0
APPID
  2
ACAD_EXEMPT_FROM_CAD_STANDARDS
 70
     0
  0
APPID
  2
ACAD_DSTYLE_DIMRADIAL_EXTENSION
 70
     0
  0
APPID
  2
ACAD_PSEXT
 70
     0
  0
APPID
  2
ACAD_DSTYLE_DIMBREAK
 70
     0
  0
APPID
  2
ACAECLAYERSTANDARD
 70
     0
  0
APPID
  2
ACCMTRANSPARENCY
 70
     0
  0
APPID
  2
GRADIENTCOLOR1ACI
 70
     0
  0
APPID
  2
GRADIENTCOLOR2ACI
 70
     0
  0
APPID
  2
ACAD_NAV_VCDISPLAY
 70
     0
  0
ENDTAB
  0
TABLE
  2
DIMSTYLE
 70
     1
  0
DIMSTYLE
  2
STANDARD
 70
     0
  3

  4

  5

  6

  7

 40
1.0
 41
0.18
 42
0.0625
 43
0.38
 44
0.18
 45
0.0
 46
0.0
 47
0.0
 48
0.0
140
0.18
141
0.09
142
0.0
143
25.399999999999999
144
1.0
145
0.0
146
1.0
147
0.09
 71
     0
 72
     0
 73
     1
 74
     1
 75
     0
 76
     0
 77
     0
 78
     0
170
     0
171
     2
172
     0
173
     0
174
     0
175
     0
176
     0
177
     0
178
     0
  0
ENDTAB
  0
ENDSEC
  0
SECTION
  2
BLOCKS
  0
BLOCK
  8
0
  2
$MODEL_SPACE
 70
     0
 10
0.0
 20
0.0
 30
0.0
  3
$MODEL_SPACE
  1

  0
ENDBLK
  5
36
  8
0
  0
BLOCK
 67
     1
  8
0
  2
$PAPER_SPACE
 70
     0
 10
0.0
 20
0.0
 30
0.0
  3
$PAPER_SPACE
  1

  0
ENDBLK
  5
34
 67
     1
  8
0
  0
ENDSEC
  0
SECTION
  2
ENTITIES
  0
LINE
  5
33E01
  8
0
 10
221.64901346987199
 20
126.81309916727371
 30
0.0
 11
219.98053683875489
 21
130.61654309763631
 31
0.0
  0
LINE
  5
33E02
  8
0
 10
188.31749010098909
 20
130.61654309763631
 30
0.0
 11
186.64901346987199
 21
126.81309916727371
 31
0.0
  0
LINE
  5
33E03
  8
0
 10
186.64901346987199
 20
126.81309916727371
 30
0.0
 11
186.64901346987199
 21
125.81309916727371
 31
0.0
  0
LINE
  5
33E04
  8
0
 10
221.64901346987199
 20
125.81309916727371
 30
0.0
 11
221.64901346987199
 21
126.81309916727371
 31
0.0
  0
ARC
  5
33E05
  8
0
 10
190.14901346987199
 20
129.81309916727329
 30
0.0
 40
2.0000000000003331
 50
90.000000000006494
 51
156.31412894275209
  0
ARC
  5
33E06
  8
0
 10
218.14901346987199
 20
129.81309916727329
 30
0.0
 40
2.0000000000003122
 50
23.685871057247891
 51
89.999999999993491
  0
LINE
  5
33E07
  8
0
 10
188.64901346987199
 20
125.81309916727371
 30
0.0
 11
188.64901346987199
 21
124.31309916727371
 31
0.0
  0
LINE
  5
33E08
  8
0
 10
219.64901346987199
 20
118.81309916727341
 30
0.0
 11
219.64901346987199
 21
125.81309916727371
 31
0.0
  0
ARC
  5
33E0C
  8
0
 10
180.14901346986801
 20
90.813099167273677
 30
0.0
 40
25.000000000003929
 50
131.79497955195171
 51
33.083271970682389
  0
LINE
  5
33E20
  8
0
 10
186.64901346987199
 20
126.81309916727371
 30
0.0
 11
221.64901346987199
 21
126.81309916727371
 31
0.0
  0
LINE
  5
33E22
  8
0
 10
186.64901346987199
 20
125.81309916727371
 30
0.0
 11
221.64901346987199
 21
125.81309916727371
 31
0.0
  0
LINE
  5
33E24
  8
0
 10
190.14901346987159
 20
131.81309916727369
 30
0.0
 11
218.14901346987199
 21
131.81309916727369
 31
0.0
  0
LINE
  5
33E25
  8
0
 10
216.06614986472891
 20
118.81309916727341
 30
0.0
 11
219.64901346987199
 21
118.81309916727341
 31
0.0
  0
ARC
  5
33E26
  8
0
 10
216.06614986472891
 20
113.81309916727341
 30
0.0
 40
5.0000000000000604
 50
90.0
 51
138.4521241070839
  0
LINE
  5
33E27
  8
0
 10
184.88782592567571
 20
86.170379699879547
 30
0.0
 11
212.32414096772649
 21
117.12932735826929
 31
0.0
  0
LINE
  5
33E28
  8
0
 10
195.70804196180489
 20
98.379836450962145
 30
0.0
 11
195.70804196180489
 21
122.31309916727371
 31
0.0
  0
ARC
  5
33E29
  8
0
 10
193.3507620405023
 20
121.92762272998181
 30
0.0
 40
2.3885896908183621
 50
9.2871472050203732
 51
92.925642661322215
  0
CIRCLE
  5
33E2A
  8
0
 10
155.64901346987199
 20
116.81309916727371
 30
0.0
 40
3.5
  0
ARC
  5
33E2B
  8
0
 10
179.6490134698721
 20
90.813099167273464
 30
0.0
 40
7.0000000000000746
 50
169.2164587291339
 51
318.45212410708388
  0
LINE
  5
33E2C
  8
0
 10
172.77262620967099
 20
92.122793119212446
 30
0.0
 11
173.77242384158791
 21
97.372107807361132
 31
0.0
  0
ARC
  5
33E2D
  8
0
 10
163.94901346987251
 20
99.243099167273655
 30
0.0
 40
9.9999999999997726
 50
349.21645872913558
 51
80.711724364313795
  0
LINE
  5
33E2E
  8
0
 10
165.56303225647099
 20
109.11198681262159
 30
0.0
 11
154.680602197913
 21
110.8917665800646
 31
0.0
  0
ARC
  5
33E2F
  8
0
 10
155.64901346987159
 20
116.81309916727351
 30
0.0
 40
5.9999999999998446
 50
122.85988037888571
 51
260.71172436431391
  0
LINE
  5
33E30
  8
0
 10
152.39349507797201
 20
121.8530991672736
 30
0.0
 11
169.64901346987199
 21
121.8530991672736
 31
0.0
  0
LINE
  5
33E31
  8
0
 10
169.64901346987199
 20
121.8530991672736
 30
0.0
 11
169.64901346987199
 21
122.31309916727371
 31
0.0
  0
LINE
  5
33E32
  8
0
 10
195.70804196180489
 20
122.31309916727371
 30
0.0
 11
169.64901346987199
 21
122.31309916727371
 31
0.0
  0
LINE
  5
33E34
  8
0
 10
169.64901346987199
 20
122.31309916727371
 30
0.0
 11
169.64901346987199
 21
124.31309916727371
 31
0.0
  0
LINE
  5
33E35
  8
0
 10
169.64901346987199
 20
124.31309916727371
 30
0.0
 11
193.22884863595129
 21
124.31309916727371
 31
0.0
  0
ARC
  5
33E36
  8
0
 10
127.6490134698723
 20
122.31309916727329
 30
0.0
 40
2.0000000000003411
 50
90.000000000006494
 51
179.99999999999019
  0
LINE
  5
33E37
  8
0
 10
167.18901346987201
 20
124.31309916727371
 30
0.0
 11
127.649013469872
 21
124.31309916727371
 31
0.0
  0
LINE
  5
33E38
  8
0
 10
125.649013469872
 20
122.31309916727371
 30
0.0
 11
125.649013469872
 21
120.31309916727371
 31
0.0
  0
ARC
  5
33E39
  8
0
 10
152.21364361776509
 20
92.984229284274505
 30
0.0
 40
12.499999999994371
 50
74.670537781606825
 51
103.6632076556116
  0
LINE
  5
33E3A
  8
0
 10
125.649013469872
 20
120.31309916727371
 30
0.0
 11
141.322331150808
 21
118.9418615503516
 31
0.0
  0
ARC
  5
33E3B
  8
0
 10
155.65044089261181
 20
105.5217100715562
 30
0.0
 40
0.5000000000000007
 50
254.67050936804841
 51
318.99999999995038
  0
ARC
  5
33E3C
  8
0
 10
149.14285881208821
 20
105.6163423568004
 30
0.0
 40
0.5000000000001074
 50
178.38531389579811
 51
283.66320218204811
  0
ARC
  5
33E3D
  8
0
 10
133.64901346987
 20
106.05309916727271
 30
0.0
 40
15.000000000002229
 50
358.38531389581942
 51
59.232569409214797
  0
ARC
  5
33E3E
  8
0
 10
167.18901346987229
 20
121.853099167274
 30
0.0
 40
2.4599999999996949
 50
359.99999999999352
 51
90.000000000006494
  0
LINE
  5
33E3F
  8
0
 10
156.027795682723
 20
105.1936805570606
 30
0.0
 11
160.19683207037559
 21
109.9896083059709
 31
0.0
  0
ARC
  5
33E40
  8
0
 10
149.79901346987231
 20
102.7030991672742
 30
0.0
 40
3.9100000000002768
 50
225.0000000000079
 51
357.33598051713938
  0
LINE
  5
33E41
  8
0
 10
156.027795682723
 20
105.1936805570606
 30
0.0
 11
153.70478777584
 21
102.5213656512577
 31
0.0
  0
LINE
  5
33E42
  8
0
 10
154.86391300768159
 20
102.0256829939343
 30
0.0
 11
161.58893452082501
 21
109.76193528053589
 31
0.0
  0
ARC
  5
33E43
  8
0
 10
149.79901346987231
 20
102.7030991672742
 30
0.0
 40
5.1100000000004053
 50
225.0000000000075
 51
352.38205881477143
  0
LINE
  5
33E44
  8
0
 10
147.03422595543299
 20
99.938311652834244
 30
0.0
 11
146.185697818009
 21
99.089783515410346
 31
0.0
  0
ARC
  5
33E48
  8
0
 10
180.1490134698719
 20
90.813099167273677
 30
0.0
 40
8.0
 50
148.67137165720689
 51
352.53530347220448
  0
ARC
  5
33E4A
  8
0
 10
180.1490134698719
 20
90.813099167273677
 30
0.0
 40
13.000000000000011
 50
120.4722052496832
 51
17.809816516800861
  0
LINE
  5
33E4C
  8
0
 10
188.31749010098909
 20
130.61654309763631
 30
0.0
 11
219.98053683875489
 21
130.6165430976364
 31
0.0
  0
ARC
  5
33E4E
  8
0
 10
180.1490134698719
 20
90.813099167273677
 30
0.0
 40
21.563858652848001
 50
124.99188086391111
 51
30.55769597092722
  0
ARC
  5
33E50
  8
0
 10
180.1490134698719
 20
90.813099167273677
 30
0.0
 40
23.438976796574011
 50
128.64252776025921
 51
32.03172708008794
  0
LINE
  5
33E51
  8
0
 10
56.934457776526408
 20
97.593099167273778
 30
0.0
 11
78.934457776526415
 21
97.593099167273778
 31
0.0
  0
LINE
  5
33E53
  8
0
 10
54.934457776526422
 20
120.31309916727371
 30
0.0
 11
53.934457776526301
 21
120.31309916727371
 31
0.0
  0
LINE
  5
33E54
  8
0
 10
53.934457776526301
 20
113.31309916727371
 30
0.0
 11
54.934457776526422
 21
113.31309916727371
 31
0.0
  0
ARC
  5
33E55
  8
0
 10
73.599376794702948
 20
118.52813387376941
 30
0.0
 40
8.9999999999923972
 50
324.58825159853058
 51
349.01456737417419
  0
ARC
  5
33E56
  8
0
 10
73.599376794702948
 20
115.09806446077791
 30
0.0
 40
8.9999999999924025
 50
10.98543262582576
 51
35.411748401471058
  0
LINE
  5
33E57
  8
0
 10
56.434457776526301
 20
105.0217100715562
 30
0.0
 11
79.434457776526415
 21
105.0217100715562
 31
0.0
  0
LINE
  5
33E58
  8
0
 10
54.934457776526301
 20
83.813099167273407
 30
0.0
 11
56.434457776526301
 21
83.813099167273407
 31
0.0
  0
LINE
  5
33E59
  8
0
 10
79.434457776526301
 20
83.813099167273407
 30
0.0
 11
80.934457776526315
 21
83.813099167273407
 31
0.0
  0
LINE
  5
33E5A
  8
0
 10
81.434457776526301
 20
95.253099167273646
 30
0.0
 11
80.934457776526315
 21
95.253099167273646
 31
0.0
  0
LINE
  5
33E5B
  8
0
 10
80.934457776526315
 20
86.373099167273637
 30
0.0
 11
81.434457776526301
 21
86.373099167273637
 31
0.0
  0
LINE
  5
33E66
  8
0
 10
50.43445777652618
 20
126.81309916727371
 30
0.0
 11
50.43445777652618
 21
125.81309916727371
 31
0.0
  0
LINE
  5
33E67
  8
0
 10
85.434457776526187
 20
125.81309916727371
 30
0.0
 11
85.434457776526187
 21
126.81309916727371
 31
0.0
  0
LINE
  5
33E68
  8
0
 10
85.434457776526187
 20
126.81309916727371
 30
0.0
 11
83.765981145409114
 21
130.61654309763631
 31
0.0
  0
LINE
  5
33E69
  8
0
 10
52.102934407643367
 20
130.61654309763631
 30
0.0
 11
50.43445777652618
 21
126.81309916727371
 31
0.0
  0
ARC
  5
33E6A
  8
0
 10
53.934457776526187
 20
129.81309916727329
 30
0.0
 40
2.0000000000003122
 50
90.0
 51
156.31412894275209
  0
ARC
  5
33E6B
  8
0
 10
81.934457776526173
 20
129.81309916727329
 30
0.0
 40
2.0000000000003122
 50
23.685871057247891
 51
89.999999999993491
  0
LINE
  5
33E6C
  8
0
 10
52.434457776526187
 20
125.81309916727371
 30
0.0
 11
52.434457776526187
 21
107.9045701735369
 31
0.0
  0
LINE
  5
33E6D
  8
0
 10
83.434457776526173
 20
107.9045701735368
 30
0.0
 11
83.434457776526173
 21
125.81309916727371
 31
0.0
  0
ARC
  5
33E70
  8
0
 10
67.934457776526301
 20
90.813099167273677
 30
0.0
 40
25.000000000002078
 50
249.64559360176381
 51
290.35440639823622
  0
ARC
  5
33E71
  8
0
 10
59.934457776527211
 20
69.249240514426248
 30
0.0
 40
2.0000000000009659
 50
180.00000000000981
 51
249.6455936017434
  0
ARC
  5
33E72
  8
0
 10
75.934457776525392
 20
69.249240514426248
 30
0.0
 40
2.0000000000009659
 50
290.35440639825657
 51
359.99999999999193
  0
LINE
  5
33E73
  8
0
 10
56.934457776526408
 20
100.4797658339406
 30
0.0
 11
56.434457776526301
 21
98.813099167273634
 31
0.0
  0
LINE
  5
33E74
  8
0
 10
56.434457776526301
 20
82.813099167273691
 30
0.0
 11
57.934457776526301
 21
77.813099167273691
 31
0.0
  0
LINE
  5
33E75
  8
0
 10
77.934457776526301
 20
77.813099167273691
 30
0.0
 11
79.434457776526301
 21
82.813099167273691
 31
0.0
  0
LINE
  5
33E76
  8
0
 10
79.434457776526301
 20
98.813099167273634
 30
0.0
 11
78.934457776526415
 21
100.47976583393999
 31
0.0
  0
LINE
  5
33E78
  8
0
 10
79.434457776526529
 20
122.31309916727371
 30
0.0
 11
56.434457776526529
 21
122.31309916727371
 31
0.0
  0
LINE
  5
33E7A
  8
0
 10
79.434457776526529
 20
124.31309916727371
 30
0.0
 11
56.434457776526529
 21
124.31309916727371
 31
0.0
  0
LINE
  5
33E7C
  8
0
 10
79.434457776526529
 20
120.31309916727371
 30
0.0
 11
56.434457776526529
 21
120.31309916727371
 31
0.0
  0
LINE
  5
33E7F
  8
0
 10
79.434457776526415
 20
118.9418615503516
 30
0.0
 11
56.434457776526408
 21
118.9418615503516
 31
0.0
  0
LINE
  5
33E81
  8
0
 10
79.434457776526415
 20
105.63043128617061
 30
0.0
 11
56.434457776526408
 21
105.63043128617061
 31
0.0
  0
LINE
  5
33E82
  8
0
 10
79.434457776526529
 20
124.31309916727371
 30
0.0
 11
79.434457776526301
 21
82.813099167273691
 31
0.0
  0
LINE
  5
33E84
  8
0
 10
78.934457776526415
 20
105.0217100715562
 30
0.0
 11
78.934457776526415
 21
97.593099167273778
 31
0.0
  0
LINE
  5
33E85
  8
0
 10
78.934457776526415
 20
99.089783515410346
 30
0.0
 11
56.934457776526408
 21
99.089783515410346
 31
0.0
  0
LINE
  5
33E86
  8
0
 10
56.934457776526408
 20
105.0217100715562
 30
0.0
 11
56.934457776526408
 21
97.593099167273778
 31
0.0
  0
LINE
  5
33E88
  8
0
 10
78.934457776526415
 20
99.938311652834244
 30
0.0
 11
56.934457776526408
 21
99.938311652834244
 31
0.0
  0
LINE
  5
33E8A
  8
0
 10
78.934457776526415
 20
102.5213656512577
 30
0.0
 11
56.934457776526408
 21
102.5213656512577
 31
0.0
  0
LINE
  5
33E92
  8
0
 10
56.434457776526301
 20
110.8917665800646
 30
0.0
 11
54.934457776526422
 21
110.8917665800646
 31
0.0
  0
LINE
  5
33E93
  8
0
 10
56.434457776526408
 20
121.8530991672736
 30
0.0
 11
54.934457776526422
 21
121.8530991672736
 31
0.0
  0
LINE
  5
33E95
  8
0
 10
80.934457776526415
 20
110.8917665800646
 30
0.0
 11
79.434457776526415
 21
110.8917665800646
 31
0.0
  0
LINE
  5
33E96
  8
0
 10
80.934457776526415
 20
121.8530991672736
 30
0.0
 11
79.434457776526415
 21
121.8530991672736
 31
0.0
  0
LINE
  5
33E97
  8
0
 10
80.934457776526315
 20
83.813099167273407
 30
0.0
 11
80.934457776526315
 21
122.31309916727371
 31
0.0
  0
LINE
  5
33E98
  8
0
 10
53.934457776526301
 20
120.31309916727371
 30
0.0
 11
53.934457776526301
 21
113.31309916727371
 31
0.0
  0
LINE
  5
33E9B
  8
0
 10
56.434457776526301
 20
109.11198681262159
 30
0.0
 11
54.934457776526301
 21
109.11198681262159
 31
0.0
  0
LINE
  5
33E9D
  8
0
 10
80.934457776526315
 20
109.11198681262159
 30
0.0
 11
79.434457776526301
 21
109.11198681262159
 31
0.0
  0
LINE
  5
33EA1
  8
0
 10
56.434457776526301
 20
97.372107807361132
 30
0.0
 11
54.934457776526301
 21
97.372107807361132
 31
0.0
  0
LINE
  5
33EA4
  8
0
 10
80.934457776526315
 20
97.372107807361132
 30
0.0
 11
79.434457776526301
 21
97.372107807361132
 31
0.0
  0
ARC
  5
33EA7
  8
0
 10
78.934457776526301
 20
122.31309916727371
 30
0.0
 40
2.0000000000000071
 50
0.0
 51
75.522487814070203
  0
ARC
  5
33EA8
  8
0
 10
56.934457776526301
 20
122.31309916727371
 30
0.0
 40
2.0
 50
104.4775121859298
 51
180.0
  0
LINE
  5
33EAB
  8
0
 10
56.434457776526301
 20
92.122793119212446
 30
0.0
 11
54.934457776526301
 21
92.122793119212446
 31
0.0
  0
LINE
  5
33EAC
  8
0
 10
54.934457776526301
 20
122.31309916727371
 30
0.0
 11
54.934457776526301
 21
83.813099167273407
 31
0.0
  0
LINE
  5
33EAD
  8
0
 10
80.934457776526315
 20
92.122793119212446
 30
0.0
 11
79.434457776526301
 21
92.122793119212446
 31
0.0
  0
LINE
  5
33EDA
  8
0
 10
50.43445777652618
 20
126.81309916727371
 30
0.0
 11
85.434457776526187
 21
126.81309916727371
 31
0.0
  0
LINE
  5
33EDB
  8
0
 10
50.43445777652618
 20
125.81309916727371
 30
0.0
 11
85.434457776526187
 21
125.81309916727371
 31
0.0
  0
LINE
  5
33EDC
  8
0
 10
53.934457780926657
 20
131.81309916727369
 30
0.0
 11
81.934457776526529
 21
131.81309916727369
 31
0.0
  0
POLYLINE
  5
33EDD
  8
0
 10
80.934457776526301
 20
98.379836450962316
 30
0.0
 66
     1
 70
     8
  0
VERTEX
  8
0
  5
347CE
 10
80.9345
 20
98.3798
 30
0.000000
  70
    32
  0
VERTEX
  8
0
  5
347CF
 10
80.9723
 20
98.4459
 30
0.000000
  70
    32
  0
VERTEX
  8
0
  5
347D0
 10
81.0099
 20
98.5122
 30
0.000000
  70
    32
  0
VERTEX
  8
0
  5
347D1
 10
81.0472
 20
98.5787
 30
0.000000
  70
    32
  0
VERTEX
  8
0
  5
347D2
 10
81.0843
 20
98.6454
 30
0.000000
  70
    32
  0
VERTEX
  8
0
  5
347D3
 10
81.1210
 20
98.7122
 30
0.000000
  70
    32
  0
VERTEX
  8
0
  5
347D4
 10
81.1576
 20
98.7792
 30
0.000000
  70
    32
  0
VERTEX
  8
0
  5
347D5
 10
81.1938
 20
98.8465
 30
0.000000
  70
    32
  0
VERTEX
  8
0
  5
347D6
 10
81.2298
 20
98.9139
 30
0.000000
  70
    32
  0
VERTEX
  8
0
  5
347D7
 10
81.2655
 20
98.9815
 30
0.000000
  70
    32
  0
VERTEX
  8
0
  5
347D8
 10
81.3009
 20
99.0492
 30
0.000000
  70
    32
  0
VERTEX
  8
0
  5
347D9
 10
81.3361
 20
99.1172
 30
0.000000
  70
    32
  0
VERTEX
  8
0
  5
347DA
 10
81.3710
 20
99.1853
 30
0.000000
  70
    32
  0
VERTEX
  8
0
  5
347DB
 10
81.4056
 20
99.2536
 30
0.000000
  70
    32
  0
VERTEX
  8
0
  5
347DC
 10
81.4400
 20
99.3221
 30
0.000000
  70
    32
  0
VERTEX
  8
0
  5
347DD
 10
81.4741
 20
99.3907
 30
0.000000
  70
    32
  0
VERTEX
  8
0
  5
347DE
 10
81.5079
 20
99.4596
 30
0.000000
  70
    32
  0
VERTEX
  8
0
  5
347DF
 10
81.5414
 20
99.5286
 30
0.000000
  70
    32
  0
VERTEX
  8
0
  5
347E0
 10
81.5747
 20
99.5977
 30
0.000000
  70
    32
  0
VERTEX
  8
0
  5
347E1
 10
81.6077
 20
99.6671
 30
0.000000
  70
    32
  0
VERTEX
  8
0
  5
347E2
 10
81.6404
 20
99.7366
 30
0.000000
  70
    32
  0
VERTEX
  8
0
  5
347E3
 10
81.6728
 20
99.8062
 30
0.000000
  70
    32
  0
VERTEX
  8
0
  5
347E4
 10
81.7050
 20
99.8760
 30
0.000000
  70
    32
  0
VERTEX
  8
0
  5
347E5
 10
81.7368
 20
99.9460
 30
0.000000
  70
    32
  0
VERTEX
  8
0
  5
347E6
 10
81.7684
 20
100.016
 30
0.000000
  70
    32
  0
VERTEX
  8
0
  5
347E7
 10
81.7997
 20
100.086
 30
0.000000
  70
    32
  0
VERTEX
  8
0
  5
347E8
 10
81.8308
 20
100.157
 30
0.000000
  70
    32
  0
VERTEX
  8
0
  5
347E9
 10
81.8615
 20
100.228
 30
0.000000
  70
    32
  0
VERTEX
  8
0
  5
347EA
 10
81.8920
 20
100.298
 30
0.000000
  70
    32
  0
VERTEX
  8
0
  5
347EB
 10
81.9222
 20
100.369
 30
0.000000
  70
    32
  0
VERTEX
  8
0
  5
347EC
 10
81.9521
 20
100.440
 30
0.000000
  70
    32
  0
VERTEX
  8
0
  5
347ED
 10
81.9817
 20
100.512
 30
0.000000
  70
    32
  0
VERTEX
  8
0
  5
347EE
 10
82.0110
 20
100.583
 30
0.000000
  70
    32
  0
VERTEX
  8
0
  5
347EF
 10
82.0401
 20
100.655
 30
0.000000
  70
    32
  0
VERTEX
  8
0
  5
347F0
 10
82.0688
 20
100.726
 30
0.000000
  70
    32
  0
VERTEX
  8
0
  5
347F1
 10
82.0973
 20
100.798
 30
0.000000
  70
    32
  0
VERTEX
  8
0
  5
347F2
 10
82.1255
 20
100.870
 30
0.000000
  70
    32
  0
VERTEX
  8
0
  5
347F3
 10
82.1534
 20
100.942
 30
0.000000
  70
    32
  0
VERTEX
  8
0
  5
347F4
 10
82.1810
 20
101.014
 30
0.000000
  70
    32
  0
VERTEX
  8
0
  5
347F5
 10
82.2084
 20
101.087
 30
0.000000
  70
    32
  0
VERTEX
  8
0
  5
347F6
 10
82.2354
 20
101.159
 30
0.000000
  70
    32
  0
VERTEX
  8
0
  5
347F7
 10
82.2621
 20
101.232
 30
0.000000
  70
    32
  0
VERTEX
  8
0
  5
347F8
 10
82.2886
 20
101.305
 30
0.000000
  70
    32
  0
VERTEX
  8
0
  5
347F9
 10
82.3148
 20
101.378
 30
0.000000
  70
    32
  0
VERTEX
  8
0
  5
347FA
 10
82.3407
 20
101.451
 30
0.000000
  70
    32
  0
VERTEX
  8
0
  5
347FB
 10
82.3662
 20
101.524
 30
0.000000
  70
    32
  0
VERTEX
  8
0
  5
347FC
 10
82.3915
 20
101.597
 30
0.000000
  70
    32
  0
VERTEX
  8
0
  5
347FD
 10
82.4165
 20
101.671
 30
0.000000
  70
    32
  0
VERTEX
  8
0
  5
347FE
 10
82.4412
 20
101.744
 30
0.000000
  70
    32
  0
VERTEX
  8
0
  5
347FF
 10
82.4657
 20
101.818
 30
0.000000
  70
    32
  0
VERTEX
  8
0
  5
34800
 10
82.4898
 20
101.892
 30
0.000000
  70
    32
  0
VERTEX
  8
0
  5
34801
 10
82.5136
 20
101.966
 30
0.000000
  70
    32
  0
VERTEX
  8
0
  5
34802
 10
82.5371
 20
102.040
 30
0.000000
  70
    32
  0
VERTEX
  8
0
  5
34803
 10
82.5604
 20
102.114
 30
0.000000
  70
    32
  0
VERTEX
  8
0
  5
34804
 10
82.5833
 20
102.188
 30
0.000000
  70
    32
  0
VERTEX
  8
0
  5
34805
 10
82.6060
 20
102.263
 30
0.000000
  70
    32
  0
VERTEX
  8
0
  5
34806
 10
82.6283
 20
102.337
 30
0.000000
  70
    32
  0
VERTEX
  8
0
  5
34807
 10
82.6503
 20
102.412
 30
0.000000
  70
    32
  0
VERTEX
  8
0
  5
34808
 10
82.6721
 20
102.487
 30
0.000000
  70
    32
  0
VERTEX
  8
0
  5
34809
 10
82.6936
 20
102.562
 30
0.000000
  70
    32
  0
VERTEX
  8
0
  5
3480A
 10
82.7147
 20
102.637
 30
0.000000
  70
    32
  0
VERTEX
  8
0
  5
3480B
 10
82.7356
 20
102.712
 30
0.000000
  70
    32
  0
VERTEX
  8
0
  5
3480C
 10
82.7561
 20
102.787
 30
0.000000
  70
    32
  0
VERTEX
  8
0
  5
3480D
 10
82.7764
 20
102.862
 30
0.000000
  70
    32
  0
VERTEX
  8
0
  5
3480E
 10
82.7963
 20
102.938
 30
0.000000
  70
    32
  0
VERTEX
  8
0
  5
3480F
 10
82.8160
 20
103.013
 30
0.000000
  70
    32
  0
VERTEX
  8
0
  5
34810
 10
82.8353
 20
103.089
 30
0.000000
  70
    32
  0
VERTEX
  8
0
  5
34811
 10
82.8544
 20
103.165
 30
0.000000
  70
    32
  0
VERTEX
  8
0
  5
34812
 10
82.8731
 20
103.240
 30
0.000000
  70
    32
  0
VERTEX
  8
0
  5
34813
 10
82.8916
 20
103.316
 30
0.000000
  70
    32
  0
VERTEX
  8
0
  5
34814
 10
82.9097
 20
103.392
 30
0.000000
  70
    32
  0
VERTEX
  8
0
  5
34815
 10
82.9276
 20
103.468
 30
0.000000
  70
    32
  0
VERTEX
  8
0
  5
34816
 10
82.9451
 20
103.544
 30
0.000000
  70
    32
  0
VERTEX
  8
0
  5
34817
 10
82.9623
 20
103.621
 30
0.000000
  70
    32
  0
VERTEX
  8
0
  5
34818
 10
82.9793
 20
103.697
 30
0.000000
  70
    32
  0
VERTEX
  8
0
  5
34819
 10
82.9959
 20
103.773
 30
0.000000
  70
    32
  0
VERTEX
  8
0
  5
3481A
 10
83.0122
 20
103.850
 30
0.000000
  70
    32
  0
VERTEX
  8
0
  5
3481B
 10
83.0282
 20
103.927
 30
0.000000
  70
    32
  0
VERTEX
  8
0
  5
3481C
 10
83.0439
 20
104.003
 30
0.000000
  70
    32
  0
VERTEX
  8
0
  5
3481D
 10
83.0593
 20
104.080
 30
0.000000
  70
    32
  0
VERTEX
  8
0
  5
3481E
 10
83.0744
 20
104.157
 30
0.000000
  70
    32
  0
VERTEX
  8
0
  5
3481F
 10
83.0892
 20
104.234
 30
0.000000
  70
    32
  0
VERTEX
  8
0
  5
34820
 10
83.1037
 20
104.311
 30
0.000000
  70
    32
  0
VERTEX
  8
0
  5
34821
 10
83.1179
 20
104.388
 30
0.000000
  70
    32
  0
VERTEX
  8
0
  5
34822
 10
83.1317
 20
104.465
 30
0.000000
  70
    32
  0
VERTEX
  8
0
  5
34823
 10
83.1453
 20
104.542
 30
0.000000
  70
    32
  0
VERTEX
  8
0
  5
34824
 10
83.1586
 20
104.619
 30
0.000000
  70
    32
  0
VERTEX
  8
0
  5
34825
 10
83.1715
 20
104.697
 30
0.000000
  70
    32
  0
VERTEX
  8
0
  5
34826
 10
83.1841
 20
104.774
 30
0.000000
  70
    32
  0
VERTEX
  8
0
  5
34827
 10
83.1965
 20
104.851
 30
0.000000
  70
    32
  0
VERTEX
  8
0
  5
34828
 10
83.2085
 20
104.929
 30
0.000000
  70
    32
  0
VERTEX
  8
0
  5
34829
 10
83.2202
 20
105.006
 30
0.000000
  70
    32
  0
VERTEX
  8
0
  5
3482A
 10
83.2316
 20
105.084
 30
0.000000
  70
    32
  0
VERTEX
  8
0
  5
3482B
 10
83.2427
 20
105.162
 30
0.000000
  70
    32
  0
VERTEX
  8
0
  5
3482C
 10
83.2535
 20
105.240
 30
0.000000
  70
    32
  0
VERTEX
  8
0
  5
3482D
 10
83.2639
 20
105.317
 30
0.000000
  70
    32
  0
VERTEX
  8
0
  5
3482E
 10
83.2741
 20
105.395
 30
0.000000
  70
    32
  0
VERTEX
  8
0
  5
3482F
 10
83.2839
 20
105.473
 30
0.000000
  70
    32
  0
VERTEX
  8
0
  5
34830
 10
83.2935
 20
105.551
 30
0.000000
  70
    32
  0
VERTEX
  8
0
  5
34831
 10
83.3027
 20
105.629
 30
0.000000
  70
    32
  0
VERTEX
  8
0
  5
34832
 10
83.3116
 20
105.707
 30
0.000000
  70
    32
  0
VERTEX
  8
0
  5
34833
 10
83.3202
 20
105.785
 30
0.000000
  70
    32
  0
VERTEX
  8
0
  5
34834
 10
83.3285
 20
105.863
 30
0.000000
  70
    32
  0
VERTEX
  8
0
  5
34835
 10
83.3365
 20
105.941
 30
0.000000
  70
    32
  0
VERTEX
  8
0
  5
34836
 10
83.3442
 20
106.020
 30
0.000000
  70
    32
  0
VERTEX
  8
0
  5
34837
 10
83.3515
 20
106.098
 30
0.000000
  70
    32
  0
VERTEX
  8
0
  5
34838
 10
83.3586
 20
106.176
 30
0.000000
  70
    32
  0
VERTEX
  8
0
  5
34839
 10
83.3653
 20
106.255
 30
0.000000
  70
    32
  0
VERTEX
  8
0
  5
3483A
 10
83.3717
 20
106.333
 30
0.000000
  70
    32
  0
VERTEX
  8
0
  5
3483B
 10
83.3779
 20
106.411
 30
0.000000
  70
    32
  0
VERTEX
  8
0
  5
3483C
 10
83.3837
 20
106.490
 30
0.000000
  70
    32
  0
VERTEX
  8
0
  5
3483D
 10
83.3891
 20
106.568
 30
0.000000
  70
    32
  0
VERTEX
  8
0
  5
3483E
 10
83.3943
 20
106.647
 30
0.000000
  70
    32
  0
VERTEX
  8
0
  5
3483F
 10
83.3992
 20
106.725
 30
0.000000
  70
    32
  0
VERTEX
  8
0
  5
34840
 10
83.4037
 20
106.804
 30
0.000000
  70
    32
  0
VERTEX
  8
0
  5
34841
 10
83.4080
 20
106.882
 30
0.000000
  70
    32
  0
VERTEX
  8
0
  5
34842
 10
83.4119
 20
106.961
 30
0.000000
  70
    32
  0
VERTEX
  8
0
  5
34843
 10
83.4155
 20
107.039
 30
0.000000
  70
    32
  0
VERTEX
  8
0
  5
34844
 10
83.4188
 20
107.118
 30
0.000000
  70
    32
  0
VERTEX
  8
0
  5
34845
 10
83.4218
 20
107.197
 30
0.000000
  70
    32
  0
VERTEX
  8
0
  5
34846
 10
83.4244
 20
107.275
 30
0.000000
  70
    32
  0
VERTEX
  8
0
  5
34847
 10
83.4268
 20
107.354
 30
0.000000
  70
    32
  0
VERTEX
  8
0
  5
34848
 10
83.4288
 20
107.432
 30
0.000000
  70
    32
  0
VERTEX
  8
0
  5
34849
 10
83.4305
 20
107.511
 30
0.000000
  70
    32
  0
VERTEX
  8
0
  5
3484A
 10
83.4319
 20
107.590
 30
0.000000
  70
    32
  0
VERTEX
  8
0
  5
3484B
 10
83.4330
 20
107.669
 30
0.000000
  70
    32
  0
VERTEX
  8
0
  5
3484C
 10
83.4338
 20
107.747
 30
0.000000
  70
    32
  0
VERTEX
  8
0
  5
3484D
 10
83.4343
 20
107.826
 30
0.000000
  70
    32
  0
VERTEX
  8
0
  5
3484E
 10
83.4345
 20
107.905
 30
0.000000
  70
    32
  0
SEQEND
  8
0
  5
3484F
  0
POLYLINE
  5
33EDE
  8
0
 10
52.434457776526145
 20
107.90457017353697
 30
0.0
 66
     1
 70
     8
  0
VERTEX
  8
0
  5
34850
 10
52.4345
 20
107.905
 30
0.000000
  70
    32
  0
VERTEX
  8
0
  5
34851
 10
52.4346
 20
107.826
 30
0.000000
  70
    32
  0
VERTEX
  8
0
  5
34852
 10
52.4351
 20
107.747
 30
0.000000
  70
    32
  0
VERTEX
  8
0
  5
34853
 10
52.4359
 20
107.669
 30
0.000000
  70
    32
  0
VERTEX
  8
0
  5
34854
 10
52.4370
 20
107.590
 30
0.000000
  70
    32
  0
VERTEX
  8
0
  5
34855
 10
52.4384
 20
107.511
 30
0.000000
  70
    32
  0
VERTEX
  8
0
  5
34856
 10
52.4401
 20
107.432
 30
0.000000
  70
    32
  0
VERTEX
  8
0
  5
34857
 10
52.4421
 20
107.354
 30
0.000000
  70
    32
  0
VERTEX
  8
0
  5
34858
 10
52.4445
 20
107.275
 30
0.000000
  70
    32
  0
VERTEX
  8
0
  5
34859
 10
52.4472
 20
107.197
 30
0.000000
  70
    32
  0
VERTEX
  8
0
  5
3485A
 10
52.4501
 20
107.118
 30
0.000000
  70
    32
  0
VERTEX
  8
0
  5
3485B
 10
52.4534
 20
107.039
 30
0.000000
  70
    32
  0
VERTEX
  8
0
  5
3485C
 10
52.4570
 20
106.961
 30
0.000000
  70
    32
  0
VERTEX
  8
0
  5
3485D
 10
52.4610
 20
106.882
 30
0.000000
  70
    32
  0
VERTEX
  8
0
  5
3485E
 10
52.4652
 20
106.804
 30
0.000000
  70
    32
  0
VERTEX
  8
0
  5
3485F
 10
52.4697
 20
106.725
 30
0.000000
  70
    32
  0
VERTEX
  8
0
  5
34860
 10
52.4746
 20
106.647
 30
0.000000
  70
    32
  0
VERTEX
  8
0
  5
34861
 10
52.4798
 20
106.568
 30
0.000000
  70
    32
  0
VERTEX
  8
0
  5
34862
 10
52.4853
 20
106.490
 30
0.000000
  70
    32
  0
VERTEX
  8
0
  5
34863
 10
52.4911
 20
106.411
 30
0.000000
  70
    32
  0
VERTEX
  8
0
  5
34864
 10
52.4972
 20
106.333
 30
0.000000
  70
    32
  0
VERTEX
  8
0
  5
34865
 10
52.5036
 20
106.255
 30
0.000000
  70
    32
  0
VERTEX
  8
0
  5
34866
 10
52.5103
 20
106.176
 30
0.000000
  70
    32
  0
VERTEX
  8
0
  5
34867
 10
52.5174
 20
106.098
 30
0.000000
  70
    32
  0
VERTEX
  8
0
  5
34868
 10
52.5247
 20
106.020
 30
0.000000
  70
    32
  0
VERTEX
  8
0
  5
34869
 10
52.5324
 20
105.941
 30
0.000000
  70
    32
  0
VERTEX
  8
0
  5
3486A
 10
52.5404
 20
105.863
 30
0.000000
  70
    32
  0
VERTEX
  8
0
  5
3486B
 10
52.5487
 20
105.785
 30
0.000000
  70
    32
  0
VERTEX
  8
0
  5
3486C
 10
52.5573
 20
105.707
 30
0.000000
  70
    32
  0
VERTEX
  8
0
  5
3486D
 10
52.5662
 20
105.629
 30
0.000000
  70
    32
  0
VERTEX
  8
0
  5
3486E
 10
52.5754
 20
105.551
 30
0.000000
  70
    32
  0
VERTEX
  8
0
  5
3486F
 10
52.5850
 20
105.473
 30
0.000000
  70
    32
  0
VERTEX
  8
0
  5
34870
 10
52.5948
 20
105.395
 30
0.000000
  70
    32
  0
VERTEX
  8
0
  5
34871
 10
52.6050
 20
105.317
 30
0.000000
  70
    32
  0
VERTEX
  8
0
  5
34872
 10
52.6155
 20
105.240
 30
0.000000
  70
    32
  0
VERTEX
  8
0
  5
34873
 10
52.6262
 20
105.162
 30
0.000000
  70
    32
  0
VERTEX
  8
0
  5
34874
 10
52.6373
 20
105.084
 30
0.000000
  70
    32
  0
VERTEX
  8
0
  5
34875
 10
52.6487
 20
105.006
 30
0.000000
  70
    32
  0
VERTEX
  8
0
  5
34876
 10
52.6604
 20
104.929
 30
0.000000
  70
    32
  0
VERTEX
  8
0
  5
34877
 10
52.6725
 20
104.851
 30
0.000000
  70
    32
  0
VERTEX
  8
0
  5
34878
 10
52.6848
 20
104.774
 30
0.000000
  70
    32
  0
VERTEX
  8
0
  5
34879
 10
52.6974
 20
104.697
 30
0.000000
  70
    32
  0
VERTEX
  8
0
  5
3487A
 10
52.7104
 20
104.619
 30
0.000000
  70
    32
  0
VERTEX
  8
0
  5
3487B
 10
52.7236
 20
104.542
 30
0.000000
  70
    32
  0
VERTEX
  8
0
  5
3487C
 10
52.7372
 20
104.465
 30
0.000000
  70
    32
  0
VERTEX
  8
0
  5
3487D
 10
52.7510
 20
104.388
 30
0.000000
  70
    32
  0
VERTEX
  8
0
  5
3487E
 10
52.7652
 20
104.311
 30
0.000000
  70
    32
  0
VERTEX
  8
0
  5
3487F
 10
52.7797
 20
104.234
 30
0.000000
  70
    32
  0
VERTEX
  8
0
  5
34880
 10
52.7945
 20
104.157
 30
0.000000
  70
    32
  0
VERTEX
  8
0
  5
34881
 10
52.8096
 20
104.080
 30
0.000000
  70
    32
  0
VERTEX
  8
0
  5
34882
 10
52.8250
 20
104.003
 30
0.000000
  70
    32
  0
VERTEX
  8
0
  5
34883
 10
52.8407
 20
103.927
 30
0.000000
  70
    32
  0
VERTEX
  8
0
  5
34884
 10
52.8567
 20
103.850
 30
0.000000
  70
    32
  0
VERTEX
  8
0
  5
34885
 10
52.8730
 20
103.773
 30
0.000000
  70
    32
  0
VERTEX
  8
0
  5
34886
 10
52.8897
 20
103.697
 30
0.000000
  70
    32
  0
VERTEX
  8
0
  5
34887
 10
52.9066
 20
103.621
 30
0.000000
  70
    32
  0
VERTEX
  8
0
  5
34888
 10
52.9238
 20
103.544
 30
0.000000
  70
    32
  0
VERTEX
  8
0
  5
34889
 10
52.9414
 20
103.468
 30
0.000000
  70
    32
  0
VERTEX
  8
0
  5
3488A
 10
52.9592
 20
103.392
 30
0.000000
  70
    32
  0
VERTEX
  8
0
  5
3488B
 10
52.9773
 20
103.316
 30
0.000000
  70
    32
  0
VERTEX
  8
0
  5
3488C
 10
52.9958
 20
103.240
 30
0.000000
  70
    32
  0
VERTEX
  8
0
  5
3488D
 10
53.0145
 20
103.165
 30
0.000000
  70
    32
  0
VERTEX
  8
0
  5
3488E
 10
53.0336
 20
103.089
 30
0.000000
  70
    32
  0
VERTEX
  8
0
  5
3488F
 10
53.0529
 20
103.013
 30
0.000000
  70
    32
  0
VERTEX
  8
0
  5
34890
 10
53.0726
 20
102.938
 30
0.000000
  70
    32
  0
VERTEX
  8
0
  5
34891
 10
53.0925
 20
102.862
 30
0.000000
  70
    32
  0
VERTEX
  8
0
  5
34892
 10
53.1128
 20
102.787
 30
0.000000
  70
    32
  0
VERTEX
  8
0
  5
34893
 10
53.1334
 20
102.712
 30
0.000000
  70
    32
  0
VERTEX
  8
0
  5
34894
 10
53.1542
 20
102.637
 30
0.000000
  70
    32
  0
VERTEX
  8
0
  5
34895
 10
53.1754
 20
102.562
 30
0.000000
  70
    32
  0
VERTEX
  8
0
  5
34896
 10
53.1968
 20
102.487
 30
0.000000
  70
    32
  0
VERTEX
  8
0
  5
34897
 10
53.2186
 20
102.412
 30
0.000000
  70
    32
  0
VERTEX
  8
0
  5
34898
 10
53.2406
 20
102.337
 30
0.000000
  70
    32
  0
VERTEX
  8
0
  5
34899
 10
53.2630
 20
102.263
 30
0.000000
  70
    32
  0
VERTEX
  8
0
  5
3489A
 10
53.2856
 20
102.188
 30
0.000000
  70
    32
  0
VERTEX
  8
0
  5
3489B
 10
53.3085
 20
102.114
 30
0.000000
  70
    32
  0
VERTEX
  8
0
  5
3489C
 10
53.3318
 20
102.040
 30
0.000000
  70
    32
  0
VERTEX
  8
0
  5
3489D
 10
53.3553
 20
101.966
 30
0.000000
  70
    32
  0
VERTEX
  8
0
  5
3489E
 10
53.3791
 20
101.892
 30
0.000000
  70
    32
  0
VERTEX
  8
0
  5
3489F
 10
53.4033
 20
101.818
 30
0.000000
  70
    32
  0
VERTEX
  8
0
  5
348A0
 10
53.4277
 20
101.744
 30
0.000000
  70
    32
  0
VERTEX
  8
0
  5
348A1
 10
53.4524
 20
101.671
 30
0.000000
  70
    32
  0
VERTEX
  8
0
  5
348A2
 10
53.4774
 20
101.597
 30
0.000000
  70
    32
  0
VERTEX
  8
0
  5
348A3
 10
53.5027
 20
101.524
 30
0.000000
  70
    32
  0
VERTEX
  8
0
  5
348A4
 10
53.5283
 20
101.451
 30
0.000000
  70
    32
  0
VERTEX
  8
0
  5
348A5
 10
53.5541
 20
101.378
 30
0.000000
  70
    32
  0
VERTEX
  8
0
  5
348A6
 10
53.5803
 20
101.305
 30
0.000000
  70
    32
  0
VERTEX
  8
0
  5
348A7
 10
53.6068
 20
101.232
 30
0.000000
  70
    32
  0
VERTEX
  8
0
  5
348A8
 10
53.6335
 20
101.159
 30
0.000000
  70
    32
  0
VERTEX
  8
0
  5
348A9
 10
53.6606
 20
101.087
 30
0.000000
  70
    32
  0
VERTEX
  8
0
  5
348AA
 10
53.6879
 20
101.014
 30
0.000000
  70
    32
  0
VERTEX
  8
0
  5
348AB
 10
53.7155
 20
100.942
 30
0.000000
  70
    32
  0
VERTEX
  8
0
  5
348AC
 10
53.7434
 20
100.870
 30
0.000000
  70
    32
  0
VERTEX
  8
0
  5
348AD
 10
53.7716
 20
100.798
 30
0.000000
  70
    32
  0
VERTEX
  8
0
  5
348AE
 10
53.8001
 20
100.726
 30
0.000000
  70
    32
  0
VERTEX
  8
0
  5
348AF
 10
53.8288
 20
100.655
 30
0.000000
  70
    32
  0
VERTEX
  8
0
  5
348B0
 10
53.8579
 20
100.583
 30
0.000000
  70
    32
  0
VERTEX
  8
0
  5
348B1
 10
53.8872
 20
100.512
 30
0.000000
  70
    32
  0
VERTEX
  8
0
  5
348B2
 10
53.9168
 20
100.440
 30
0.000000
  70
    32
  0
VERTEX
  8
0
  5
348B3
 10
53.9467
 20
100.369
 30
0.000000
  70
    32
  0
VERTEX
  8
0
  5
348B4
 10
53.9769
 20
100.298
 30
0.000000
  70
    32
  0
VERTEX
  8
0
  5
348B5
 10
54.0074
 20
100.228
 30
0.000000
  70
    32
  0
VERTEX
  8
0
  5
348B6
 10
54.0382
 20
100.157
 30
0.000000
  70
    32
  0
VERTEX
  8
0
  5
348B7
 10
54.0692
 20
100.086
 30
0.000000
  70
    32
  0
VERTEX
  8
0
  5
348B8
 10
54.1005
 20
100.016
 30
0.000000
  70
    32
  0
VERTEX
  8
0
  5
348B9
 10
54.1321
 20
99.9460
 30
0.000000
  70
    32
  0
VERTEX
  8
0
  5
348BA
 10
54.1640
 20
99.8760
 30
0.000000
  70
    32
  0
VERTEX
  8
0
  5
348BB
 10
54.1961
 20
99.8062
 30
0.000000
  70
    32
  0
VERTEX
  8
0
  5
348BC
 10
54.2285
 20
99.7366
 30
0.000000
  70
    32
  0
VERTEX
  8
0
  5
348BD
 10
54.2612
 20
99.6671
 30
0.000000
  70
    32
  0
VERTEX
  8
0
  5
348BE
 10
54.2942
 20
99.5977
 30
0.000000
  70
    32
  0
VERTEX
  8
0
  5
348BF
 10
54.3275
 20
99.5286
 30
0.000000
  70
    32
  0
VERTEX
  8
0
  5
348C0
 10
54.3610
 20
99.4596
 30
0.000000
  70
    32
  0
VERTEX
  8
0
  5
348C1
 10
54.3948
 20
99.3907
 30
0.000000
  70
    32
  0
VERTEX
  8
0
  5
348C2
 10
54.4289
 20
99.3221
 30
0.000000
  70
    32
  0
VERTEX
  8
0
  5
348C3
 10
54.4633
 20
99.2536
 30
0.000000
  70
    32
  0
VERTEX
  8
0
  5
348C4
 10
54.4979
 20
99.1853
 30
0.000000
  70
    32
  0
VERTEX
  8
0
  5
348C5
 10
54.5328
 20
99.1172
 30
0.000000
  70
    32
  0
VERTEX
  8
0
  5
348C6
 10
54.5680
 20
99.0492
 30
0.000000
  70
    32
  0
VERTEX
  8
0
  5
348C7
 10
54.6034
 20
98.9815
 30
0.000000
  70
    32
  0
VERTEX
  8
0
  5
348C8
 10
54.6391
 20
98.9139
 30
0.000000
  70
    32
  0
VERTEX
  8
0
  5
348C9
 10
54.6751
 20
98.8465
 30
0.000000
  70
    32
  0
VERTEX
  8
0
  5
348CA
 10
54.7114
 20
98.7792
 30
0.000000
  70
    32
  0
VERTEX
  8
0
  5
348CB
 10
54.7479
 20
98.7122
 30
0.000000
  70
    32
  0
VERTEX
  8
0
  5
348CC
 10
54.7847
 20
98.6454
 30
0.000000
  70
    32
  0
VERTEX
  8
0
  5
348CD
 10
54.8217
 20
98.5787
 30
0.000000
  70
    32
  0
VERTEX
  8
0
  5
348CE
 10
54.8590
 20
98.5122
 30
0.000000
  70
    32
  0
VERTEX
  8
0
  5
348CF
 10
54.8966
 20
98.4459
 30
0.000000
  70
    32
  0
VERTEX
  8
0
  5
348D0
 10
54.9345
 20
98.3798
 30
0.000000
  70
    32
  0
SEQEND
  8
0
  5
348D1
  0
LINE
  5
33EE1
  8
0
 10
57.934457776526301
 20
69.249240514425679
 30
0.0
 11
57.934457776526301
 21
97.593099167273778
 31
0.0
  0
LINE
  5
33EE3
  8
0
 10
77.934457776526301
 20
69.249240514425679
 30
0.0
 11
77.934457776526301
 21
97.593099167273778
 31
0.0
  0
LINE
  5
33EE5
  8
0
 10
56.434457776526301
 20
82.813099167273691
 30
0.0
 11
56.434457776526301
 21
124.31309916727371
 31
0.0
  0
LINE
  5
33EE8
  8
0
 10
52.102934407643367
 20
130.61654309763631
 30
0.0
 11
83.765981145409114
 21
130.61654309763631
 31
0.0
  0
LINE
  5
33EEA
  8
0
 10
76.630109950439305
 20
67.374122370697734
 30
0.0
 11
76.630109950439305
 21
97.593099167273778
 31
0.0
  0
LINE
  5
33EEC
  8
0
 10
59.238805602613297
 20
67.374122370697734
 30
0.0
 11
59.238805602613454
 21
97.593099167273778
 31
0.0
  0
LINE
  5
33EED
  8
0
 10
273.86356916321012
 20
126.81309916727371
 30
0.0
 11
273.86356916321012
 21
125.81309916727371
 31
0.0
  0
LINE
  5
33EEE
  8
0
 10
308.86356916321
 20
125.81309916727371
 30
0.0
 11
308.86356916321
 21
126.81309916727371
 31
0.0
  0
LINE
  5
33EEF
  8
0
 10
308.86356916321
 20
126.81309916727371
 30
0.0
 11
307.19509253209287
 21
130.61654309763631
 31
0.0
  0
LINE
  5
33EF0
  8
0
 10
275.53204579432708
 20
130.61654309763631
 30
0.0
 11
273.86356916321012
 21
126.81309916727371
 31
0.0
  0
ARC
  5
33EF1
  8
0
 10
277.36356916321
 20
129.81309916727329
 30
0.0
 40
2.0000000000003202
 50
90.000000000006494
 51
156.31412894275209
  0
ARC
  5
33EF2
  8
0
 10
305.36356916321012
 20
129.81309916727329
 30
0.0
 40
2.0000000000003202
 50
23.685871057247891
 51
89.999999999993491
  0
LINE
  5
33EF3
  8
0
 10
275.86356916321
 20
125.81309916727371
 30
0.0
 11
275.86356916321
 21
107.9045701735369
 31
0.0
  0
LINE
  5
33EF4
  8
0
 10
306.86356916321
 20
107.9045701735368
 30
0.0
 11
306.86356916321
 21
125.81309916727371
 31
0.0
  0
LINE
  5
33EF7
  8
0
 10
302.86356916321017
 20
83.813099167273407
 30
0.0
 11
304.36356916321017
 21
83.813099167273407
 31
0.0
  0
LINE
  5
33EF8
  8
0
 10
278.36356916321017
 20
83.813099167273407
 30
0.0
 11
279.86356916321017
 21
83.813099167273407
 31
0.0
  0
LINE
  5
33EF9
  8
0
 10
277.86356916321017
 20
86.373099167273637
 30
0.0
 11
278.36356916321017
 21
86.373099167273637
 31
0.0
  0
LINE
  5
33EFA
  8
0
 10
278.36356916321017
 20
95.253099167273646
 30
0.0
 11
277.86356916321017
 21
95.253099167273646
 31
0.0
  0
LINE
  5
33F03
  8
0
 10
274.06322907220499
 20
96.374906758542551
 30
0.0
 11
273.86356916321017
 21
95.629765833940354
 31
0.0
  0
LINE
  5
33F04
  8
0
 10
273.86356916321017
 20
85.996432500606971
 30
0.0
 11
274.06322907220499
 21
85.251291576004775
 31
0.0
  0
LINE
  5
33F05
  8
0
 10
279.86356916321017
 20
105.0217100715562
 30
0.0
 11
280.36356916321017
 21
105.0217100715562
 31
0.0
  0
LINE
  5
33F06
  8
0
 10
302.36356916321017
 20
105.0217100715562
 30
0.0
 11
302.86356916321017
 21
105.0217100715562
 31
0.0
  0
ARC
  5
33F07
  8
0
 10
291.36356916321017
 20
90.813099167273677
 30
0.0
 40
25.000000000002078
 50
249.64559360176381
 51
290.35440639823622
  0
ARC
  5
33F08
  8
0
 10
291.36356916321017
 20
90.813099167273677
 30
0.0
 40
25.000000000002078
 50
69.64559360176375
 51
110.35440639823619
  0
ARC
  5
33F09
  8
0
 10
299.36356916320909
 20
112.37695782012101
 30
0.0
 40
2.0000000000009628
 50
0.0000000000081422
 51
69.6455936017434
  0
ARC
  5
33F0A
  8
0
 10
299.36356916320909
 20
69.249240514426248
 30
0.0
 40
2.0000000000009628
 50
290.35440639825657
 51
359.99999999999193
  0
ARC
  5
33F0B
  8
0
 10
283.36356916321108
 20
112.37695782012101
 30
0.0
 40
2.000000000000957
 50
110.3544063982566
 51
179.99999999999179
  0
ARC
  5
33F0C
  8
0
 10
283.36356916321108
 20
69.249240514426248
 30
0.0
 40
2.0000000000009521
 50
180.0000000000081
 51
249.6455936017434
  0
LINE
  5
33F0D
  8
0
 10
301.36356916321017
 20
77.813099167273691
 30
0.0
 11
302.86356916321017
 21
82.813099167273691
 31
0.0
  0
LINE
  5
33F0E
  8
0
 10
302.86356916321017
 20
98.813099167273634
 30
0.0
 11
301.36356916321017
 21
103.81309916727361
 31
0.0
  0
LINE
  5
33F0F
  8
0
 10
281.36356916321017
 20
103.81309916727361
 30
0.0
 11
279.86356916321017
 21
98.813099167273634
 31
0.0
  0
LINE
  5
33F10
  8
0
 10
279.86356916321017
 20
82.813099167273691
 30
0.0
 11
281.36356916321017
 21
77.813099167273691
 31
0.0
  0
LINE
  5
33F11
  8
0
 10
273.86356916321012
 20
126.81309916727371
 30
0.0
 11
308.86356916321
 21
126.81309916727371
 31
0.0
  0
LINE
  5
33F12
  8
0
 10
273.86356916321012
 20
125.81309916727371
 30
0.0
 11
308.86356916321
 21
125.81309916727371
 31
0.0
  0
LINE
  5
33F13
  8
0
 10
277.36356916320972
 20
131.81309916727369
 30
0.0
 11
305.3635691632104
 21
131.81309916727369
 31
0.0
  0
ARC
  5
33F14
  8
0
 10
301.60103323010901
 20
115.45119227321319
 30
0.0
 40
3.3777014430400651
 50
29.790332485898951
 51
95.543065300240926
  0
LINE
  5
33F15
  8
0
 10
281.45237043922231
 20
118.81309916727341
 30
0.0
 11
301.27476788719781
 21
118.81309916727341
 31
0.0
  0
ARC
  5
33F16
  8
0
 10
281.16260545982527
 20
115.38057484993671
 30
0.0
 40
3.444733216432506
 50
85.174676450763783
 51
149.49192576309639
  0
POLYLINE
  5
33F17
  8
0
 10
278.19476927886899
 20
117.12932735826931
 30
0.0
 66
     1
 70
     8
  0
VERTEX
  8
0
  5
348D2
 10
278.195
 20
117.129
 30
0.000000
  70
    32
  0
VERTEX
  8
0
  5
348D3
 10
278.123
 20
116.998
 30
0.000000
  70
    32
  0
VERTEX
  8
0
  5
348D4
 10
278.052
 20
116.865
 30
0.000000
  70
    32
  0
VERTEX
  8
0
  5
348D5
 10
277.983
 20
116.732
 30
0.000000
  70
    32
  0
VERTEX
  8
0
  5
348D6
 10
277.914
 20
116.598
 30
0.000000
  70
    32
  0
VERTEX
  8
0
  5
348D7
 10
277.846
 20
116.464
 30
0.000000
  70
    32
  0
VERTEX
  8
0
  5
348D8
 10
277.780
 20
116.329
 30
0.000000
  70
    32
  0
VERTEX
  8
0
  5
348D9
 10
277.714
 20
116.193
 30
0.000000
  70
    32
  0
VERTEX
  8
0
  5
348DA
 10
277.650
 20
116.056
 30
0.000000
  70
    32
  0
VERTEX
  8
0
  5
348DB
 10
277.587
 20
115.919
 30
0.000000
  70
    32
  0
VERTEX
  8
0
  5
348DC
 10
277.524
 20
115.782
 30
0.000000
  70
    32
  0
VERTEX
  8
0
  5
348DD
 10
277.463
 20
115.643
 30
0.000000
  70
    32
  0
VERTEX
  8
0
  5
348DE
 10
277.403
 20
115.504
 30
0.000000
  70
    32
  0
VERTEX
  8
0
  5
348DF
 10
277.344
 20
115.365
 30
0.000000
  70
    32
  0
VERTEX
  8
0
  5
348E0
 10
277.286
 20
115.225
 30
0.000000
  70
    32
  0
VERTEX
  8
0
  5
348E1
 10
277.230
 20
115.084
 30
0.000000
  70
    32
  0
VERTEX
  8
0
  5
348E2
 10
277.174
 20
114.943
 30
0.000000
  70
    32
  0
VERTEX
  8
0
  5
348E3
 10
277.119
 20
114.801
 30
0.000000
  70
    32
  0
VERTEX
  8
0
  5
348E4
 10
277.066
 20
114.658
 30
0.000000
  70
    32
  0
VERTEX
  8
0
  5
348E5
 10
277.013
 20
114.516
 30
0.000000
  70
    32
  0
VERTEX
  8
0
  5
348E6
 10
276.962
 20
114.372
 30
0.000000
  70
    32
  0
VERTEX
  8
0
  5
348E7
 10
276.912
 20
114.228
 30
0.000000
  70
    32
  0
VERTEX
  8
0
  5
348E8
 10
276.863
 20
114.084
 30
0.000000
  70
    32
  0
VERTEX
  8
0
  5
348E9
 10
276.815
 20
113.939
 30
0.000000
  70
    32
  0
VERTEX
  8
0
  5
348EA
 10
276.769
 20
113.794
 30
0.000000
  70
    32
  0
VERTEX
  8
0
  5
348EB
 10
276.723
 20
113.648
 30
0.000000
  70
    32
  0
VERTEX
  8
0
  5
348EC
 10
276.679
 20
113.502
 30
0.000000
  70
    32
  0
VERTEX
  8
0
  5
348ED
 10
276.635
 20
113.355
 30
0.000000
  70
    32
  0
VERTEX
  8
0
  5
348EE
 10
276.593
 20
113.208
 30
0.000000
  70
    32
  0
VERTEX
  8
0
  5
348EF
 10
276.552
 20
113.060
 30
0.000000
  70
    32
  0
VERTEX
  8
0
  5
348F0
 10
276.512
 20
112.912
 30
0.000000
  70
    32
  0
VERTEX
  8
0
  5
348F1
 10
276.474
 20
112.764
 30
0.000000
  70
    32
  0
VERTEX
  8
0
  5
348F2
 10
276.436
 20
112.615
 30
0.000000
  70
    32
  0
VERTEX
  8
0
  5
348F3
 10
276.400
 20
112.466
 30
0.000000
  70
    32
  0
VERTEX
  8
0
  5
348F4
 10
276.365
 20
112.317
 30
0.000000
  70
    32
  0
VERTEX
  8
0
  5
348F5
 10
276.331
 20
112.167
 30
0.000000
  70
    32
  0
VERTEX
  8
0
  5
348F6
 10
276.298
 20
112.017
 30
0.000000
  70
    32
  0
VERTEX
  8
0
  5
348F7
 10
276.266
 20
111.867
 30
0.000000
  70
    32
  0
VERTEX
  8
0
  5
348F8
 10
276.236
 20
111.716
 30
0.000000
  70
    32
  0
VERTEX
  8
0
  5
348F9
 10
276.207
 20
111.565
 30
0.000000
  70
    32
  0
VERTEX
  8
0
  5
348FA
 10
276.179
 20
111.413
 30
0.000000
  70
    32
  0
VERTEX
  8
0
  5
348FB
 10
276.152
 20
111.262
 30
0.000000
  70
    32
  0
VERTEX
  8
0
  5
348FC
 10
276.126
 20
111.110
 30
0.000000
  70
    32
  0
VERTEX
  8
0
  5
348FD
 10
276.102
 20
110.958
 30
0.000000
  70
    32
  0
VERTEX
  8
0
  5
348FE
 10
276.078
 20
110.806
 30
0.000000
  70
    32
  0
VERTEX
  8
0
  5
348FF
 10
276.056
 20
110.653
 30
0.000000
  70
    32
  0
VERTEX
  8
0
  5
34900
 10
276.035
 20
110.500
 30
0.000000
  70
    32
  0
VERTEX
  8
0
  5
34901
 10
276.015
 20
110.347
 30
0.000000
  70
    32
  0
VERTEX
  8
0
  5
34902
 10
275.997
 20
110.194
 30
0.000000
  70
    32
  0
VERTEX
  8
0
  5
34903
 10
275.980
 20
110.041
 30
0.000000
  70
    32
  0
VERTEX
  8
0
  5
34904
 10
275.963
 20
109.887
 30
0.000000
  70
    32
  0
VERTEX
  8
0
  5
34905
 10
275.949
 20
109.733
 30
0.000000
  70
    32
  0
VERTEX
  8
0
  5
34906
 10
275.935
 20
109.580
 30
0.000000
  70
    32
  0
VERTEX
  8
0
  5
34907
 10
275.922
 20
109.426
 30
0.000000
  70
    32
  0
VERTEX
  8
0
  5
34908
 10
275.911
 20
109.272
 30
0.000000
  70
    32
  0
VERTEX
  8
0
  5
34909
 10
275.901
 20
109.117
 30
0.000000
  70
    32
  0
VERTEX
  8
0
  5
3490A
 10
275.892
 20
108.963
 30
0.000000
  70
    32
  0
VERTEX
  8
0
  5
3490B
 10
275.884
 20
108.809
 30
0.000000
  70
    32
  0
VERTEX
  8
0
  5
3490C
 10
275.878
 20
108.654
 30
0.000000
  70
    32
  0
VERTEX
  8
0
  5
3490D
 10
275.873
 20
108.500
 30
0.000000
  70
    32
  0
VERTEX
  8
0
  5
3490E
 10
275.868
 20
108.345
 30
0.000000
  70
    32
  0
VERTEX
  8
0
  5
3490F
 10
275.866
 20
108.191
 30
0.000000
  70
    32
  0
VERTEX
  8
0
  5
34910
 10
275.864
 20
108.036
 30
0.000000
  70
    32
  0
VERTEX
  8
0
  5
34911
 10
275.864
 20
107.882
 30
0.000000
  70
    32
  0
VERTEX
  8
0
  5
34912
 10
275.864
 20
107.727
 30
0.000000
  70
    32
  0
VERTEX
  8
0
  5
34913
 10
275.866
 20
107.572
 30
0.000000
  70
    32
  0
VERTEX
  8
0
  5
34914
 10
275.870
 20
107.418
 30
0.000000
  70
    32
  0
VERTEX
  8
0
  5
34915
 10
275.874
 20
107.263
 30
0.000000
  70
    32
  0
VERTEX
  8
0
  5
34916
 10
275.880
 20
107.109
 30
0.000000
  70
    32
  0
VERTEX
  8
0
  5
34917
 10
275.886
 20
106.954
 30
0.000000
  70
    32
  0
VERTEX
  8
0
  5
34918
 10
275.895
 20
106.800
 30
0.000000
  70
    32
  0
VERTEX
  8
0
  5
34919
 10
275.904
 20
106.646
 30
0.000000
  70
    32
  0
VERTEX
  8
0
  5
3491A
 10
275.914
 20
106.492
 30
0.000000
  70
    32
  0
VERTEX
  8
0
  5
3491B
 10
275.926
 20
106.338
 30
0.000000
  70
    32
  0
VERTEX
  8
0
  5
3491C
 10
275.939
 20
106.184
 30
0.000000
  70
    32
  0
VERTEX
  8
0
  5
3491D
 10
275.953
 20
106.030
 30
0.000000
  70
    32
  0
VERTEX
  8
0
  5
3491E
 10
275.968
 20
105.876
 30
0.000000
  70
    32
  0
VERTEX
  8
0
  5
3491F
 10
275.985
 20
105.723
 30
0.000000
  70
    32
  0
VERTEX
  8
0
  5
34920
 10
276.002
 20
105.569
 30
0.000000
  70
    32
  0
VERTEX
  8
0
  5
34921
 10
276.021
 20
105.416
 30
0.000000
  70
    32
  0
VERTEX
  8
0
  5
34922
 10
276.041
 20
105.263
 30
0.000000
  70
    32
  0
VERTEX
  8
0
  5
34923
 10
276.063
 20
105.111
 30
0.000000
  70
    32
  0
VERTEX
  8
0
  5
34924
 10
276.085
 20
104.958
 30
0.000000
  70
    32
  0
VERTEX
  8
0
  5
34925
 10
276.109
 20
104.806
 30
0.000000
  70
    32
  0
VERTEX
  8
0
  5
34926
 10
276.134
 20
104.654
 30
0.000000
  70
    32
  0
VERTEX
  8
0
  5
34927
 10
276.160
 20
104.502
 30
0.000000
  70
    32
  0
VERTEX
  8
0
  5
34928
 10
276.187
 20
104.351
 30
0.000000
  70
    32
  0
VERTEX
  8
0
  5
34929
 10
276.215
 20
104.199
 30
0.000000
  70
    32
  0
VERTEX
  8
0
  5
3492A
 10
276.245
 20
104.048
 30
0.000000
  70
    32
  0
VERTEX
  8
0
  5
3492B
 10
276.276
 20
103.898
 30
0.000000
  70
    32
  0
VERTEX
  8
0
  5
3492C
 10
276.308
 20
103.747
 30
0.000000
  70
    32
  0
VERTEX
  8
0
  5
3492D
 10
276.341
 20
103.597
 30
0.000000
  70
    32
  0
VERTEX
  8
0
  5
3492E
 10
276.375
 20
103.448
 30
0.000000
  70
    32
  0
VERTEX
  8
0
  5
3492F
 10
276.411
 20
103.298
 30
0.000000
  70
    32
  0
VERTEX
  8
0
  5
34930
 10
276.447
 20
103.149
 30
0.000000
  70
    32
  0
VERTEX
  8
0
  5
34931
 10
276.485
 20
103.001
 30
0.000000
  70
    32
  0
VERTEX
  8
0
  5
34932
 10
276.524
 20
102.853
 30
0.000000
  70
    32
  0
VERTEX
  8
0
  5
34933
 10
276.564
 20
102.705
 30
0.000000
  70
    32
  0
VERTEX
  8
0
  5
34934
 10
276.606
 20
102.557
 30
0.000000
  70
    32
  0
VERTEX
  8
0
  5
34935
 10
276.648
 20
102.410
 30
0.000000
  70
    32
  0
VERTEX
  8
0
  5
34936
 10
276.692
 20
102.264
 30
0.000000
  70
    32
  0
VERTEX
  8
0
  5
34937
 10
276.737
 20
102.118
 30
0.000000
  70
    32
  0
VERTEX
  8
0
  5
34938
 10
276.782
 20
101.972
 30
0.000000
  70
    32
  0
VERTEX
  8
0
  5
34939
 10
276.830
 20
101.827
 30
0.000000
  70
    32
  0
VERTEX
  8
0
  5
3493A
 10
276.878
 20
101.682
 30
0.000000
  70
    32
  0
VERTEX
  8
0
  5
3493B
 10
276.927
 20
101.538
 30
0.000000
  70
    32
  0
VERTEX
  8
0
  5
3493C
 10
276.977
 20
101.394
 30
0.000000
  70
    32
  0
VERTEX
  8
0
  5
3493D
 10
277.029
 20
101.251
 30
0.000000
  70
    32
  0
VERTEX
  8
0
  5
3493E
 10
277.082
 20
101.108
 30
0.000000
  70
    32
  0
VERTEX
  8
0
  5
3493F
 10
277.135
 20
100.966
 30
0.000000
  70
    32
  0
VERTEX
  8
0
  5
34940
 10
277.190
 20
100.824
 30
0.000000
  70
    32
  0
VERTEX
  8
0
  5
34941
 10
277.246
 20
100.683
 30
0.000000
  70
    32
  0
VERTEX
  8
0
  5
34942
 10
277.304
 20
100.543
 30
0.000000
  70
    32
  0
VERTEX
  8
0
  5
34943
 10
277.362
 20
100.403
 30
0.000000
  70
    32
  0
VERTEX
  8
0
  5
34944
 10
277.421
 20
100.263
 30
0.000000
  70
    32
  0
VERTEX
  8
0
  5
34945
 10
277.481
 20
100.125
 30
0.000000
  70
    32
  0
VERTEX
  8
0
  5
34946
 10
277.543
 20
99.9865
 30
0.000000
  70
    32
  0
VERTEX
  8
0
  5
34947
 10
277.606
 20
99.8489
 30
0.000000
  70
    32
  0
VERTEX
  8
0
  5
34948
 10
277.669
 20
99.7120
 30
0.000000
  70
    32
  0
VERTEX
  8
0
  5
34949
 10
277.734
 20
99.5757
 30
0.000000
  70
    32
  0
VERTEX
  8
0
  5
3494A
 10
277.800
 20
99.4401
 30
0.000000
  70
    32
  0
VERTEX
  8
0
  5
3494B
 10
277.866
 20
99.3052
 30
0.000000
  70
    32
  0
VERTEX
  8
0
  5
3494C
 10
277.934
 20
99.1709
 30
0.000000
  70
    32
  0
VERTEX
  8
0
  5
3494D
 10
278.003
 20
99.0373
 30
0.000000
  70
    32
  0
VERTEX
  8
0
  5
3494E
 10
278.073
 20
98.9044
 30
0.000000
  70
    32
  0
VERTEX
  8
0
  5
3494F
 10
278.144
 20
98.7721
 30
0.000000
  70
    32
  0
VERTEX
  8
0
  5
34950
 10
278.216
 20
98.6406
 30
0.000000
  70
    32
  0
VERTEX
  8
0
  5
34951
 10
278.289
 20
98.5099
 30
0.000000
  70
    32
  0
VERTEX
  8
0
  5
34952
 10
278.364
 20
98.3798
 30
0.000000
  70
    32
  0
SEQEND
  8
0
  5
34953
  0
POLYLINE
  5
33F18
  8
0
 10
304.36356916321023
 20
98.379836450962301
 30
0.0
 66
     1
 70
     8
  0
VERTEX
  8
0
  5
34954
 10
304.364
 20
98.3798
 30
0.000000
  70
    32
  0
VERTEX
  8
0
  5
34955
 10
304.438
 20
98.5099
 30
0.000000
  70
    32
  0
VERTEX
  8
0
  5
34956
 10
304.511
 20
98.6406
 30
0.000000
  70
    32
  0
VERTEX
  8
0
  5
34957
 10
304.583
 20
98.7721
 30
0.000000
  70
    32
  0
VERTEX
  8
0
  5
34958
 10
304.654
 20
98.9044
 30
0.000000
  70
    32
  0
VERTEX
  8
0
  5
34959
 10
304.724
 20
99.0373
 30
0.000000
  70
    32
  0
VERTEX
  8
0
  5
3495A
 10
304.793
 20
99.1709
 30
0.000000
  70
    32
  0
VERTEX
  8
0
  5
3495B
 10
304.861
 20
99.3052
 30
0.000000
  70
    32
  0
VERTEX
  8
0
  5
3495C
 10
304.927
 20
99.4401
 30
0.000000
  70
    32
  0
VERTEX
  8
0
  5
3495D
 10
304.993
 20
99.5757
 30
0.000000
  70
    32
  0
VERTEX
  8
0
  5
3495E
 10
305.058
 20
99.7120
 30
0.000000
  70
    32
  0
VERTEX
  8
0
  5
3495F
 10
305.122
 20
99.8489
 30
0.000000
  70
    32
  0
VERTEX
  8
0
  5
34960
 10
305.184
 20
99.9865
 30
0.000000
  70
    32
  0
VERTEX
  8
0
  5
34961
 10
305.246
 20
100.125
 30
0.000000
  70
    32
  0
VERTEX
  8
0
  5
34962
 10
305.306
 20
100.263
 30
0.000000
  70
    32
  0
VERTEX
  8
0
  5
34963
 10
305.365
 20
100.403
 30
0.000000
  70
    32
  0
VERTEX
  8
0
  5
34964
 10
305.424
 20
100.543
 30
0.000000
  70
    32
  0
VERTEX
  8
0
  5
34965
 10
305.481
 20
100.683
 30
0.000000
  70
    32
  0
VERTEX
  8
0
  5
34966
 10
305.537
 20
100.824
 30
0.000000
  70
    32
  0
VERTEX
  8
0
  5
34967
 10
305.592
 20
100.966
 30
0.000000
  70
    32
  0
VERTEX
  8
0
  5
34968
 10
305.645
 20
101.108
 30
0.000000
  70
    32
  0
VERTEX
  8
0
  5
34969
 10
305.698
 20
101.251
 30
0.000000
  70
    32
  0
VERTEX
  8
0
  5
3496A
 10
305.750
 20
101.394
 30
0.000000
  70
    32
  0
VERTEX
  8
0
  5
3496B
 10
305.800
 20
101.538
 30
0.000000
  70
    32
  0
VERTEX
  8
0
  5
3496C
 10
305.849
 20
101.682
 30
0.000000
  70
    32
  0
VERTEX
  8
0
  5
3496D
 10
305.898
 20
101.827
 30
0.000000
  70
    32
  0
VERTEX
  8
0
  5
3496E
 10
305.945
 20
101.972
 30
0.000000
  70
    32
  0
VERTEX
  8
0
  5
3496F
 10
305.991
 20
102.118
 30
0.000000
  70
    32
  0
VERTEX
  8
0
  5
34970
 10
306.035
 20
102.264
 30
0.000000
  70
    32
  0
VERTEX
  8
0
  5
34971
 10
306.079
 20
102.410
 30
0.000000
  70
    32
  0
VERTEX
  8
0
  5
34972
 10
306.121
 20
102.557
 30
0.000000
  70
    32
  0
VERTEX
  8
0
  5
34973
 10
306.163
 20
102.705
 30
0.000000
  70
    32
  0
VERTEX
  8
0
  5
34974
 10
306.203
 20
102.853
 30
0.000000
  70
    32
  0
VERTEX
  8
0
  5
34975
 10
306.242
 20
103.001
 30
0.000000
  70
    32
  0
VERTEX
  8
0
  5
34976
 10
306.280
 20
103.149
 30
0.000000
  70
    32
  0
VERTEX
  8
0
  5
34977
 10
306.316
 20
103.298
 30
0.000000
  70
    32
  0
VERTEX
  8
0
  5
34978
 10
306.352
 20
103.448
 30
0.000000
  70
    32
  0
VERTEX
  8
0
  5
34979
 10
306.386
 20
103.597
 30
0.000000
  70
    32
  0
VERTEX
  8
0
  5
3497A
 10
306.419
 20
103.747
 30
0.000000
  70
    32
  0
VERTEX
  8
0
  5
3497B
 10
306.451
 20
103.898
 30
0.000000
  70
    32
  0
VERTEX
  8
0
  5
3497C
 10
306.482
 20
104.048
 30
0.000000
  70
    32
  0
VERTEX
  8
0
  5
3497D
 10
306.512
 20
104.199
 30
0.000000
  70
    32
  0
VERTEX
  8
0
  5
3497E
 10
306.540
 20
104.351
 30
0.000000
  70
    32
  0
VERTEX
  8
0
  5
3497F
 10
306.567
 20
104.502
 30
0.000000
  70
    32
  0
VERTEX
  8
0
  5
34980
 10
306.593
 20
104.654
 30
0.000000
  70
    32
  0
VERTEX
  8
0
  5
34981
 10
306.618
 20
104.806
 30
0.000000
  70
    32
  0
VERTEX
  8
0
  5
34982
 10
306.642
 20
104.958
 30
0.000000
  70
    32
  0
VERTEX
  8
0
  5
34983
 10
306.665
 20
105.111
 30
0.000000
  70
    32
  0
VERTEX
  8
0
  5
34984
 10
306.686
 20
105.263
 30
0.000000
  70
    32
  0
VERTEX
  8
0
  5
34985
 10
306.706
 20
105.416
 30
0.000000
  70
    32
  0
VERTEX
  8
0
  5
34986
 10
306.725
 20
105.569
 30
0.000000
  70
    32
  0
VERTEX
  8
0
  5
34987
 10
306.742
 20
105.723
 30
0.000000
  70
    32
  0
VERTEX
  8
0
  5
34988
 10
306.759
 20
105.876
 30
0.000000
  70
    32
  0
VERTEX
  8
0
  5
34989
 10
306.774
 20
106.030
 30
0.000000
  70
    32
  0
VERTEX
  8
0
  5
3498A
 10
306.788
 20
106.184
 30
0.000000
  70
    32
  0
VERTEX
  8
0
  5
3498B
 10
306.801
 20
106.338
 30
0.000000
  70
    32
  0
VERTEX
  8
0
  5
3498C
 10
306.813
 20
106.492
 30
0.000000
  70
    32
  0
VERTEX
  8
0
  5
3498D
 10
306.823
 20
106.646
 30
0.000000
  70
    32
  0
VERTEX
  8
0
  5
3498E
 10
306.833
 20
106.800
 30
0.000000
  70
    32
  0
VERTEX
  8
0
  5
3498F
 10
306.841
 20
106.954
 30
0.000000
  70
    32
  0
VERTEX
  8
0
  5
34990
 10
306.848
 20
107.109
 30
0.000000
  70
    32
  0
VERTEX
  8
0
  5
34991
 10
306.853
 20
107.263
 30
0.000000
  70
    32
  0
VERTEX
  8
0
  5
34992
 10
306.858
 20
107.418
 30
0.000000
  70
    32
  0
VERTEX
  8
0
  5
34993
 10
306.861
 20
107.572
 30
0.000000
  70
    32
  0
VERTEX
  8
0
  5
34994
 10
306.863
 20
107.727
 30
0.000000
  70
    32
  0
VERTEX
  8
0
  5
34995
 10
306.864
 20
107.882
 30
0.000000
  70
    32
  0
VERTEX
  8
0
  5
34996
 10
306.863
 20
108.036
 30
0.000000
  70
    32
  0
VERTEX
  8
0
  5
34997
 10
306.861
 20
108.191
 30
0.000000
  70
    32
  0
VERTEX
  8
0
  5
34998
 10
306.859
 20
108.345
 30
0.000000
  70
    32
  0
VERTEX
  8
0
  5
34999
 10
306.855
 20
108.500
 30
0.000000
  70
    32
  0
VERTEX
  8
0
  5
3499A
 10
306.849
 20
108.654
 30
0.000000
  70
    32
  0
VERTEX
  8
0
  5
3499B
 10
306.843
 20
108.809
 30
0.000000
  70
    32
  0
VERTEX
  8
0
  5
3499C
 10
306.835
 20
108.963
 30
0.000000
  70
    32
  0
VERTEX
  8
0
  5
3499D
 10
306.826
 20
109.117
 30
0.000000
  70
    32
  0
VERTEX
  8
0
  5
3499E
 10
306.816
 20
109.272
 30
0.000000
  70
    32
  0
VERTEX
  8
0
  5
3499F
 10
306.805
 20
109.426
 30
0.000000
  70
    32
  0
VERTEX
  8
0
  5
349A0
 10
306.792
 20
109.580
 30
0.000000
  70
    32
  0
VERTEX
  8
0
  5
349A1
 10
306.779
 20
109.733
 30
0.000000
  70
    32
  0
VERTEX
  8
0
  5
349A2
 10
306.764
 20
109.887
 30
0.000000
  70
    32
  0
VERTEX
  8
0
  5
349A3
 10
306.748
 20
110.041
 30
0.000000
  70
    32
  0
VERTEX
  8
0
  5
349A4
 10
306.730
 20
110.194
 30
0.000000
  70
    32
  0
VERTEX
  8
0
  5
349A5
 10
306.712
 20
110.347
 30
0.000000
  70
    32
  0
VERTEX
  8
0
  5
349A6
 10
306.692
 20
110.500
 30
0.000000
  70
    32
  0
VERTEX
  8
0
  5
349A7
 10
306.671
 20
110.653
 30
0.000000
  70
    32
  0
VERTEX
  8
0
  5
349A8
 10
306.649
 20
110.806
 30
0.000000
  70
    32
  0
VERTEX
  8
0
  5
349A9
 10
306.626
 20
110.958
 30
0.000000
  70
    32
  0
VERTEX
  8
0
  5
349AA
 10
306.601
 20
111.110
 30
0.000000
  70
    32
  0
VERTEX
  8
0
  5
349AB
 10
306.575
 20
111.262
 30
0.000000
  70
    32
  0
VERTEX
  8
0
  5
349AC
 10
306.548
 20
111.413
 30
0.000000
  70
    32
  0
VERTEX
  8
0
  5
349AD
 10
306.520
 20
111.565
 30
0.000000
  70
    32
  0
VERTEX
  8
0
  5
349AE
 10
306.491
 20
111.716
 30
0.000000
  70
    32
  0
VERTEX
  8
0
  5
349AF
 10
306.461
 20
111.867
 30
0.000000
  70
    32
  0
VERTEX
  8
0
  5
349B0
 10
306.429
 20
112.017
 30
0.000000
  70
    32
  0
VERTEX
  8
0
  5
349B1
 10
306.396
 20
112.167
 30
0.000000
  70
    32
  0
VERTEX
  8
0
  5
349B2
 10
306.362
 20
112.317
 30
0.000000
  70
    32
  0
VERTEX
  8
0
  5
349B3
 10
306.327
 20
112.466
 30
0.000000
  70
    32
  0
VERTEX
  8
0
  5
349B4
 10
306.291
 20
112.615
 30
0.000000
  70
    32
  0
VERTEX
  8
0
  5
349B5
 10
306.253
 20
112.764
 30
0.000000
  70
    32
  0
VERTEX
  8
0
  5
349B6
 10
306.215
 20
112.912
 30
0.000000
  70
    32
  0
VERTEX
  8
0
  5
349B7
 10
306.175
 20
113.060
 30
0.000000
  70
    32
  0
VERTEX
  8
0
  5
349B8
 10
306.134
 20
113.208
 30
0.000000
  70
    32
  0
VERTEX
  8
0
  5
349B9
 10
306.092
 20
113.355
 30
0.000000
  70
    32
  0
VERTEX
  8
0
  5
349BA
 10
306.048
 20
113.502
 30
0.000000
  70
    32
  0
VERTEX
  8
0
  5
349BB
 10
306.004
 20
113.648
 30
0.000000
  70
    32
  0
VERTEX
  8
0
  5
349BC
 10
305.958
 20
113.794
 30
0.000000
  70
    32
  0
VERTEX
  8
0
  5
349BD
 10
305.912
 20
113.939
 30
0.000000
  70
    32
  0
VERTEX
  8
0
  5
349BE
 10
305.864
 20
114.084
 30
0.000000
  70
    32
  0
VERTEX
  8
0
  5
349BF
 10
305.815
 20
114.228
 30
0.000000
  70
    32
  0
VERTEX
  8
0
  5
349C0
 10
305.765
 20
114.372
 30
0.000000
  70
    32
  0
VERTEX
  8
0
  5
349C1
 10
305.714
 20
114.516
 30
0.000000
  70
    32
  0
VERTEX
  8
0
  5
349C2
 10
305.661
 20
114.658
 30
0.000000
  70
    32
  0
VERTEX
  8
0
  5
349C3
 10
305.608
 20
114.801
 30
0.000000
  70
    32
  0
VERTEX
  8
0
  5
349C4
 10
305.553
 20
114.943
 30
0.000000
  70
    32
  0
VERTEX
  8
0
  5
349C5
 10
305.498
 20
115.084
 30
0.000000
  70
    32
  0
VERTEX
  8
0
  5
349C6
 10
305.441
 20
115.225
 30
0.000000
  70
    32
  0
VERTEX
  8
0
  5
349C7
 10
305.383
 20
115.365
 30
0.000000
  70
    32
  0
VERTEX
  8
0
  5
349C8
 10
305.324
 20
115.504
 30
0.000000
  70
    32
  0
VERTEX
  8
0
  5
349C9
 10
305.264
 20
115.643
 30
0.000000
  70
    32
  0
VERTEX
  8
0
  5
349CA
 10
305.203
 20
115.782
 30
0.000000
  70
    32
  0
VERTEX
  8
0
  5
349CB
 10
305.140
 20
115.919
 30
0.000000
  70
    32
  0
VERTEX
  8
0
  5
349CC
 10
305.077
 20
116.056
 30
0.000000
  70
    32
  0
VERTEX
  8
0
  5
349CD
 10
305.013
 20
116.193
 30
0.000000
  70
    32
  0
VERTEX
  8
0
  5
349CE
 10
304.947
 20
116.329
 30
0.000000
  70
    32
  0
VERTEX
  8
0
  5
349CF
 10
304.881
 20
116.464
 30
0.000000
  70
    32
  0
VERTEX
  8
0
  5
349D0
 10
304.813
 20
116.598
 30
0.000000
  70
    32
  0
VERTEX
  8
0
  5
349D1
 10
304.745
 20
116.732
 30
0.000000
  70
    32
  0
VERTEX
  8
0
  5
349D2
 10
304.675
 20
116.865
 30
0.000000
  70
    32
  0
VERTEX
  8
0
  5
349D3
 10
304.604
 20
116.998
 30
0.000000
  70
    32
  0
VERTEX
  8
0
  5
349D4
 10
304.532
 20
117.129
 30
0.000000
  70
    32
  0
SEQEND
  8
0
  5
349D5
  0
LINE
  5
33F19
  8
0
 10
279.86356916321
 20
116.9140663106872
 30
0.0
 11
279.86356916321017
 21
82.813099167273691
 31
0.0
  0
POLYLINE
  5
33F1A
  8
0
 10
279.99839030875194
 20
117.12932735826929
 30
0.0
 66
     1
 70
     8
  0
VERTEX
  8
0
  5
349D6
 10
279.998
 20
117.129
 30
0.000000
  70
    32
  0
VERTEX
  8
0
  5
349D7
 10
279.920
 20
117.006
 30
0.000000
  70
    32
  0
VERTEX
  8
0
  5
349D8
 10
279.843
 20
116.881
 30
0.000000
  70
    32
  0
VERTEX
  8
0
  5
349D9
 10
279.767
 20
116.756
 30
0.000000
  70
    32
  0
VERTEX
  8
0
  5
349DA
 10
279.693
 20
116.630
 30
0.000000
  70
    32
  0
VERTEX
  8
0
  5
349DB
 10
279.619
 20
116.503
 30
0.000000
  70
    32
  0
VERTEX
  8
0
  5
349DC
 10
279.546
 20
116.375
 30
0.000000
  70
    32
  0
VERTEX
  8
0
  5
349DD
 10
279.474
 20
116.246
 30
0.000000
  70
    32
  0
VERTEX
  8
0
  5
349DE
 10
279.404
 20
116.117
 30
0.000000
  70
    32
  0
VERTEX
  8
0
  5
349DF
 10
279.334
 20
115.987
 30
0.000000
  70
    32
  0
VERTEX
  8
0
  5
349E0
 10
279.266
 20
115.856
 30
0.000000
  70
    32
  0
VERTEX
  8
0
  5
349E1
 10
279.199
 20
115.724
 30
0.000000
  70
    32
  0
VERTEX
  8
0
  5
349E2
 10
279.133
 20
115.592
 30
0.000000
  70
    32
  0
VERTEX
  8
0
  5
349E3
 10
279.068
 20
115.459
 30
0.000000
  70
    32
  0
VERTEX
  8
0
  5
349E4
 10
279.004
 20
115.325
 30
0.000000
  70
    32
  0
VERTEX
  8
0
  5
349E5
 10
278.942
 20
115.191
 30
0.000000
  70
    32
  0
VERTEX
  8
0
  5
349E6
 10
278.880
 20
115.056
 30
0.000000
  70
    32
  0
VERTEX
  8
0
  5
349E7
 10
278.820
 20
114.920
 30
0.000000
  70
    32
  0
VERTEX
  8
0
  5
349E8
 10
278.761
 20
114.784
 30
0.000000
  70
    32
  0
VERTEX
  8
0
  5
349E9
 10
278.703
 20
114.647
 30
0.000000
  70
    32
  0
VERTEX
  8
0
  5
349EA
 10
278.646
 20
114.509
 30
0.000000
  70
    32
  0
VERTEX
  8
0
  5
349EB
 10
278.590
 20
114.371
 30
0.000000
  70
    32
  0
VERTEX
  8
0
  5
349EC
 10
278.536
 20
114.232
 30
0.000000
  70
    32
  0
VERTEX
  8
0
  5
349ED
 10
278.482
 20
114.092
 30
0.000000
  70
    32
  0
VERTEX
  8
0
  5
349EE
 10
278.430
 20
113.952
 30
0.000000
  70
    32
  0
VERTEX
  8
0
  5
349EF
 10
278.379
 20
113.812
 30
0.000000
  70
    32
  0
VERTEX
  8
0
  5
349F0
 10
278.329
 20
113.671
 30
0.000000
  70
    32
  0
VERTEX
  8
0
  5
349F1
 10
278.281
 20
113.529
 30
0.000000
  70
    32
  0
VERTEX
  8
0
  5
349F2
 10
278.234
 20
113.387
 30
0.000000
  70
    32
  0
VERTEX
  8
0
  5
349F3
 10
278.188
 20
113.244
 30
0.000000
  70
    32
  0
VERTEX
  8
0
  5
349F4
 10
278.143
 20
113.101
 30
0.000000
  70
    32
  0
VERTEX
  8
0
  5
349F5
 10
278.099
 20
112.957
 30
0.000000
  70
    32
  0
VERTEX
  8
0
  5
349F6
 10
278.057
 20
112.813
 30
0.000000
  70
    32
  0
VERTEX
  8
0
  5
349F7
 10
278.015
 20
112.669
 30
0.000000
  70
    32
  0
VERTEX
  8
0
  5
349F8
 10
277.975
 20
112.524
 30
0.000000
  70
    32
  0
VERTEX
  8
0
  5
349F9
 10
277.937
 20
112.378
 30
0.000000
  70
    32
  0
VERTEX
  8
0
  5
349FA
 10
277.899
 20
112.232
 30
0.000000
  70
    32
  0
VERTEX
  8
0
  5
349FB
 10
277.863
 20
112.086
 30
0.000000
  70
    32
  0
VERTEX
  8
0
  5
349FC
 10
277.828
 20
111.940
 30
0.000000
  70
    32
  0
VERTEX
  8
0
  5
349FD
 10
277.794
 20
111.793
 30
0.000000
  70
    32
  0
VERTEX
  8
0
  5
349FE
 10
277.762
 20
111.645
 30
0.000000
  70
    32
  0
VERTEX
  8
0
  5
349FF
 10
277.730
 20
111.497
 30
0.000000
  70
    32
  0
VERTEX
  8
0
  5
34A00
 10
277.700
 20
111.349
 30
0.000000
  70
    32
  0
VERTEX
  8
0
  5
34A01
 10
277.672
 20
111.201
 30
0.000000
  70
    32
  0
VERTEX
  8
0
  5
34A02
 10
277.644
 20
111.052
 30
0.000000
  70
    32
  0
VERTEX
  8
0
  5
34A03
 10
277.618
 20
110.903
 30
0.000000
  70
    32
  0
VERTEX
  8
0
  5
34A04
 10
277.593
 20
110.754
 30
0.000000
  70
    32
  0
VERTEX
  8
0
  5
34A05
 10
277.570
 20
110.605
 30
0.000000
  70
    32
  0
VERTEX
  8
0
  5
34A06
 10
277.547
 20
110.455
 30
0.000000
  70
    32
  0
VERTEX
  8
0
  5
34A07
 10
277.526
 20
110.305
 30
0.000000
  70
    32
  0
VERTEX
  8
0
  5
34A08
 10
277.506
 20
110.155
 30
0.000000
  70
    32
  0
VERTEX
  8
0
  5
34A09
 10
277.488
 20
110.004
 30
0.000000
  70
    32
  0
VERTEX
  8
0
  5
34A0A
 10
277.471
 20
109.854
 30
0.000000
  70
    32
  0
VERTEX
  8
0
  5
34A0B
 10
277.455
 20
109.703
 30
0.000000
  70
    32
  0
VERTEX
  8
0
  5
34A0C
 10
277.440
 20
109.552
 30
0.000000
  70
    32
  0
VERTEX
  8
0
  5
34A0D
 10
277.427
 20
109.401
 30
0.000000
  70
    32
  0
VERTEX
  8
0
  5
34A0E
 10
277.414
 20
109.250
 30
0.000000
  70
    32
  0
VERTEX
  8
0
  5
34A0F
 10
277.404
 20
109.098
 30
0.000000
  70
    32
  0
VERTEX
  8
0
  5
34A10
 10
277.394
 20
108.947
 30
0.000000
  70
    32
  0
VERTEX
  8
0
  5
34A11
 10
277.386
 20
108.795
 30
0.000000
  70
    32
  0
VERTEX
  8
0
  5
34A12
 10
277.379
 20
108.644
 30
0.000000
  70
    32
  0
VERTEX
  8
0
  5
34A13
 10
277.373
 20
108.492
 30
0.000000
  70
    32
  0
VERTEX
  8
0
  5
34A14
 10
277.369
 20
108.340
 30
0.000000
  70
    32
  0
VERTEX
  8
0
  5
34A15
 10
277.366
 20
108.188
 30
0.000000
  70
    32
  0
VERTEX
  8
0
  5
34A16
 10
277.364
 20
108.036
 30
0.000000
  70
    32
  0
VERTEX
  8
0
  5
34A17
 10
277.364
 20
107.885
 30
0.000000
  70
    32
  0
VERTEX
  8
0
  5
34A18
 10
277.364
 20
107.733
 30
0.000000
  70
    32
  0
VERTEX
  8
0
  5
34A19
 10
277.367
 20
107.581
 30
0.000000
  70
    32
  0
VERTEX
  8
0
  5
34A1A
 10
277.370
 20
107.429
 30
0.000000
  70
    32
  0
VERTEX
  8
0
  5
34A1B
 10
277.375
 20
107.277
 30
0.000000
  70
    32
  0
VERTEX
  8
0
  5
34A1C
 10
277.381
 20
107.126
 30
0.000000
  70
    32
  0
VERTEX
  8
0
  5
34A1D
 10
277.388
 20
106.974
 30
0.000000
  70
    32
  0
VERTEX
  8
0
  5
34A1E
 10
277.396
 20
106.822
 30
0.000000
  70
    32
  0
VERTEX
  8
0
  5
34A1F
 10
277.406
 20
106.671
 30
0.000000
  70
    32
  0
VERTEX
  8
0
  5
34A20
 10
277.417
 20
106.520
 30
0.000000
  70
    32
  0
VERTEX
  8
0
  5
34A21
 10
277.430
 20
106.368
 30
0.000000
  70
    32
  0
VERTEX
  8
0
  5
34A22
 10
277.444
 20
106.217
 30
0.000000
  70
    32
  0
VERTEX
  8
0
  5
34A23
 10
277.459
 20
106.066
 30
0.000000
  70
    32
  0
VERTEX
  8
0
  5
34A24
 10
277.475
 20
105.916
 30
0.000000
  70
    32
  0
VERTEX
  8
0
  5
34A25
 10
277.493
 20
105.765
 30
0.000000
  70
    32
  0
VERTEX
  8
0
  5
34A26
 10
277.511
 20
105.615
 30
0.000000
  70
    32
  0
VERTEX
  8
0
  5
34A27
 10
277.532
 20
105.465
 30
0.000000
  70
    32
  0
VERTEX
  8
0
  5
34A28
 10
277.553
 20
105.315
 30
0.000000
  70
    32
  0
VERTEX
  8
0
  5
34A29
 10
277.576
 20
105.165
 30
0.000000
  70
    32
  0
VERTEX
  8
0
  5
34A2A
 10
277.600
 20
105.016
 30
0.000000
  70
    32
  0
VERTEX
  8
0
  5
34A2B
 10
277.625
 20
104.866
 30
0.000000
  70
    32
  0
VERTEX
  8
0
  5
34A2C
 10
277.651
 20
104.717
 30
0.000000
  70
    32
  0
VERTEX
  8
0
  5
34A2D
 10
277.679
 20
104.569
 30
0.000000
  70
    32
  0
VERTEX
  8
0
  5
34A2E
 10
277.708
 20
104.421
 30
0.000000
  70
    32
  0
VERTEX
  8
0
  5
34A2F
 10
277.739
 20
104.273
 30
0.000000
  70
    32
  0
VERTEX
  8
0
  5
34A30
 10
277.770
 20
104.125
 30
0.000000
  70
    32
  0
VERTEX
  8
0
  5
34A31
 10
277.803
 20
103.978
 30
0.000000
  70
    32
  0
VERTEX
  8
0
  5
34A32
 10
277.837
 20
103.831
 30
0.000000
  70
    32
  0
VERTEX
  8
0
  5
34A33
 10
277.872
 20
103.684
 30
0.000000
  70
    32
  0
VERTEX
  8
0
  5
34A34
 10
277.909
 20
103.538
 30
0.000000
  70
    32
  0
VERTEX
  8
0
  5
34A35
 10
277.947
 20
103.392
 30
0.000000
  70
    32
  0
VERTEX
  8
0
  5
34A36
 10
277.986
 20
103.247
 30
0.000000
  70
    32
  0
VERTEX
  8
0
  5
34A37
 10
278.026
 20
103.102
 30
0.000000
  70
    32
  0
VERTEX
  8
0
  5
34A38
 10
278.068
 20
102.958
 30
0.000000
  70
    32
  0
VERTEX
  8
0
  5
34A39
 10
278.110
 20
102.814
 30
0.000000
  70
    32
  0
VERTEX
  8
0
  5
34A3A
 10
278.154
 20
102.670
 30
0.000000
  70
    32
  0
VERTEX
  8
0
  5
34A3B
 10
278.200
 20
102.527
 30
0.000000
  70
    32
  0
VERTEX
  8
0
  5
34A3C
 10
278.246
 20
102.385
 30
0.000000
  70
    32
  0
VERTEX
  8
0
  5
34A3D
 10
278.294
 20
102.243
 30
0.000000
  70
    32
  0
VERTEX
  8
0
  5
34A3E
 10
278.342
 20
102.101
 30
0.000000
  70
    32
  0
VERTEX
  8
0
  5
34A3F
 10
278.393
 20
101.960
 30
0.000000
  70
    32
  0
VERTEX
  8
0
  5
34A40
 10
278.444
 20
101.820
 30
0.000000
  70
    32
  0
VERTEX
  8
0
  5
34A41
 10
278.496
 20
101.680
 30
0.000000
  70
    32
  0
VERTEX
  8
0
  5
34A42
 10
278.550
 20
101.541
 30
0.000000
  70
    32
  0
VERTEX
  8
0
  5
34A43
 10
278.605
 20
101.402
 30
0.000000
  70
    32
  0
VERTEX
  8
0
  5
34A44
 10
278.661
 20
101.264
 30
0.000000
  70
    32
  0
VERTEX
  8
0
  5
34A45
 10
278.718
 20
101.126
 30
0.000000
  70
    32
  0
VERTEX
  8
0
  5
34A46
 10
278.776
 20
100.989
 30
0.000000
  70
    32
  0
VERTEX
  8
0
  5
34A47
 10
278.836
 20
100.853
 30
0.000000
  70
    32
  0
VERTEX
  8
0
  5
34A48
 10
278.896
 20
100.718
 30
0.000000
  70
    32
  0
VERTEX
  8
0
  5
34A49
 10
278.958
 20
100.583
 30
0.000000
  70
    32
  0
VERTEX
  8
0
  5
34A4A
 10
279.021
 20
100.449
 30
0.000000
  70
    32
  0
VERTEX
  8
0
  5
34A4B
 10
279.085
 20
100.315
 30
0.000000
  70
    32
  0
VERTEX
  8
0
  5
34A4C
 10
279.150
 20
100.182
 30
0.000000
  70
    32
  0
VERTEX
  8
0
  5
34A4D
 10
279.217
 20
100.050
 30
0.000000
  70
    32
  0
VERTEX
  8
0
  5
34A4E
 10
279.284
 20
99.9187
 30
0.000000
  70
    32
  0
VERTEX
  8
0
  5
34A4F
 10
279.353
 20
99.7880
 30
0.000000
  70
    32
  0
VERTEX
  8
0
  5
34A50
 10
279.422
 20
99.6581
 30
0.000000
  70
    32
  0
VERTEX
  8
0
  5
34A51
 10
279.493
 20
99.5290
 30
0.000000
  70
    32
  0
VERTEX
  8
0
  5
34A52
 10
279.565
 20
99.4006
 30
0.000000
  70
    32
  0
VERTEX
  8
0
  5
34A53
 10
279.638
 20
99.2730
 30
0.000000
  70
    32
  0
VERTEX
  8
0
  5
34A54
 10
279.712
 20
99.1462
 30
0.000000
  70
    32
  0
VERTEX
  8
0
  5
34A55
 10
279.787
 20
99.0202
 30
0.000000
  70
    32
  0
VERTEX
  8
0
  5
34A56
 10
279.864
 20
98.8951
 30
0.000000
  70
    32
  0
SEQEND
  8
0
  5
34A57
  0
ARC
  5
33F1B
  8
0
 10
283.44938760494131
 20
114.530143124239
 30
0.0
 40
4.3203172361226416
 50
82.459439115176281
 51
143.01407345278059
  0
ARC
  5
33F1C
  8
0
 10
299.27078665437318
 20
114.51352493914651
 30
0.0
 40
4.3358873470062997
 50
37.105973594629411
 51
97.420513837412017
  0
POLYLINE
  5
33F1D
  8
0
 10
302.86356916321023
 20
98.89507403638676
 30
0.0
 66
     1
 70
     8
  0
VERTEX
  8
0
  5
34A58
 10
302.864
 20
98.8951
 30
0.000000
  70
    32
  0
VERTEX
  8
0
  5
34A59
 10
302.940
 20
99.0202
 30
0.000000
  70
    32
  0
VERTEX
  8
0
  5
34A5A
 10
303.015
 20
99.1462
 30
0.000000
  70
    32
  0
VERTEX
  8
0
  5
34A5B
 10
303.089
 20
99.2730
 30
0.000000
  70
    32
  0
VERTEX
  8
0
  5
34A5C
 10
303.162
 20
99.4006
 30
0.000000
  70
    32
  0
VERTEX
  8
0
  5
34A5D
 10
303.234
 20
99.5290
 30
0.000000
  70
    32
  0
VERTEX
  8
0
  5
34A5E
 10
303.305
 20
99.6581
 30
0.000000
  70
    32
  0
VERTEX
  8
0
  5
34A5F
 10
303.374
 20
99.7880
 30
0.000000
  70
    32
  0
VERTEX
  8
0
  5
34A60
 10
303.443
 20
99.9187
 30
0.000000
  70
    32
  0
VERTEX
  8
0
  5
34A61
 10
303.510
 20
100.050
 30
0.000000
  70
    32
  0
VERTEX
  8
0
  5
34A62
 10
303.577
 20
100.182
 30
0.000000
  70
    32
  0
VERTEX
  8
0
  5
34A63
 10
303.642
 20
100.315
 30
0.000000
  70
    32
  0
VERTEX
  8
0
  5
34A64
 10
303.706
 20
100.449
 30
0.000000
  70
    32
  0
VERTEX
  8
0
  5
34A65
 10
303.769
 20
100.583
 30
0.000000
  70
    32
  0
VERTEX
  8
0
  5
34A66
 10
303.831
 20
100.718
 30
0.000000
  70
    32
  0
VERTEX
  8
0
  5
34A67
 10
303.892
 20
100.853
 30
0.000000
  70
    32
  0
VERTEX
  8
0
  5
34A68
 10
303.951
 20
100.989
 30
0.000000
  70
    32
  0
VERTEX
  8
0
  5
34A69
 10
304.009
 20
101.126
 30
0.000000
  70
    32
  0
VERTEX
  8
0
  5
34A6A
 10
304.067
 20
101.264
 30
0.000000
  70
    32
  0
VERTEX
  8
0
  5
34A6B
 10
304.122
 20
101.402
 30
0.000000
  70
    32
  0
VERTEX
  8
0
  5
34A6C
 10
304.177
 20
101.541
 30
0.000000
  70
    32
  0
VERTEX
  8
0
  5
34A6D
 10
304.231
 20
101.680
 30
0.000000
  70
    32
  0
VERTEX
  8
0
  5
34A6E
 10
304.283
 20
101.820
 30
0.000000
  70
    32
  0
VERTEX
  8
0
  5
34A6F
 10
304.335
 20
101.960
 30
0.000000
  70
    32
  0
VERTEX
  8
0
  5
34A70
 10
304.385
 20
102.101
 30
0.000000
  70
    32
  0
VERTEX
  8
0
  5
34A71
 10
304.433
 20
102.243
 30
0.000000
  70
    32
  0
VERTEX
  8
0
  5
34A72
 10
304.481
 20
102.385
 30
0.000000
  70
    32
  0
VERTEX
  8
0
  5
34A73
 10
304.528
 20
102.527
 30
0.000000
  70
    32
  0
VERTEX
  8
0
  5
34A74
 10
304.573
 20
102.670
 30
0.000000
  70
    32
  0
VERTEX
  8
0
  5
34A75
 10
304.617
 20
102.814
 30
0.000000
  70
    32
  0
VERTEX
  8
0
  5
34A76
 10
304.659
 20
102.958
 30
0.000000
  70
    32
  0
VERTEX
  8
0
  5
34A77
 10
304.701
 20
103.102
 30
0.000000
  70
    32
  0
VERTEX
  8
0
  5
34A78
 10
304.741
 20
103.247
 30
0.000000
  70
    32
  0
VERTEX
  8
0
  5
34A79
 10
304.780
 20
103.392
 30
0.000000
  70
    32
  0
VERTEX
  8
0
  5
34A7A
 10
304.818
 20
103.538
 30
0.000000
  70
    32
  0
VERTEX
  8
0
  5
34A7B
 10
304.855
 20
103.684
 30
0.000000
  70
    32
  0
VERTEX
  8
0
  5
34A7C
 10
304.890
 20
103.831
 30
0.000000
  70
    32
  0
VERTEX
  8
0
  5
34A7D
 10
304.924
 20
103.978
 30
0.000000
  70
    32
  0
VERTEX
  8
0
  5
34A7E
 10
304.957
 20
104.125
 30
0.000000
  70
    32
  0
VERTEX
  8
0
  5
34A7F
 10
304.989
 20
104.273
 30
0.000000
  70
    32
  0
VERTEX
  8
0
  5
34A80
 10
305.019
 20
104.421
 30
0.000000
  70
    32
  0
VERTEX
  8
0
  5
34A81
 10
305.048
 20
104.569
 30
0.000000
  70
    32
  0
VERTEX
  8
0
  5
34A82
 10
305.076
 20
104.717
 30
0.000000
  70
    32
  0
VERTEX
  8
0
  5
34A83
 10
305.102
 20
104.866
 30
0.000000
  70
    32
  0
VERTEX
  8
0
  5
34A84
 10
305.127
 20
105.016
 30
0.000000
  70
    32
  0
VERTEX
  8
0
  5
34A85
 10
305.151
 20
105.165
 30
0.000000
  70
    32
  0
VERTEX
  8
0
  5
34A86
 10
305.174
 20
105.315
 30
0.000000
  70
    32
  0
VERTEX
  8
0
  5
34A87
 10
305.196
 20
105.465
 30
0.000000
  70
    32
  0
VERTEX
  8
0
  5
34A88
 10
305.216
 20
105.615
 30
0.000000
  70
    32
  0
VERTEX
  8
0
  5
34A89
 10
305.235
 20
105.765
 30
0.000000
  70
    32
  0
VERTEX
  8
0
  5
34A8A
 10
305.252
 20
105.916
 30
0.000000
  70
    32
  0
VERTEX
  8
0
  5
34A8B
 10
305.268
 20
106.066
 30
0.000000
  70
    32
  0
VERTEX
  8
0
  5
34A8C
 10
305.283
 20
106.217
 30
0.000000
  70
    32
  0
VERTEX
  8
0
  5
34A8D
 10
305.297
 20
106.368
 30
0.000000
  70
    32
  0
VERTEX
  8
0
  5
34A8E
 10
305.310
 20
106.520
 30
0.000000
  70
    32
  0
VERTEX
  8
0
  5
34A8F
 10
305.321
 20
106.671
 30
0.000000
  70
    32
  0
VERTEX
  8
0
  5
34A90
 10
305.331
 20
106.822
 30
0.000000
  70
    32
  0
VERTEX
  8
0
  5
34A91
 10
305.339
 20
106.974
 30
0.000000
  70
    32
  0
VERTEX
  8
0
  5
34A92
 10
305.347
 20
107.126
 30
0.000000
  70
    32
  0
VERTEX
  8
0
  5
34A93
 10
305.353
 20
107.277
 30
0.000000
  70
    32
  0
VERTEX
  8
0
  5
34A94
 10
305.357
 20
107.429
 30
0.000000
  70
    32
  0
VERTEX
  8
0
  5
34A95
 10
305.361
 20
107.581
 30
0.000000
  70
    32
  0
VERTEX
  8
0
  5
34A96
 10
305.363
 20
107.733
 30
0.000000
  70
    32
  0
VERTEX
  8
0
  5
34A97
 10
305.364
 20
107.885
 30
0.000000
  70
    32
  0
VERTEX
  8
0
  5
34A98
 10
305.363
 20
108.036
 30
0.000000
  70
    32
  0
VERTEX
  8
0
  5
34A99
 10
305.361
 20
108.188
 30
0.000000
  70
    32
  0
VERTEX
  8
0
  5
34A9A
 10
305.358
 20
108.340
 30
0.000000
  70
    32
  0
VERTEX
  8
0
  5
34A9B
 10
305.354
 20
108.492
 30
0.000000
  70
    32
  0
VERTEX
  8
0
  5
34A9C
 10
305.348
 20
108.644
 30
0.000000
  70
    32
  0
VERTEX
  8
0
  5
34A9D
 10
305.341
 20
108.795
 30
0.000000
  70
    32
  0
VERTEX
  8
0
  5
34A9E
 10
305.333
 20
108.947
 30
0.000000
  70
    32
  0
VERTEX
  8
0
  5
34A9F
 10
305.324
 20
109.098
 30
0.000000
  70
    32
  0
VERTEX
  8
0
  5
34AA0
 10
305.313
 20
109.250
 30
0.000000
  70
    32
  0
VERTEX
  8
0
  5
34AA1
 10
305.301
 20
109.401
 30
0.000000
  70
    32
  0
VERTEX
  8
0
  5
34AA2
 10
305.287
 20
109.552
 30
0.000000
  70
    32
  0
VERTEX
  8
0
  5
34AA3
 10
305.273
 20
109.703
 30
0.000000
  70
    32
  0
VERTEX
  8
0
  5
34AA4
 10
305.257
 20
109.854
 30
0.000000
  70
    32
  0
VERTEX
  8
0
  5
34AA5
 10
305.239
 20
110.004
 30
0.000000
  70
    32
  0
VERTEX
  8
0
  5
34AA6
 10
305.221
 20
110.155
 30
0.000000
  70
    32
  0
VERTEX
  8
0
  5
34AA7
 10
305.201
 20
110.305
 30
0.000000
  70
    32
  0
VERTEX
  8
0
  5
34AA8
 10
305.180
 20
110.455
 30
0.000000
  70
    32
  0
VERTEX
  8
0
  5
34AA9
 10
305.158
 20
110.605
 30
0.000000
  70
    32
  0
VERTEX
  8
0
  5
34AAA
 10
305.134
 20
110.754
 30
0.000000
  70
    32
  0
VERTEX
  8
0
  5
34AAB
 10
305.109
 20
110.903
 30
0.000000
  70
    32
  0
VERTEX
  8
0
  5
34AAC
 10
305.083
 20
111.052
 30
0.000000
  70
    32
  0
VERTEX
  8
0
  5
34AAD
 10
305.055
 20
111.201
 30
0.000000
  70
    32
  0
VERTEX
  8
0
  5
34AAE
 10
305.027
 20
111.349
 30
0.000000
  70
    32
  0
VERTEX
  8
0
  5
34AAF
 10
304.997
 20
111.497
 30
0.000000
  70
    32
  0
VERTEX
  8
0
  5
34AB0
 10
304.965
 20
111.645
 30
0.000000
  70
    32
  0
VERTEX
  8
0
  5
34AB1
 10
304.933
 20
111.793
 30
0.000000
  70
    32
  0
VERTEX
  8
0
  5
34AB2
 10
304.899
 20
111.940
 30
0.000000
  70
    32
  0
VERTEX
  8
0
  5
34AB3
 10
304.864
 20
112.086
 30
0.000000
  70
    32
  0
VERTEX
  8
0
  5
34AB4
 10
304.828
 20
112.232
 30
0.000000
  70
    32
  0
VERTEX
  8
0
  5
34AB5
 10
304.790
 20
112.378
 30
0.000000
  70
    32
  0
VERTEX
  8
0
  5
34AB6
 10
304.752
 20
112.524
 30
0.000000
  70
    32
  0
VERTEX
  8
0
  5
34AB7
 10
304.712
 20
112.669
 30
0.000000
  70
    32
  0
VERTEX
  8
0
  5
34AB8
 10
304.671
 20
112.813
 30
0.000000
  70
    32
  0
VERTEX
  8
0
  5
34AB9
 10
304.628
 20
112.957
 30
0.000000
  70
    32
  0
VERTEX
  8
0
  5
34ABA
 10
304.584
 20
113.101
 30
0.000000
  70
    32
  0
VERTEX
  8
0
  5
34ABB
 10
304.540
 20
113.244
 30
0.000000
  70
    32
  0
VERTEX
  8
0
  5
34ABC
 10
304.493
 20
113.387
 30
0.000000
  70
    32
  0
VERTEX
  8
0
  5
34ABD
 10
304.446
 20
113.529
 30
0.000000
  70
    32
  0
VERTEX
  8
0
  5
34ABE
 10
304.398
 20
113.671
 30
0.000000
  70
    32
  0
VERTEX
  8
0
  5
34ABF
 10
304.348
 20
113.812
 30
0.000000
  70
    32
  0
VERTEX
  8
0
  5
34AC0
 10
304.297
 20
113.952
 30
0.000000
  70
    32
  0
VERTEX
  8
0
  5
34AC1
 10
304.245
 20
114.092
 30
0.000000
  70
    32
  0
VERTEX
  8
0
  5
34AC2
 10
304.192
 20
114.232
 30
0.000000
  70
    32
  0
VERTEX
  8
0
  5
34AC3
 10
304.137
 20
114.371
 30
0.000000
  70
    32
  0
VERTEX
  8
0
  5
34AC4
 10
304.081
 20
114.509
 30
0.000000
  70
    32
  0
VERTEX
  8
0
  5
34AC5
 10
304.025
 20
114.647
 30
0.000000
  70
    32
  0
VERTEX
  8
0
  5
34AC6
 10
303.967
 20
114.784
 30
0.000000
  70
    32
  0
VERTEX
  8
0
  5
34AC7
 10
303.907
 20
114.920
 30
0.000000
  70
    32
  0
VERTEX
  8
0
  5
34AC8
 10
303.847
 20
115.056
 30
0.000000
  70
    32
  0
VERTEX
  8
0
  5
34AC9
 10
303.786
 20
115.191
 30
0.000000
  70
    32
  0
VERTEX
  8
0
  5
34ACA
 10
303.723
 20
115.325
 30
0.000000
  70
    32
  0
VERTEX
  8
0
  5
34ACB
 10
303.659
 20
115.459
 30
0.000000
  70
    32
  0
VERTEX
  8
0
  5
34ACC
 10
303.594
 20
115.592
 30
0.000000
  70
    32
  0
VERTEX
  8
0
  5
34ACD
 10
303.528
 20
115.724
 30
0.000000
  70
    32
  0
VERTEX
  8
0
  5
34ACE
 10
303.461
 20
115.856
 30
0.000000
  70
    32
  0
VERTEX
  8
0
  5
34ACF
 10
303.393
 20
115.987
 30
0.000000
  70
    32
  0
VERTEX
  8
0
  5
34AD0
 10
303.323
 20
116.117
 30
0.000000
  70
    32
  0
VERTEX
  8
0
  5
34AD1
 10
303.253
 20
116.246
 30
0.000000
  70
    32
  0
VERTEX
  8
0
  5
34AD2
 10
303.181
 20
116.375
 30
0.000000
  70
    32
  0
VERTEX
  8
0
  5
34AD3
 10
303.108
 20
116.503
 30
0.000000
  70
    32
  0
VERTEX
  8
0
  5
34AD4
 10
303.035
 20
116.630
 30
0.000000
  70
    32
  0
VERTEX
  8
0
  5
34AD5
 10
302.960
 20
116.756
 30
0.000000
  70
    32
  0
VERTEX
  8
0
  5
34AD6
 10
302.884
 20
116.881
 30
0.000000
  70
    32
  0
VERTEX
  8
0
  5
34AD7
 10
302.807
 20
117.006
 30
0.000000
  70
    32
  0
VERTEX
  8
0
  5
34AD8
 10
302.729
 20
117.129
 30
0.000000
  70
    32
  0
SEQEND
  8
0
  5
34AD9
  0
LINE
  5
33F1E
  8
0
 10
302.86356916321017
 20
82.813099167273691
 30
0.0
 11
302.86356916321
 21
116.91406631068701
 31
0.0
  0
LINE
  5
33F1F
  8
0
 10
302.72874801766818
 20
117.12932735826929
 30
0.0
 11
304.53236904755107
 21
117.12932735826929
 31
0.0
  0
LINE
  5
33F20
  8
0
 10
278.19476927886888
 20
117.12932735826929
 30
0.0
 11
279.99839030875188
 21
117.12932735826929
 31
0.0
  0
LINE
  5
33F21
  8
0
 10
304.36356916321017
 20
83.813099167273407
 30
0.0
 11
304.36356916321012
 21
98.379836450962145
 31
0.0
  0
LINE
  5
33F22
  8
0
 10
302.86356916321017
 20
86.170379699879362
 30
0.0
 11
304.36356916321017
 21
86.170379699879362
 31
0.0
  0
LINE
  5
33F25
  8
0
 10
278.36356916321017
 20
86.170379699879362
 30
0.0
 11
279.86356916321017
 21
86.170379699879362
 31
0.0
  0
LINE
  5
33F26
  8
0
 10
278.36356916321012
 20
98.379836450962145
 30
0.0
 11
278.36356916321017
 21
83.813099167273407
 31
0.0
  0
POLYLINE
  5
33F34
  8
0
 66
     1
 10
0.0
 20
0.0
 30
0.0
 70
   128
  0
VERTEX
  5
346C2
  8
0
 10
274.06322907220488
 20
93.594002962908036
 30
0.0
  0
VERTEX
  5
346C3
  8
0
 10
273.91673470258831
 20
94.286102988745014
 30
0.0
  0
VERTEX
  5
346C4
  8
0
 10
273.8635691627635
 20
94.984454860725265
 30
0.0
  0
SEQEND
  5
346C5
  8
0
  0
LINE
  5
33F36
  8
0
 10
273.8635691627635
 20
90.813099167273677
 30
0.0
 11
273.86356916321017
 21
95.629765833940354
 31
0.0
  0
POLYLINE
  5
33F38
  8
0
 66
     1
 10
0.0
 20
0.0
 30
0.0
 70
   128
  0
VERTEX
  5
346C6
  8
0
 10
273.8635691627635
 20
86.641743473822004
 30
0.0
  0
VERTEX
  5
346C7
  8
0
 10
273.91626912822147
 20
87.336969422730604
 30
0.0
  0
VERTEX
  5
346C8
  8
0
 10
274.06322907220488
 20
88.032195371639233
 30
0.0
  0
SEQEND
  5
346C9
  8
0
  0
LINE
  5
33F39
  8
0
 10
273.86356916321017
 20
85.996432500606971
 30
0.0
 11
273.8635691627635
 21
90.813099167273677
 31
0.0
  0
ARC
  5
33F42
  8
0
 10
279.02114599306088
 20
94.953421034131694
 30
0.0
 40
5.1576701967859879
 50
164.0018588684334
 51
179.65524782555789
  0
LINE
  5
33F43
  8
0
 10
274.06322907220499
 20
96.374906758542551
 30
0.0
 11
277.86356916321017
 21
96.374906758542551
 31
0.0
  0
LINE
  5
33F45
  8
0
 10
274.06322907220488
 20
93.594002962908036
 30
0.0
 11
277.86356916321017
 21
93.594002962908036
 31
0.0
  0
LINE
  5
33F46
  8
0
 10
274.06322907220488
 20
88.032195371639233
 30
0.0
 11
277.86356916321017
 21
88.032195371639233
 31
0.0
  0
POLYLINE
  5
33F48
  8
0
 66
     1
 10
0.0
 20
0.0
 30
0.0
 70
   128
  0
VERTEX
  5
346CA
  8
0
 10
274.06322907220499
 20
85.251291576004775
 30
0.0
  0
VERTEX
  5
346CB
  8
0
 10
273.96184049214293
 20
85.684198720108526
 30
0.0
  0
VERTEX
  5
346CC
  8
0
 10
273.8635691627635
 20
86.641743473822004
 30
0.0
  0
SEQEND
  5
346CD
  8
0
  0
LINE
  5
33F49
  8
0
 10
274.06322907220499
 20
85.251291576004775
 30
0.0
 11
277.86356916321017
 21
85.251291576004775
 31
0.0
  0
LINE
  5
33F4A
  8
0
 10
277.86356916321017
 20
96.374906758542551
 30
0.0
 11
277.86356916321017
 21
85.251291576004775
 31
0.0
  0
LINE
  5
33F53
  8
0
 10
280.36356916321017
 20
100.47976583394021
 30
0.0
 11
280.36356916321017
 21
117.5967273772964
 31
0.0
  0
LINE
  5
33F54
  8
0
 10
280.36356916321017
 20
102.0256829939343
 30
0.0
 11
280.82734431120832
 21
102.0256829939343
 31
0.0
  0
LINE
  5
33F55
  8
0
 10
301.89979401521191
 20
102.0256829939343
 30
0.0
 11
302.36356916321017
 21
102.0256829939343
 31
0.0
  0
LINE
  5
33F56
  8
0
 10
302.36356916321017
 20
100.47976583394031
 30
0.0
 11
302.36356916321017
 21
117.58876338411891
 31
0.0
  0
LINE
  5
33F57
  8
0
 10
302.36356916321017
 20
105.1936805570606
 30
0.0
 11
302.86356916321017
 21
105.1936805570606
 31
0.0
  0
LINE
  5
33F58
  8
0
 10
279.86356916321017
 20
105.1936805570606
 30
0.0
 11
280.36356916321017
 21
105.1936805570606
 31
0.0
  0
LINE
  5
33F5B
  8
0
 10
301.36356916321017
 20
112.3769578201216
 30
0.0
 11
301.36356916321017
 21
69.249240514425679
 31
0.0
  0
LINE
  5
33F5C
  8
0
 10
281.36356916321017
 20
112.3769578201216
 30
0.0
 11
281.36356916321017
 21
69.249240514425679
 31
0.0
  0
LINE
  5
33F5F
  8
0
 10
275.53204579432708
 20
130.61654309763631
 30
0.0
 11
307.19509253209287
 21
130.61654309763631
 31
0.0
  0
LINE
  5
33F60
  8
0
 10
282.66791698929723
 20
114.25207596384961
 30
0.0
 11
282.66791698929723
 21
67.374122370697734
 31
0.0
  0
LINE
  5
33F61
  8
0
 10
300.05922133712318
 20
114.25207596384961
 30
0.0
 11
300.05922133712318
 21
67.374122370697734
 31
0.0
  0
LINE
  5
33F63
  8
0
 10
149.64901346987179
 20
227.70496389038499
 30
0.0
 11
149.64901346987179
 21
226.20496389038499
 31
0.0
  0
LINE
  5
33F64
  8
0
 10
149.64901346987179
 20
203.20496389038499
 30
0.0
 11
149.64901346987179
 21
201.70496389038499
 31
0.0
  0
LINE
  5
33F65
  8
0
 10
159.14901346987199
 20
227.70496389038499
 30
0.0
 11
159.14901346987199
 21
228.70496389038499
 31
0.0
  0
LINE
  5
33F66
  8
0
 10
152.14901346987199
 20
228.70496389038499
 30
0.0
 11
152.14901346987199
 21
227.70496389038499
 31
0.0
  0
ARC
  5
33F67
  8
0
 10
157.36404817636779
 20
209.04004487220851
 30
0.0
 40
8.9999999999924061
 50
234.58825159853009
 51
259.01456737417101
  0
ARC
  5
33F68
  8
0
 10
153.93397876337619
 20
209.04004487220851
 30
0.0
 40
8.9999999999924061
 50
280.98543262582911
 51
305.41174840146988
  0
CIRCLE
  5
33F74
  8
0
 10
204.14901346987199
 20
214.7049638903849
 30
0.0
 40
17.500000000000011
  0
LINE
  5
33F75
  8
0
 10
169.64901346987199
 20
201.70496389038499
 30
0.0
 11
169.6490134698719
 21
227.7049638903849
 31
0.0
  0
LINE
  5
33F76
  8
0
 10
149.64901346987179
 20
227.70496389038499
 30
0.0
 11
192.433638956012
 21
227.70496389038499
 31
0.0
  0
LINE
  5
33F79
  8
0
 10
167.18901346987209
 20
203.20496389038499
 30
0.0
 11
167.18901346987209
 21
226.2049638903849
 31
0.0
  0
LINE
  5
33F7C
  8
0
 10
125.649013469872
 20
203.20496389038499
 30
0.0
 11
125.649013469872
 21
226.20496389038499
 31
0.0
  0
LINE
  5
33F7E
  8
0
 10
127.649013469872
 20
203.20496389038499
 30
0.0
 11
127.649013469872
 21
226.2049638903849
 31
0.0
  0
LINE
  5
33F7F
  8
0
 10
169.64901346987199
 20
203.2049638903851
 30
0.0
 11
125.649013469872
 21
203.20496389038499
 31
0.0
  0
LINE
  5
33F80
  8
0
 10
169.64901346987199
 20
226.2049638903849
 30
0.0
 11
125.649013469872
 21
226.2049638903849
 31
0.0
  0
LINE
  5
33F81
  8
0
 10
192.433638956012
 20
201.70496389038499
 30
0.0
 11
149.64901346987179
 21
201.70496389038499
 31
0.0
  0
LINE
  5
33F83
  8
0
 10
152.39349507797201
 20
226.20496389038499
 30
0.0
 11
152.39349507797201
 21
227.70496389038499
 31
0.0
  0
LINE
  5
33F86
  8
0
 10
152.39349507797201
 20
201.70496389038499
 30
0.0
 11
152.39349507797201
 21
203.20496389038499
 31
0.0
  0
LINE
  5
33F89
  8
0
 10
159.14901346987199
 20
228.70496389038499
 30
0.0
 11
152.14901346987199
 21
228.70496389038499
 31
0.0
  0
LINE
  5
33FAC
  8
0
 10
169.64901346987199
 20
203.70496389038499
 30
0.0
 11
190.53835588105571
 21
203.70496389038499
 31
0.0
  0
LINE
  5
33FAD
  8
0
 10
190.53835588105591
 20
225.7049638903849
 30
0.0
 11
169.64901346987199
 21
225.7049638903849
 31
0.0
  0
LINE
  5
33FF7
  8
1
 10
150.45511378624681
 20
116.81309916727371
 30
0.0
 11
160.84291315349631
 21
116.81309916727371
 31
0.0
  0
LINE
  5
33FF8
  8
1
 10
155.64901346987151
 20
111.6191994836489
 30
0.0
 11
155.64901346987151
 21
122.0069988508984
 31
0.0
  0
LINE
  5
33FF9
  8
1
 10
204.14901346987199
 20
151.29927127067739
 30
0.0
 11
204.14901346987199
 21
118.03597204739469
 31
0.0
  0
LINE
  5
33FFA
  8
1
 10
148.1136128569018
 20
90.813099167273677
 30
0.0
 11
212.18441408284201
 21
90.813099167273677
 31
0.0
  0
LINE
  5
33FFB
  8
1
 10
180.1490134698719
 20
58.777698554303612
 30
0.0
 11
180.1490134698719
 21
119.772130175436
 31
0.0
  0
LINE
  5
33FFC
  8
1
 10
180.1490134698719
 20
193.8799638903848
 30
0.0
 11
180.1490134698719
 21
235.52996389038489
 31
0.0
  0
LINE
  5
33FFD
  8
1
 10
120.35697235092719
 20
214.7049638903849
 30
0.0
 11
228.17025235215581
 21
214.70496389038479
 31
0.0
  0
LINE
  5
33FFE
  8
1
 10
204.14901346987179
 20
190.68372500810099
 30
0.0
 11
204.14901346987219
 21
238.72620277266881
 31
0.0
  0
LINE
  5
33FFF
  8
1
 10
268.24863615957878
 20
90.813099167273677
 30
0.0
 11
314.47850216684901
 21
90.813099167273677
 31
0.0
  0
LINE
  5
34000
  8
1
 10
291.36356916321392
 20
58.777698554303612
 30
0.0
 11
291.36356916321392
 21
151.29927127067739
 31
0.0
  0
LINE
  5
34001
  8
1
 10
91.04939078016514
 20
90.813099167273677
 30
0.0
 11
44.819524772894958
 21
90.813099167273677
 31
0.0
  0
LINE
  5
34002
  8
1
 10
67.934457776530053
 20
58.777698554303612
 30
0.0
 11
67.934457776530053
 21
151.29927127067739
 31
0.0
  0
LINE
  5
34043
  8
0
 10
175.7090134698683
 20
201.70496389038499
 30
0.0
 11
175.7090134698683
 21
201.20496389038499
 31
0.0
  0
LINE
  5
34044
  8
0
 10
184.58901346986789
 20
201.20496389038499
 30
0.0
 11
184.58901346986789
 21
201.70496389038499
 31
0.0
  0
LINE
  5
34045
  8
0
 10
177.76251346986831
 20
233.7049638903851
 30
0.0
 11
177.14901346986841
 21
233.09146389038489
 31
0.0
  0
LINE
  5
34046
  8
0
 10
183.14901346986841
 20
233.09146389038489
 30
0.0
 11
182.53551346986799
 21
233.7049638903851
 31
0.0
  0
LINE
  5
34047
  8
0
 10
177.14901346986841
 20
233.09146389038489
 30
0.0
 11
177.14901346986841
 21
232.7049638903851
 31
0.0
  0
LINE
  5
34048
  8
0
 10
183.14901346986841
 20
232.7049638903851
 30
0.0
 11
183.14901346986841
 21
233.09146389038489
 31
0.0
  0
LINE
  5
34049
  8
0
 10
182.53551346986799
 20
233.7049638903851
 30
0.0
 11
177.76251346986831
 21
233.7049638903851
 31
0.0
  0
LINE
  5
3404A
  8
0
 10
183.14901346986841
 20
233.09146389038489
 30
0.0
 11
177.14901346986841
 21
233.09146389038489
 31
0.0
  0
LINE
  5
3404B
  8
0
 10
184.96568013653501
 20
197.20496389038499
 30
0.0
 11
175.33234680320129
 21
197.20496389038499
 31
0.0
  0
POLYLINE
  5
3404C
  8
0
 66
     1
 10
0.0
 20
0.0
 30
0.0
  0
VERTEX
  5
346CE
  8
0
 10
180.14901346986829
 20
197.40462379937949
 30
0.0
  0
VERTEX
  5
346CF
  8
0
 10
179.71633815658021
 20
197.3424024816668
 30
0.0
  0
VERTEX
  5
346D0
  8
0
 10
178.90375952001071
 20
197.25419372591921
 30
0.0
  0
VERTEX
  5
346D1
  8
0
 10
178.1273765719848
 20
197.21049770825479
 30
0.0
  0
VERTEX
  5
346D2
  8
0
 10
177.74068013736809
 20
197.20496389038499
 30
0.0
  0
SEQEND
  5
346D3
  8
0
  0
POLYLINE
  5
3404D
  8
0
 66
     1
 10
0.0
 20
0.0
 30
0.0
  0
VERTEX
  5
346D4
  8
0
 10
177.74068013736809
 20
197.20496389038499
 30
0.0
  0
VERTEX
  5
346D5
  8
0
 10
177.35398370275149
 20
197.21049770825479
 30
0.0
  0
VERTEX
  5
346D6
  8
0
 10
176.57760075472561
 20
197.25419372591921
 30
0.0
  0
VERTEX
  5
346D7
  8
0
 10
175.76502211815611
 20
197.34240248166691
 30
0.0
  0
VERTEX
  5
346D8
  8
0
 10
175.33234680486791
 20
197.40462379937949
 30
0.0
  0
SEQEND
  5
346D9
  8
0
  0
LINE
  5
3404E
  8
0
 10
175.33234680486791
 20
201.20496389038499
 30
0.0
 11
184.96568013486831
 21
201.20496389038499
 31
0.0
  0
POLYLINE
  5
3404F
  8
0
 66
     1
 10
0.0
 20
0.0
 30
0.0
  0
VERTEX
  5
346DA
  8
0
 10
184.96568013486831
 20
197.40462379937949
 30
0.0
  0
VERTEX
  5
346DB
  8
0
 10
184.53300482158011
 20
197.3424024816668
 30
0.0
  0
VERTEX
  5
346DC
  8
0
 10
183.72042618501061
 20
197.25419372591909
 30
0.0
  0
VERTEX
  5
346DD
  8
0
 10
182.9440432369847
 20
197.21049770825479
 30
0.0
  0
VERTEX
  5
346DE
  8
0
 10
182.5573468023681
 20
197.20496389038499
 30
0.0
  0
SEQEND
  5
346DF
  8
0
  0
POLYLINE
  5
34050
  8
0
 66
     1
 10
0.0
 20
0.0
 30
0.0
  0
VERTEX
  5
346E0
  8
0
 10
182.5573468023681
 20
197.20496389038499
 30
0.0
  0
VERTEX
  5
346E1
  8
0
 10
182.17065036775151
 20
197.21049770825491
 30
0.0
  0
VERTEX
  5
346E2
  8
0
 10
181.39426741972559
 20
197.25419372591921
 30
0.0
  0
VERTEX
  5
346E3
  8
0
 10
180.5816887831561
 20
197.3424024816668
 30
0.0
  0
VERTEX
  5
346E4
  8
0
 10
180.14901346986829
 20
197.40462379937949
 30
0.0
  0
SEQEND
  5
346E5
  8
0
  0
LINE
  5
34051
  8
0
 10
180.14901346986829
 20
201.20496389038499
 30
0.0
 11
180.14901346986829
 21
197.40462379937949
 31
0.0
  0
LINE
  5
34052
  8
0
 10
175.33234680486791
 20
201.20496389038499
 30
0.0
 11
175.33234680486791
 21
197.20496389038499
 31
0.0
  0
LINE
  5
34053
  8
0
 10
184.96568013486831
 20
197.20496389038499
 30
0.0
 11
184.96568013486831
 21
201.20496389038499
 31
0.0
  0
LINE
  5
34054
  8
0
 10
184.96568013986831
 20
232.7049638903851
 30
0.0
 11
175.33234679986799
 21
232.7049638903851
 31
0.0
  0
LINE
  5
34055
  8
0
 10
184.96568013486831
 20
227.70496389038499
 30
0.0
 11
184.96568013486831
 21
232.7049638903851
 31
0.0
  0
POLYLINE
  5
34056
  8
0
 66
     1
 10
0.0
 20
0.0
 30
0.0
  0
VERTEX
  5
346E6
  8
0
 10
184.96568013486831
 20
227.9046237984864
 30
0.0
  0
VERTEX
  5
346E7
  8
0
 10
184.53300482143959
 20
227.84240248067599
 30
0.0
  0
VERTEX
  5
346E8
  8
0
 10
183.7204261894299
 20
227.754193725487
 30
0.0
  0
VERTEX
  5
346E9
  8
0
 10
182.94404324199201
 20
227.710497708226
 30
0.0
  0
VERTEX
  5
346EA
  8
0
 10
182.5573468023681
 20
227.70496389038499
 30
0.0
  0
SEQEND
  5
346EB
  8
0
  0
POLYLINE
  5
34057
  8
0
 66
     1
 10
0.0
 20
0.0
 30
0.0
  0
VERTEX
  5
346EC
  8
0
 10
182.5573468023681
 20
227.70496389038499
 30
0.0
  0
VERTEX
  5
346ED
  8
0
 10
182.17065036274431
 20
227.710497708226
 30
0.0
  0
VERTEX
  5
346EE
  8
0
 10
181.3942674153063
 20
227.754193725487
 30
0.0
  0
VERTEX
  5
346EF
  8
0
 10
180.58168878329661
 20
227.84240248067599
 30
0.0
  0
VERTEX
  5
346F0
  8
0
 10
180.14901346986829
 20
227.9046237984864
 30
0.0
  0
SEQEND
  5
346F1
  8
0
  0
POLYLINE
  5
34058
  8
0
 66
     1
 10
0.0
 20
0.0
 30
0.0
  0
VERTEX
  5
346F2
  8
0
 10
180.14901346986829
 20
232.50530398228361
 30
0.0
  0
VERTEX
  5
346F3
  8
0
 10
180.58168878329661
 20
232.56752530009391
 30
0.0
  0
VERTEX
  5
346F4
  8
0
 10
181.3942674153063
 20
232.65573405528301
 30
0.0
  0
VERTEX
  5
346F5
  8
0
 10
182.17065036274431
 20
232.699430072544
 30
0.0
  0
VERTEX
  5
346F6
  8
0
 10
182.5573468023681
 20
232.7049638903851
 30
0.0
  0
SEQEND
  5
346F7
  8
0
  0
POLYLINE
  5
34059
  8
0
 66
     1
 10
0.0
 20
0.0
 30
0.0
  0
VERTEX
  5
346F8
  8
0
 10
182.5573468023681
 20
232.7049638903851
 30
0.0
  0
VERTEX
  5
346F9
  8
0
 10
182.94404324199201
 20
232.699430072544
 30
0.0
  0
VERTEX
  5
346FA
  8
0
 10
183.7204261894299
 20
232.65573405528301
 30
0.0
  0
VERTEX
  5
346FB
  8
0
 10
184.53300482143959
 20
232.56752530009391
 30
0.0
  0
VERTEX
  5
346FC
  8
0
 10
184.96568013486831
 20
232.50530398228361
 30
0.0
  0
SEQEND
  5
346FD
  8
0
  0
LINE
  5
3405A
  8
0
 10
175.33234680486791
 20
232.7049638903851
 30
0.0
 11
175.33234680486791
 21
227.70496389038499
 31
0.0
  0
POLYLINE
  5
3405B
  8
0
 66
     1
 10
0.0
 20
0.0
 30
0.0
  0
VERTEX
  5
346FE
  8
0
 10
177.74068013736809
 20
232.7049638903851
 30
0.0
  0
VERTEX
  5
346FF
  8
0
 10
178.12737657699199
 20
232.699430072544
 30
0.0
  0
VERTEX
  5
34700
  8
0
 10
178.90375952442989
 20
232.65573405528301
 30
0.0
  0
VERTEX
  5
34701
  8
0
 10
179.7163381564396
 20
232.56752530009391
 30
0.0
  0
VERTEX
  5
34702
  8
0
 10
180.14901346986829
 20
232.50530398228361
 30
0.0
  0
SEQEND
  5
34703
  8
0
  0
LINE
  5
3405C
  8
0
 10
180.14901346986829
 20
227.9046237984864
 30
0.0
 11
180.14901346986829
 21
232.50530398228361
 31
0.0
  0
POLYLINE
  5
3405D
  8
0
 66
     1
 10
0.0
 20
0.0
 30
0.0
  0
VERTEX
  5
34704
  8
0
 10
180.14901346986829
 20
227.9046237984864
 30
0.0
  0
VERTEX
  5
34705
  8
0
 10
179.7163381564396
 20
227.84240248067599
 30
0.0
  0
VERTEX
  5
34706
  8
0
 10
178.90375952442989
 20
227.754193725487
 30
0.0
  0
VERTEX
  5
34707
  8
0
 10
178.12737657699199
 20
227.710497708226
 30
0.0
  0
VERTEX
  5
34708
  8
0
 10
177.74068013736809
 20
227.70496389038499
 30
0.0
  0
SEQEND
  5
34709
  8
0
  0
POLYLINE
  5
3405E
  8
0
 66
     1
 10
0.0
 20
0.0
 30
0.0
  0
VERTEX
  5
3470A
  8
0
 10
177.74068013736809
 20
227.70496389038499
 30
0.0
  0
VERTEX
  5
3470B
  8
0
 10
177.3539836977443
 20
227.710497708226
 30
0.0
  0
VERTEX
  5
3470C
  8
0
 10
176.5776007503064
 20
227.754193725487
 30
0.0
  0
VERTEX
  5
3470D
  8
0
 10
175.76502211829671
 20
227.84240248067599
 30
0.0
  0
VERTEX
  5
3470E
  8
0
 10
175.33234680486791
 20
227.9046237984864
 30
0.0
  0
SEQEND
  5
3470F
  8
0
  0
POLYLINE
  5
3405F
  8
0
 66
     1
 10
0.0
 20
0.0
 30
0.0
  0
VERTEX
  5
34710
  8
0
 10
175.33234680486791
 20
232.50530398228361
 30
0.0
  0
VERTEX
  5
34711
  8
0
 10
175.76502211829671
 20
232.56752530009391
 30
0.0
  0
VERTEX
  5
34712
  8
0
 10
176.5776007503064
 20
232.65573405528301
 30
0.0
  0
VERTEX
  5
34713
  8
0
 10
177.3539836977443
 20
232.699430072544
 30
0.0
  0
VERTEX
  5
34714
  8
0
 10
177.74068013736809
 20
232.7049638903851
 30
0.0
  0
SEQEND
  5
34715
  8
0
  0
LINE
  5
34060
  8
3
 10
182.53551346986799
 20
233.7049638903851
 30
0.0
 11
182.53551346986799
 21
232.7049638903851
 31
0.0
  0
LINE
  5
34061
  8
3
 10
177.76251346986879
 20
233.7049638903851
 30
0.0
 11
177.76251346986879
 21
232.7049638903851
 31
0.0
  0
CIRCLE
  5
34062
  8
0
 10
204.1490134698727
 20
214.7049638903849
 30
0.0
 40
13.96454385985834
  0
CIRCLE
  5
34063
  8
0
 10
204.1490134698727
 20
214.7049638903849
 30
0.0
 40
15.96454385985834
  0
CIRCLE
  5
34064
  8
0
 10
204.14901346987179
 20
214.7049638903849
 30
0.0
 40
2.8000000000010909
  0
CIRCLE
  5
34065
  8
3
 10
204.14901346987179
 20
214.70496389038479
 30
0.0
 40
3.3235000000013311
  0
CIRCLE
  5
34066
  8
0
 10
204.14901346987179
 20
214.7049638903849
 30
0.0
 40
4.0000000000009086
  0
LINE
  5
340A6
  8
0
 10
180.14901346986801
 20
96.374906758542551
 30
0.0
 11
175.3323468048676
 21
93.594002962908093
 31
0.0
  0
LINE
  5
340A7
  8
0
 10
184.96568013486799
 20
93.594002962908093
 30
0.0
 11
180.14901346986801
 21
96.374906758542551
 31
0.0
  0
LINE
  5
340A8
  8
0
 10
175.3323468048676
 20
93.594002962908093
 30
0.0
 11
175.3323468048676
 21
88.032195371639233
 31
0.0
  0
LINE
  5
340A9
  8
0
 10
175.3323468048676
 20
88.032195371639233
 30
0.0
 11
180.14901346986801
 21
85.251291576004775
 31
0.0
  0
LINE
  5
340AA
  8
0
 10
180.14901346986801
 20
85.251291576004775
 30
0.0
 11
184.96568013486799
 21
88.032195371639233
 31
0.0
  0
LINE
  5
340AB
  8
0
 10
184.96568013486799
 20
88.032195371639233
 30
0.0
 11
184.96568013486799
 21
93.594002962908093
 31
0.0
  0
CIRCLE
  5
340AC
  8
0
 10
180.14901346986801
 20
90.813099167273677
 30
0.0
 40
4.8166666666666629
  0
LINE
  5
340AD
  8
0
 10
201.34901346987189
 20
146.81309916727369
 30
0.0
 11
206.9490134698722
 21
146.81309916727369
 31
0.0
  0
LINE
  5
340AE
  8
0
 10
208.1490134698721
 20
131.81309916727369
 30
0.0
 11
208.1490134698721
 21
145.61309916727359
 31
0.0
  0
LINE
  5
340AF
  8
3
 10
207.47251346987241
 20
131.81309916727369
 30
0.0
 11
207.47251346987241
 21
146.28959916727351
 31
0.0
  0
LINE
  5
340B0
  8
3
 10
200.82551346987159
 20
131.81309916727369
 30
0.0
 11
200.82551346987159
 21
146.28959916727351
 31
0.0
  0
LINE
  5
340B1
  8
0
 10
200.1490134698721
 20
131.81309916727369
 30
0.0
 11
200.1490134698721
 21
145.6130991672737
 31
0.0
  0
LINE
  5
340B2
  8
0
 10
200.1490134698721
 20
145.6130991672737
 30
0.0
 11
201.34901346987189
 21
146.81309916727369
 31
0.0
  0
LINE
  5
340B3
  8
0
 10
206.9490134698722
 20
146.81309916727369
 30
0.0
 11
208.1490134698721
 21
145.61309916727359
 31
0.0
  0
LINE
  5
340B4
  8
0
 10
200.1490134698721
 20
145.6130991672737
 30
0.0
 11
208.1490134698721
 21
145.61309916727359
 31
0.0
  0
LINE
  5
340F4
  8
0
 10
310.36356916321392
 20
93.199599167273703
 30
0.0
 11
309.75006916321399
 21
93.813099167273734
 31
0.0
  0
LINE
  5
340F5
  8
0
 10
309.75006916321399
 20
87.813099167273748
 30
0.0
 11
310.36356916321392
 21
88.426599167273736
 31
0.0
  0
LINE
  5
340F6
  8
0
 10
309.75006916321399
 20
93.813099167273734
 30
0.0
 11
309.36356916321392
 21
93.813099167273734
 31
0.0
  0
LINE
  5
340F7
  8
0
 10
309.36356916321392
 20
87.813099167273748
 30
0.0
 11
309.75006916321399
 21
87.813099167273748
 31
0.0
  0
LINE
  5
340FB
  8
0
 10
304.36356916321392
 20
85.99643249727373
 30
0.0
 11
304.56322907131562
 21
85.251291576004832
 31
0.0
  0
LINE
  5
340FC
  8
0
 10
309.36356916321392
 20
95.629765837273709
 30
0.0
 11
309.16390925511269
 21
96.374906758542608
 31
0.0
  0
LINE
  5
340FD
  8
0
 10
309.16390925511269
 20
85.251291576004832
 30
0.0
 11
309.36356916321392
 21
85.99643249727373
 31
0.0
  0
LINE
  5
340FE
  8
0
 10
310.36356916321392
 20
88.426599167273736
 30
0.0
 11
310.36356916321392
 21
93.199599167273703
 31
0.0
  0
LINE
  5
340FF
  8
0
 10
309.75006916321399
 20
87.813099167273748
 30
0.0
 11
309.75006916321399
 21
93.813099167273734
 31
0.0
  0
POLYLINE
  5
34109
  8
0
 66
     1
 10
0.0
 20
0.0
 30
0.0
  0
VERTEX
  5
34716
  8
0
 10
274.06322907220869
 20
88.03219537163929
 30
0.0
  0
VERTEX
  5
34717
  8
0
 10
274.00100775449619
 20
88.531805788836408
 30
0.0
  0
VERTEX
  5
34718
  8
0
 10
273.9127989987482
 20
89.470090777958447
 30
0.0
  0
VERTEX
  5
34719
  8
0
 10
273.86910298108393
 20
90.366580586032427
 30
0.0
  0
VERTEX
  5
3471A
  8
0
 10
273.86356916321392
 20
90.813099167273748
 30
0.0
  0
SEQEND
  5
3471B
  8
0
  0
POLYLINE
  5
3410A
  8
0
 66
     1
 10
0.0
 20
0.0
 30
0.0
  0
VERTEX
  5
3471C
  8
0
 10
273.86356916321392
 20
90.813099167273748
 30
0.0
  0
VERTEX
  5
3471D
  8
0
 10
273.86910298108393
 20
91.259617748515026
 30
0.0
  0
VERTEX
  5
3471E
  8
0
 10
273.9127989987482
 20
92.156107556588978
 30
0.0
  0
VERTEX
  5
3471F
  8
0
 10
274.00100775449619
 20
93.094392545711031
 30
0.0
  0
VERTEX
  5
34720
  8
0
 10
274.06322907220869
 20
93.594002962908135
 30
0.0
  0
SEQEND
  5
34721
  8
0
  0
LINE
  5
3410B
  8
0
 10
277.86356916321392
 20
93.594002962908135
 30
0.0
 11
274.06322907220869
 21
93.594002962908135
 31
0.0
  0
LINE
  5
3410C
  8
0
 10
309.36356916321392
 20
85.99643249727373
 30
0.0
 11
309.36356916321392
 21
95.629765837273709
 31
0.0
  0
POLYLINE
  5
3410D
  8
0
 66
     1
 10
0.0
 20
0.0
 30
0.0
  0
VERTEX
  5
34722
  8
0
 10
304.56322907131562
 20
85.251291576004832
 30
0.0
  0
VERTEX
  5
34723
  8
0
 10
304.50100775350529
 20
85.501096784684435
 30
0.0
  0
VERTEX
  5
34724
  8
0
 10
304.4127989983163
 20
85.970239276613
 30
0.0
  0
VERTEX
  5
34725
  8
0
 10
304.36910298105522
 20
86.418484180310585
 30
0.0
  0
VERTEX
  5
34726
  8
0
 10
304.36356916321392
 20
86.641743473822046
 30
0.0
  0
SEQEND
  5
34727
  8
0
  0
POLYLINE
  5
3410E
  8
0
 66
     1
 10
0.0
 20
0.0
 30
0.0
  0
VERTEX
  5
34728
  8
0
 10
304.36356916321392
 20
86.641743473822046
 30
0.0
  0
VERTEX
  5
34729
  8
0
 10
304.36910298105522
 20
86.86500276733355
 30
0.0
  0
VERTEX
  5
3472A
  8
0
 10
304.4127989983163
 20
87.313247671031121
 30
0.0
  0
VERTEX
  5
3472B
  8
0
 10
304.50100775350529
 20
87.782390162959686
 30
0.0
  0
VERTEX
  5
3472C
  8
0
 10
304.56322907131562
 20
88.03219537163929
 30
0.0
  0
SEQEND
  5
3472D
  8
0
  0
POLYLINE
  5
3410F
  8
0
 66
     1
 10
0.0
 20
0.0
 30
0.0
  0
VERTEX
  5
3472E
  8
0
 10
309.16390925511269
 20
88.03219537163929
 30
0.0
  0
VERTEX
  5
3472F
  8
0
 10
309.22613057292301
 20
87.782390162959686
 30
0.0
  0
VERTEX
  5
34730
  8
0
 10
309.314339328112
 20
87.313247671031121
 30
0.0
  0
VERTEX
  5
34731
  8
0
 10
309.35803534537308
 20
86.86500276733355
 30
0.0
  0
VERTEX
  5
34732
  8
0
 10
309.36356916321392
 20
86.641743473822046
 30
0.0
  0
SEQEND
  5
34733
  8
0
  0
POLYLINE
  5
34110
  8
0
 66
     1
 10
0.0
 20
0.0
 30
0.0
  0
VERTEX
  5
34734
  8
0
 10
309.36356916321392
 20
86.641743473822046
 30
0.0
  0
VERTEX
  5
34735
  8
0
 10
309.35803534537308
 20
86.418484180310585
 30
0.0
  0
VERTEX
  5
34736
  8
0
 10
309.314339328112
 20
85.970239276613
 30
0.0
  0
VERTEX
  5
34737
  8
0
 10
309.22613057292301
 20
85.501096784684435
 30
0.0
  0
VERTEX
  5
34738
  8
0
 10
309.16390925511269
 20
85.251291576004832
 30
0.0
  0
SEQEND
  5
34739
  8
0
  0
LINE
  5
34111
  8
0
 10
304.56322907131562
 20
88.03219537163929
 30
0.0
 11
309.16390925511269
 21
88.03219537163929
 31
0.0
  0
POLYLINE
  5
34112
  8
0
 66
     1
 10
0.0
 20
0.0
 30
0.0
  0
VERTEX
  5
3473A
  8
0
 10
304.56322907131562
 20
88.03219537163929
 30
0.0
  0
VERTEX
  5
3473B
  8
0
 10
304.50100775350529
 20
88.531805788998469
 30
0.0
  0
VERTEX
  5
3473C
  8
0
 10
304.4127989983163
 20
89.470090772855613
 30
0.0
  0
VERTEX
  5
3473D
  8
0
 10
304.36910298105522
 20
90.366580580250712
 30
0.0
  0
VERTEX
  5
3473E
  8
0
 10
304.36356916321392
 20
90.813099167273748
 30
0.0
  0
SEQEND
  5
3473F
  8
0
  0
POLYLINE
  5
34113
  8
0
 66
     1
 10
0.0
 20
0.0
 30
0.0
  0
VERTEX
  5
34740
  8
0
 10
304.36356916321392
 20
90.813099167273748
 30
0.0
  0
VERTEX
  5
34741
  8
0
 10
304.36910298105522
 20
91.259617754296727
 30
0.0
  0
VERTEX
  5
34742
  8
0
 10
304.4127989983163
 20
92.156107561691826
 30
0.0
  0
VERTEX
  5
34743
  8
0
 10
304.50100775350529
 20
93.09439254554897
 30
0.0
  0
VERTEX
  5
34744
  8
0
 10
304.56322907131562
 20
93.594002962908135
 30
0.0
  0
SEQEND
  5
34745
  8
0
  0
POLYLINE
  5
34114
  8
0
 66
     1
 10
0.0
 20
0.0
 30
0.0
  0
VERTEX
  5
34746
  8
0
 10
309.16390925511269
 20
93.594002962908135
 30
0.0
  0
VERTEX
  5
34747
  8
0
 10
309.22613057292301
 20
93.09439254554897
 30
0.0
  0
VERTEX
  5
34748
  8
0
 10
309.314339328112
 20
92.156107561691826
 30
0.0
  0
VERTEX
  5
34749
  8
0
 10
309.35803534537308
 20
91.259617754296727
 30
0.0
  0
VERTEX
  5
3474A
  8
0
 10
309.36356916321392
 20
90.813099167273748
 30
0.0
  0
SEQEND
  5
3474B
  8
0
  0
POLYLINE
  5
34115
  8
0
 66
     1
 10
0.0
 20
0.0
 30
0.0
  0
VERTEX
  5
3474C
  8
0
 10
309.36356916321392
 20
90.813099167273748
 30
0.0
  0
VERTEX
  5
3474D
  8
0
 10
309.35803534537308
 20
90.366580580250712
 30
0.0
  0
VERTEX
  5
3474E
  8
0
 10
309.314339328112
 20
89.470090772855613
 30
0.0
  0
VERTEX
  5
3474F
  8
0
 10
309.22613057292301
 20
88.531805788998469
 30
0.0
  0
VERTEX
  5
34750
  8
0
 10
309.16390925511269
 20
88.03219537163929
 30
0.0
  0
SEQEND
  5
34751
  8
0
  0
LINE
  5
34116
  8
0
 10
304.56322907131562
 20
93.594002962908135
 30
0.0
 11
309.16390925511269
 21
93.594002962908135
 31
0.0
  0
POLYLINE
  5
34119
  8
0
 66
     1
 10
0.0
 20
0.0
 30
0.0
  0
VERTEX
  5
34752
  8
0
 10
309.16390925511269
 20
96.374906758542608
 30
0.0
  0
VERTEX
  5
34753
  8
0
 10
309.22613057292301
 20
96.125101549863047
 30
0.0
  0
VERTEX
  5
34754
  8
0
 10
309.314339328112
 20
95.655959057934425
 30
0.0
  0
VERTEX
  5
34755
  8
0
 10
309.35803534537308
 20
95.207714154236854
 30
0.0
  0
VERTEX
  5
34756
  8
0
 10
309.36356916321392
 20
94.984454860725378
 30
0.0
  0
SEQEND
  5
34757
  8
0
  0
POLYLINE
  5
3411A
  8
0
 66
     1
 10
0.0
 20
0.0
 30
0.0
  0
VERTEX
  5
34758
  8
0
 10
309.36356916321392
 20
94.984454860725378
 30
0.0
  0
VERTEX
  5
34759
  8
0
 10
309.35803534537308
 20
94.761195567213889
 30
0.0
  0
VERTEX
  5
3475A
  8
0
 10
309.314339328112
 20
94.312950663516375
 30
0.0
  0
VERTEX
  5
3475B
  8
0
 10
309.22613057292301
 20
93.843808171587753
 30
0.0
  0
VERTEX
  5
3475C
  8
0
 10
309.16390925511269
 20
93.594002962908135
 30
0.0
  0
SEQEND
  5
3475D
  8
0
  0
LINE
  5
3411B
  8
0
 10
304.5632290713117
 20
96.374906758544313
 30
0.0
 11
309.16390925511269
 21
96.374906758542608
 31
0.0
  0
LINE
  5
3411C
  8
0
 10
304.56322907131562
 20
85.251291576004832
 30
0.0
 11
309.16390925511269
 21
85.251291576004832
 31
0.0
  0
LINE
  5
3411D
  8
3
 10
310.36356916321392
 20
93.199599167273703
 30
0.0
 11
309.36356916321392
 21
93.199599167273703
 31
0.0
  0
LINE
  5
3411E
  8
3
 10
310.36356916321392
 20
88.426599167273736
 30
0.0
 11
309.36356916321392
 21
88.426599167273736
 31
0.0
  0
POLYLINE
  5
3411F
  8
0
 66
     1
 10
0.0
 20
0.0
 30
0.0
  0
VERTEX
  5
3475E
  8
0
 10
304.56322907131562
 20
96.374906758542551
 30
0.0
  0
VERTEX
  5
3475F
  8
0
 10
304.50100775350529
 20
96.125101549862947
 30
0.0
  0
VERTEX
  5
34760
  8
0
 10
304.4127989983163
 20
95.655959057934382
 30
0.0
  0
VERTEX
  5
34761
  8
0
 10
304.36910298105522
 20
95.207714154236811
 30
0.0
  0
VERTEX
  5
34762
  8
0
 10
304.36356916321392
 20
94.984454860725307
 30
0.0
  0
SEQEND
  5
34763
  8
0
  0
POLYLINE
  5
34120
  8
0
 66
     1
 10
0.0
 20
0.0
 30
0.0
  0
VERTEX
  5
34764
  8
0
 10
304.36356916321392
 20
94.984454860725307
 30
0.0
  0
VERTEX
  5
34765
  8
0
 10
304.36910298105522
 20
94.761195567213846
 30
0.0
  0
VERTEX
  5
34766
  8
0
 10
304.4127989983163
 20
94.312950663516261
 30
0.0
  0
VERTEX
  5
34767
  8
0
 10
304.50100775350529
 20
93.84380817158771
 30
0.0
  0
VERTEX
  5
34768
  8
0
 10
304.56322907131562
 20
93.594002962908093
 30
0.0
  0
SEQEND
  5
34769
  8
0
  0
LINE
  5
34122
  8
0
 10
304.36356916321392
 20
95.629765837273652
 30
0.0
 11
304.56322907131562
 21
96.374906758542551
 31
0.0
  0
LINE
  5
34123
  8
0
 10
288.5635691632101
 20
146.81309916727369
 30
0.0
 11
294.16356916321052
 21
146.81309916727369
 31
0.0
  0
LINE
  5
34124
  8
0
 10
295.36356916321029
 20
131.81309916727369
 30
0.0
 11
295.36356916321029
 21
145.61309916727359
 31
0.0
  0
LINE
  5
34125
  8
3
 10
294.68706916321071
 20
131.81309916727369
 30
0.0
 11
294.68706916321071
 21
146.28959916727351
 31
0.0
  0
LINE
  5
34126
  8
3
 10
288.04006916320981
 20
131.81309916727369
 30
0.0
 11
288.04006916320981
 21
146.28959916727351
 31
0.0
  0
LINE
  5
34127
  8
0
 10
287.36356916321029
 20
131.81309916727369
 30
0.0
 11
287.36356916321029
 21
145.6130991672737
 31
0.0
  0
LINE
  5
34128
  8
0
 10
287.36356916321029
 20
145.6130991672737
 30
0.0
 11
288.5635691632101
 21
146.81309916727369
 31
0.0
  0
LINE
  5
34129
  8
0
 10
294.16356916321052
 20
146.81309916727369
 30
0.0
 11
295.36356916321029
 21
145.61309916727359
 31
0.0
  0
LINE
  5
3412A
  8
0
 10
287.36356916321029
 20
145.6130991672737
 30
0.0
 11
295.36356916321029
 21
145.61309916727359
 31
0.0
  0
LINE
  5
3416A
  8
0
 10
65.134457778726471
 20
146.81309916727369
 30
0.0
 11
70.734457778726835
 21
146.81309916727369
 31
0.0
  0
LINE
  5
3416B
  8
0
 10
71.934457778726653
 20
131.81309916727369
 30
0.0
 11
71.934457778726653
 21
145.61309916727359
 31
0.0
  0
LINE
  5
3416C
  8
3
 10
71.257957778727075
 20
131.81309916727369
 30
0.0
 11
71.257957778727075
 21
146.28959916727351
 31
0.0
  0
LINE
  5
3416D
  8
3
 10
64.610957778726231
 20
131.81309916727369
 30
0.0
 11
64.610957778726231
 21
146.28959916727351
 31
0.0
  0
LINE
  5
3416E
  8
0
 10
63.934457778726653
 20
131.81309916727369
 30
0.0
 11
63.934457778726653
 21
145.6130991672737
 31
0.0
  0
LINE
  5
3416F
  8
0
 10
63.934457778726653
 20
145.6130991672737
 30
0.0
 11
65.134457778726471
 21
146.81309916727369
 31
0.0
  0
LINE
  5
34170
  8
0
 10
70.734457778726835
 20
146.81309916727369
 30
0.0
 11
71.934457778726653
 21
145.61309916727359
 31
0.0
  0
LINE
  5
34171
  8
0
 10
63.934457778726653
 20
145.6130991672737
 30
0.0
 11
71.934457778726653
 21
145.61309916727359
 31
0.0
  0
LINE
  5
341B0
  8
0
 10
85.234797867538987
 20
96.374906758542551
 30
0.0
 11
85.434457776533804
 21
95.629765833940354
 31
0.0
  0
LINE
  5
341B1
  8
0
 10
85.434457776533804
 20
85.996432500606971
 30
0.0
 11
85.234797867538987
 21
85.251291576004775
 31
0.0
  0
POLYLINE
  5
341B2
  8
0
 66
     1
 10
0.0
 20
0.0
 30
0.0
 70
   128
  0
VERTEX
  5
3476A
  8
0
 10
85.2347978675391
 20
93.594002962908036
 30
0.0
  0
VERTEX
  5
3476B
  8
0
 10
85.381292237155662
 20
94.286102988745014
 30
0.0
  0
VERTEX
  5
3476C
  8
0
 10
85.43445777698048
 20
94.984454860725265
 30
0.0
  0
SEQEND
  5
3476D
  8
0
  0
LINE
  5
341B3
  8
0
 10
85.43445777698048
 20
90.813099167273677
 30
0.0
 11
85.434457776533804
 21
95.629765833940354
 31
0.0
  0
POLYLINE
  5
341B4
  8
0
 66
     1
 10
0.0
 20
0.0
 30
0.0
 70
   128
  0
VERTEX
  5
3476E
  8
0
 10
85.43445777698048
 20
86.641743473822004
 30
0.0
  0
VERTEX
  5
3476F
  8
0
 10
85.381757811522448
 20
87.336969422730604
 30
0.0
  0
VERTEX
  5
34770
  8
0
 10
85.2347978675391
 20
88.032195371639233
 30
0.0
  0
SEQEND
  5
34771
  8
0
  0
LINE
  5
341B5
  8
0
 10
85.434457776533804
 20
85.996432500606971
 30
0.0
 11
85.43445777698048
 21
90.813099167273677
 31
0.0
  0
ARC
  5
341B6
  8
0
 10
80.276880946683036
 20
94.953421034131694
 30
0.0
 40
5.1576701967859879
 50
0.3447521744420732
 51
15.99814113156652
  0
LINE
  5
341B7
  8
0
 10
85.234797867538987
 20
96.374906758542551
 30
0.0
 11
81.434457776533804
 21
96.374906758542551
 31
0.0
  0
LINE
  5
341B8
  8
0
 10
85.2347978675391
 20
93.594002962908036
 30
0.0
 11
81.434457776533804
 21
93.594002962908036
 31
0.0
  0
LINE
  5
341B9
  8
0
 10
85.2347978675391
 20
88.032195371639233
 30
0.0
 11
81.434457776533804
 21
88.032195371639233
 31
0.0
  0
POLYLINE
  5
341BA
  8
0
 66
     1
 10
0.0
 20
0.0
 30
0.0
 70
   128
  0
VERTEX
  5
34772
  8
0
 10
85.234797867538987
 20
85.251291576004775
 30
0.0
  0
VERTEX
  5
34773
  8
0
 10
85.336186447601094
 20
85.684198720108526
 30
0.0
  0
VERTEX
  5
34774
  8
0
 10
85.43445777698048
 20
86.641743473822004
 30
0.0
  0
SEQEND
  5
34775
  8
0
  0
LINE
  5
341BB
  8
0
 10
85.234797867538987
 20
85.251291576004775
 30
0.0
 11
81.434457776533804
 21
85.251291576004775
 31
0.0
  0
LINE
  5
341BC
  8
0
 10
81.434457776533804
 20
96.374906758542551
 30
0.0
 11
81.434457776533804
 21
85.251291576004775
 31
0.0
  0
LINE
  5
341BD
  8
0
 10
48.934457776530053
 20
93.199599167273703
 30
0.0
 11
49.547957776529977
 21
93.813099167273734
 31
0.0
  0
LINE
  5
341BE
  8
0
 10
49.547957776529977
 20
87.813099167273748
 30
0.0
 11
48.934457776530053
 21
88.426599167273736
 31
0.0
  0
LINE
  5
341BF
  8
0
 10
49.547957776529977
 20
93.813099167273734
 30
0.0
 11
49.934457776530053
 21
93.813099167273734
 31
0.0
  0
LINE
  5
341C0
  8
0
 10
49.934457776530053
 20
87.813099167273748
 30
0.0
 11
49.547957776529977
 21
87.813099167273748
 31
0.0
  0
LINE
  5
341C1
  8
0
 10
54.934457776530053
 20
85.99643249727373
 30
0.0
 11
54.734797868428359
 21
85.251291576004832
 31
0.0
  0
LINE
  5
341C2
  8
0
 10
49.934457776530053
 20
95.629765837273709
 30
0.0
 11
50.134117684631292
 21
96.374906758542608
 31
0.0
  0
LINE
  5
341C3
  8
0
 10
50.134117684631292
 20
85.251291576004832
 30
0.0
 11
49.934457776530053
 21
85.99643249727373
 31
0.0
  0
LINE
  5
341C4
  8
0
 10
48.934457776530053
 20
88.426599167273736
 30
0.0
 11
48.934457776530053
 21
93.199599167273703
 31
0.0
  0
LINE
  5
341C5
  8
0
 10
49.547957776529977
 20
87.813099167273748
 30
0.0
 11
49.547957776529977
 21
93.813099167273734
 31
0.0
  0
POLYLINE
  5
341C6
  8
0
 66
     1
 10
0.0
 20
0.0
 30
0.0
  0
VERTEX
  5
34776
  8
0
 10
85.234797867535235
 20
88.03219537163929
 30
0.0
  0
VERTEX
  5
34777
  8
0
 10
85.297019185247791
 20
88.531805788836408
 30
0.0
  0
VERTEX
  5
34778
  8
0
 10
85.385227940995719
 20
89.470090777958447
 30
0.0
  0
VERTEX
  5
34779
  8
0
 10
85.428923958660107
 20
90.366580586032427
 30
0.0
  0
VERTEX
  5
3477A
  8
0
 10
85.434457776530053
 20
90.813099167273748
 30
0.0
  0
SEQEND
  5
3477B
  8
0
  0
POLYLINE
  5
341C7
  8
0
 66
     1
 10
0.0
 20
0.0
 30
0.0
  0
VERTEX
  5
3477C
  8
0
 10
85.434457776530053
 20
90.813099167273748
 30
0.0
  0
VERTEX
  5
3477D
  8
0
 10
85.428923958660107
 20
91.259617748515026
 30
0.0
  0
VERTEX
  5
3477E
  8
0
 10
85.385227940995719
 20
92.156107556588978
 30
0.0
  0
VERTEX
  5
3477F
  8
0
 10
85.297019185247791
 20
93.094392545711031
 30
0.0
  0
VERTEX
  5
34780
  8
0
 10
85.234797867535235
 20
93.594002962908135
 30
0.0
  0
SEQEND
  5
34781
  8
0
  0
LINE
  5
341C8
  8
0
 10
81.434457776530039
 20
93.594002962908135
 30
0.0
 11
85.234797867535235
 21
93.594002962908135
 31
0.0
  0
LINE
  5
341C9
  8
0
 10
49.934457776530053
 20
85.99643249727373
 30
0.0
 11
49.934457776530053
 21
95.629765837273709
 31
0.0
  0
POLYLINE
  5
341CA
  8
0
 66
     1
 10
0.0
 20
0.0
 30
0.0
  0
VERTEX
  5
34782
  8
0
 10
54.734797868428359
 20
85.251291576004832
 30
0.0
  0
VERTEX
  5
34783
  8
0
 10
54.797019186238678
 20
85.501096784684435
 30
0.0
  0
VERTEX
  5
34784
  8
0
 10
54.885227941427729
 20
85.970239276613
 30
0.0
  0
VERTEX
  5
34785
  8
0
 10
54.928923958688749
 20
86.418484180310585
 30
0.0
  0
VERTEX
  5
34786
  8
0
 10
54.934457776530053
 20
86.641743473822046
 30
0.0
  0
SEQEND
  5
34787
  8
0
  0
POLYLINE
  5
341CB
  8
0
 66
     1
 10
0.0
 20
0.0
 30
0.0
  0
VERTEX
  5
34788
  8
0
 10
54.934457776530053
 20
86.641743473822046
 30
0.0
  0
VERTEX
  5
34789
  8
0
 10
54.928923958688749
 20
86.86500276733355
 30
0.0
  0
VERTEX
  5
3478A
  8
0
 10
54.885227941427729
 20
87.313247671031121
 30
0.0
  0
VERTEX
  5
3478B
  8
0
 10
54.797019186238678
 20
87.782390162959686
 30
0.0
  0
VERTEX
  5
3478C
  8
0
 10
54.734797868428359
 20
88.03219537163929
 30
0.0
  0
SEQEND
  5
3478D
  8
0
  0
POLYLINE
  5
341CC
  8
0
 66
     1
 10
0.0
 20
0.0
 30
0.0
  0
VERTEX
  5
3478E
  8
0
 10
50.134117684631292
 20
88.03219537163929
 30
0.0
  0
VERTEX
  5
3478F
  8
0
 10
50.071896366820958
 20
87.782390162959686
 30
0.0
  0
VERTEX
  5
34790
  8
0
 10
49.983687611631922
 20
87.313247671031121
 30
0.0
  0
VERTEX
  5
34791
  8
0
 10
49.939991594370888
 20
86.86500276733355
 30
0.0
  0
VERTEX
  5
34792
  8
0
 10
49.934457776530053
 20
86.641743473822046
 30
0.0
  0
SEQEND
  5
34793
  8
0
  0
POLYLINE
  5
341CD
  8
0
 66
     1
 10
0.0
 20
0.0
 30
0.0
  0
VERTEX
  5
34794
  8
0
 10
49.934457776530053
 20
86.641743473822046
 30
0.0
  0
VERTEX
  5
34795
  8
0
 10
49.939991594370888
 20
86.418484180310585
 30
0.0
  0
VERTEX
  5
34796
  8
0
 10
49.983687611631922
 20
85.970239276613
 30
0.0
  0
VERTEX
  5
34797
  8
0
 10
50.071896366820958
 20
85.501096784684435
 30
0.0
  0
VERTEX
  5
34798
  8
0
 10
50.134117684631292
 20
85.251291576004832
 30
0.0
  0
SEQEND
  5
34799
  8
0
  0
LINE
  5
341CE
  8
0
 10
54.734797868428359
 20
88.03219537163929
 30
0.0
 11
50.134117684631292
 21
88.03219537163929
 31
0.0
  0
POLYLINE
  5
341CF
  8
0
 66
     1
 10
0.0
 20
0.0
 30
0.0
  0
VERTEX
  5
3479A
  8
0
 10
54.734797868428359
 20
88.03219537163929
 30
0.0
  0
VERTEX
  5
3479B
  8
0
 10
54.797019186238678
 20
88.531805788998469
 30
0.0
  0
VERTEX
  5
3479C
  8
0
 10
54.885227941427729
 20
89.470090772855613
 30
0.0
  0
VERTEX
  5
3479D
  8
0
 10
54.928923958688749
 20
90.366580580250712
 30
0.0
  0
VERTEX
  5
3479E
  8
0
 10
54.934457776530053
 20
90.813099167273748
 30
0.0
  0
SEQEND
  5
3479F
  8
0
  0
POLYLINE
  5
341D0
  8
0
 66
     1
 10
0.0
 20
0.0
 30
0.0
  0
VERTEX
  5
347A0
  8
0
 10
54.934457776530053
 20
90.813099167273748
 30
0.0
  0
VERTEX
  5
347A1
  8
0
 10
54.928923958688749
 20
91.259617754296727
 30
0.0
  0
VERTEX
  5
347A2
  8
0
 10
54.885227941427729
 20
92.156107561691826
 30
0.0
  0
VERTEX
  5
347A3
  8
0
 10
54.797019186238678
 20
93.09439254554897
 30
0.0
  0
VERTEX
  5
347A4
  8
0
 10
54.734797868428359
 20
93.594002962908135
 30
0.0
  0
SEQEND
  5
347A5
  8
0
  0
POLYLINE
  5
341D1
  8
0
 66
     1
 10
0.0
 20
0.0
 30
0.0
  0
VERTEX
  5
347A6
  8
0
 10
50.134117684631292
 20
93.594002962908135
 30
0.0
  0
VERTEX
  5
347A7
  8
0
 10
50.071896366820958
 20
93.09439254554897
 30
0.0
  0
VERTEX
  5
347A8
  8
0
 10
49.983687611631922
 20
92.156107561691826
 30
0.0
  0
VERTEX
  5
347A9
  8
0
 10
49.939991594370888
 20
91.259617754296727
 30
0.0
  0
VERTEX
  5
347AA
  8
0
 10
49.934457776530053
 20
90.813099167273748
 30
0.0
  0
SEQEND
  5
347AB
  8
0
  0
POLYLINE
  5
341D2
  8
0
 66
     1
 10
0.0
 20
0.0
 30
0.0
  0
VERTEX
  5
347AC
  8
0
 10
49.934457776530053
 20
90.813099167273748
 30
0.0
  0
VERTEX
  5
347AD
  8
0
 10
49.939991594370888
 20
90.366580580250712
 30
0.0
  0
VERTEX
  5
347AE
  8
0
 10
49.983687611631922
 20
89.470090772855613
 30
0.0
  0
VERTEX
  5
347AF
  8
0
 10
50.071896366820958
 20
88.531805788998469
 30
0.0
  0
VERTEX
  5
347B0
  8
0
 10
50.134117684631292
 20
88.03219537163929
 30
0.0
  0
SEQEND
  5
347B1
  8
0
  0
LINE
  5
341D3
  8
0
 10
54.734797868428359
 20
93.594002962908135
 30
0.0
 11
50.134117684631292
 21
93.594002962908135
 31
0.0
  0
POLYLINE
  5
341D4
  8
0
 66
     1
 10
0.0
 20
0.0
 30
0.0
  0
VERTEX
  5
347B2
  8
0
 10
50.134117684631292
 20
96.374906758542608
 30
0.0
  0
VERTEX
  5
347B3
  8
0
 10
50.071896366820958
 20
96.125101549863047
 30
0.0
  0
VERTEX
  5
347B4
  8
0
 10
49.983687611631922
 20
95.655959057934425
 30
0.0
  0
VERTEX
  5
347B5
  8
0
 10
49.939991594370888
 20
95.207714154236854
 30
0.0
  0
VERTEX
  5
347B6
  8
0
 10
49.934457776530053
 20
94.984454860725378
 30
0.0
  0
SEQEND
  5
347B7
  8
0
  0
POLYLINE
  5
341D5
  8
0
 66
     1
 10
0.0
 20
0.0
 30
0.0
  0
VERTEX
  5
347B8
  8
0
 10
49.934457776530053
 20
94.984454860725378
 30
0.0
  0
VERTEX
  5
347B9
  8
0
 10
49.939991594370888
 20
94.761195567213889
 30
0.0
  0
VERTEX
  5
347BA
  8
0
 10
49.983687611631922
 20
94.312950663516375
 30
0.0
  0
VERTEX
  5
347BB
  8
0
 10
50.071896366820958
 20
93.843808171587753
 30
0.0
  0
VERTEX
  5
347BC
  8
0
 10
50.134117684631292
 20
93.594002962908135
 30
0.0
  0
SEQEND
  5
347BD
  8
0
  0
LINE
  5
341D6
  8
0
 10
54.734797868432338
 20
96.374906758544313
 30
0.0
 11
50.134117684631292
 21
96.374906758542608
 31
0.0
  0
LINE
  5
341D7
  8
0
 10
54.734797868428359
 20
85.251291576004832
 30
0.0
 11
50.134117684631292
 21
85.251291576004832
 31
0.0
  0
LINE
  5
341D8
  8
3
 10
48.934457776530053
 20
93.199599167273703
 30
0.0
 11
49.934457776530053
 21
93.199599167273703
 31
0.0
  0
LINE
  5
341D9
  8
3
 10
48.934457776530053
 20
88.426599167273736
 30
0.0
 11
49.934457776530053
 21
88.426599167273736
 31
0.0
  0
POLYLINE
  5
341DA
  8
0
 66
     1
 10
0.0
 20
0.0
 30
0.0
  0
VERTEX
  5
347BE
  8
0
 10
54.734797868428359
 20
96.374906758542551
 30
0.0
  0
VERTEX
  5
347BF
  8
0
 10
54.797019186238678
 20
96.125101549862947
 30
0.0
  0
VERTEX
  5
347C0
  8
0
 10
54.885227941427729
 20
95.655959057934382
 30
0.0
  0
VERTEX
  5
347C1
  8
0
 10
54.928923958688749
 20
95.207714154236811
 30
0.0
  0
VERTEX
  5
347C2
  8
0
 10
54.934457776530053
 20
94.984454860725307
 30
0.0
  0
SEQEND
  5
347C3
  8
0
  0
POLYLINE
  5
341DB
  8
0
 66
     1
 10
0.0
 20
0.0
 30
0.0
  0
VERTEX
  5
347C4
  8
0
 10
54.934457776530053
 20
94.984454860725307
 30
0.0
  0
VERTEX
  5
347C5
  8
0
 10
54.928923958688749
 20
94.761195567213846
 30
0.0
  0
VERTEX
  5
347C6
  8
0
 10
54.885227941427729
 20
94.312950663516261
 30
0.0
  0
VERTEX
  5
347C7
  8
0
 10
54.797019186238678
 20
93.84380817158771
 30
0.0
  0
VERTEX
  5
347C8
  8
0
 10
54.734797868428359
 20
93.594002962908093
 30
0.0
  0
SEQEND
  5
347C9
  8
0
  0
LINE
  5
341DC
  8
0
 10
54.934457776530053
 20
95.629765837273652
 30
0.0
 11
54.734797868428359
 21
96.374906758542551
 31
0.0
  0
TEXT
  5
34661
  8
0
 62
     3
 10
0.0
 20
0.0
 30
0.0
 40
10.0
  1
CAC7-050CBF
  7
STANDARD1
  0
ENDSEC
  0
EOF
