  0
SECTION
  2
HEADER
  9
$ACADVER
  1
AC1009
  9
$INSBASE
 10
0.0
 20
0.0
 30
0.0
  9
$EXTMIN
 10
0.0
 20
-2.960436562073669
 30
0.0
  9
$EXTMAX
 10
407.4999999999992
 20
212.4990792622165
 30
0.0
  9
$LIMMIN
 10
0.0
 20
0.0
  9
$LIMMAX
 10
750.0
 20
540.0
  9
$ORTHOMODE
 70
     1
  9
$REGENMODE
 70
     1
  9
$FILLMODE
 70
     1
  9
$QTEXTMODE
 70
     0
  9
$MIRRTEXT
 70
     0
  9
$DRAGMODE
 70
     2
  9
$LTSCALE
 40
7.0
  9
$OSMODE
 70
  3071
  9
$ATTMODE
 70
     1
  9
$TEXTSIZE
 40
0.2
  9
$TRACEWID
 40
0.05
  9
$TEXTSTYLE
  7
STANDARD
  9
$CLAYER
  8
0
  9
$CELTYPE
  6
BYLAYER
  9
$CECOLOR
 62
   256
  9
$DIMSCALE
 40
1.0
  9
$DIMASZ
 40
3.0
  9
$DIMEXO
 40
2.0
  9
$DIMDLI
 40
0.38
  9
$DIMRND
 40
0.0
  9
$DIMDLE
 40
0.0
  9
$DIMEXE
 40
2.0
  9
$DIMTP
 40
0.0
  9
$DIMTM
 40
0.0
  9
$DIMTXT
 40
3.2000000000000002
  9
$DIMCEN
 40
0.0
  9
$DIMTSZ
 40
0.0
  9
$DIMTOL
 70
     0
  9
$DIMLIM
 70
     0
  9
$DIMTIH
 70
     0
  9
$DIMTOH
 70
     0
  9
$DIMSE1
 70
     0
  9
$DIMSE2
 70
     0
  9
$DIMTAD
 70
     1
  9
$DIMZIN
 70
     0
  9
$DIMBLK
  1

  9
$DIMASO
 70
     0
  9
$DIMSHO
 70
     0
  9
$DIMPOST
  1

  9
$DIMAPOST
  1

  9
$DIMALT
 70
     0
  9
$DIMALTD
 70
     2
  9
$DIMALTF
 40
25.399999999999999
  9
$DIMLFAC
 40
1.0
  9
$DIMTOFL
 70
     0
  9
$DIMTVP
 40
1.6000000000000001
  9
$DIMTIX
 70
     1
  9
$DIMSOXD
 70
     0
  9
$DIMSAH
 70
     0
  9
$DIMBLK1
  1

  9
$DIMBLK2
  1

  9
$DIMSTYLE
  2
STANDARD
  9
$DIMCLRD
 70
     0
  9
$DIMCLRE
 70
     0
  9
$DIMCLRT
 70
     0
  9
$DIMTFAC
 40
1.0
  9
$DIMGAP
 40
0.09
  9
$LUNITS
 70
     2
  9
$LUPREC
 70
     4
  9
$SKETCHINC
 40
0.1
  9
$FILLETRAD
 40
0.0
  9
$AUNITS
 70
     0
  9
$AUPREC
 70
     4
  9
$MENU
  1
E:\r13\win\SUPPORT\ACAD
  9
$ELEVATION
 40
0.0
  9
$PELEVATION
 40
0.0
  9
$THICKNESS
 40
0.0
  9
$LIMCHECK
 70
     0
  9
$BLIPMODE
 70
     0
  9
$CHAMFERA
 40
0.0
  9
$CHAMFERB
 40
0.0
  9
$SKPOLY
 70
     0
  9
$TDCREATE
 40
2449840.6227546302
  9
$TDUPDATE
 40
2456598.557483356
  9
$TDINDWG
 40
0.4276030671
  9
$TDUSRTIMER
 40
0.4276030671
  9
$USRTIMER
 70
     1
  9
$ANGBASE
 50
0.0
  9
$ANGDIR
 70
     0
  9
$PDMODE
 70
     0
  9
$PDSIZE
 40
0.0
  9
$PLINEWID
 40
0.0
  9
$COORDS
 70
     1
  9
$SPLFRAME
 70
     0
  9
$SPLINETYPE
 70
     6
  9
$SPLINESEGS
 70
     8
  9
$ATTDIA
 70
     0
  9
$ATTREQ
 70
     1
  9
$HANDLING
 70
     1
  9
$HANDSEED
  5
B0BB
  9
$SURFTAB1
 70
     6
  9
$SURFTAB2
 70
     6
  9
$SURFTYPE
 70
     6
  9
$SURFU
 70
     6
  9
$SURFV
 70
     6
  9
$UCSNAME
  2

  9
$UCSORG
 10
0.0
 20
0.0
 30
0.0
  9
$UCSXDIR
 10
1.0
 20
0.0
 30
0.0
  9
$UCSYDIR
 10
0.0
 20
1.0
 30
0.0
  9
$PUCSNAME
  2

  9
$PUCSORG
 10
0.0
 20
0.0
 30
0.0
  9
$PUCSXDIR
 10
1.0
 20
0.0
 30
0.0
  9
$PUCSYDIR
 10
0.0
 20
1.0
 30
0.0
  9
$USERI1
 70
     0
  9
$USERI2
 70
     1
  9
$USERI3
 70
     0
  9
$USERI4
 70
     0
  9
$USERI5
 70
     0
  9
$USERR1
 40
0.0
  9
$USERR2
 40
0.0
  9
$USERR3
 40
0.0
  9
$USERR4
 40
0.0
  9
$USERR5
 40
0.0
  9
$WORLDVIEW
 70
     1
  9
$SHADEDGE
 70
     3
  9
$SHADEDIF
 70
    70
  9
$TILEMODE
 70
     1
  9
$MAXACTVP
 70
    16
  9
$PLIMCHECK
 70
     0
  9
$PEXTMIN
 10
1.0000000000000000E+020
 20
1.0000000000000000E+020
 30
1.0000000000000000E+020
  9
$PEXTMAX
 10
-1.0000000000000000E+020
 20
-1.0000000000000000E+020
 30
-1.0000000000000000E+020
  9
$PLIMMIN
 10
0.0
 20
0.0
  9
$PLIMMAX
 10
12.0
 20
9.0
  9
$UNITMODE
 70
     0
  9
$VISRETAIN
 70
     0
  9
$PLINEGEN
 70
     0
  9
$PSLTSCALE
 70
     0
  0
ENDSEC
  0
SECTION
  2
TABLES
  0
TABLE
  2
VPORT
 70
     1
  0
VPORT
  2
*ACTIVE
 70
     0
 10
0.0
 20
0.0
 11
1.0
 21
1.0
 12
390.03402345615979
 22
268.50860658393782
 13
0.0
 23
0.0
 14
20.0
 24
20.0
 15
20.0
 25
20.0
 16
0.0
 26
0.0
 36
1.0
 17
0.0
 27
0.0
 37
0.0
 40
547.85258761088789
 41
1.831871345029239
 42
50.0
 43
0.0
 44
0.0
 50
0.0
 51
0.0
 71
     0
 72
   100
 73
     1
 74
     0
 75
     0
 76
     0
 77
     0
 78
     2
  0
ENDTAB
  0
TABLE
  2
LTYPE
 70
     4
  0
LTYPE
  2
CONTINUOUS
 70
     0
  3
Solid Line
 72
    65
 73
     0
 40
0.0
  0
LTYPE
  2
CENTER
 70
     0
  3
____ _ ____ _ ____ _ ____ _ ____ _ ____ _ ____
 72
    65
 73
     4
 40
2.0
 49
1.25
 49
-0.25
 49
0.25
 49
-0.25
  0
LTYPE
  2
HIDDEN
 70
     0
  3
_ _ _ _ _ _ _ _ _ _ _ _ _ _ _ _ _ _ _ _ _ _ _
 72
    65
 73
     2
 40
0.375
 49
0.25
 49
-0.125
  0
LTYPE
  2
PHANTOM2
 70
     0
  3
___ _ _ ___ _ _ ___ _ _ ___ _ _
 72
    65
 73
     6
 40
1.25
 49
0.625
 49
-0.125
 49
0.125
 49
-0.125
 49
0.125
 49
-0.125
  0
ENDTAB
  0
TABLE
  2
LAYER
 70
     5
  0
LAYER
  2
0
 70
     0
 62
     7
  6
CONTINUOUS
  0
LAYER
  2
1
 70
     0
 62
     1
  6
CENTER
  0
LAYER
  2
2
 70
     0
 62
     2
  6
HIDDEN
  0
LAYER
  2
3
 70
     0
 62
     3
  6
CONTINUOUS
  0
LAYER
  2
DEFPOINTS
 70
     0
 62
     7
  6
CONTINUOUS
  0
ENDTAB
  0
TABLE
  2
STYLE
 70
     2
  0
STYLE
  2
STANDARD
 70
     0
 40
0.0
 41
1.0
 50
0.0
 71
     0
 42
0.2
  3
TXT
  4
BIGFONT
  0
STYLE
  2
STANDARD1
 70
     0
 40
0.0
 41
1.0
 50
0.0
 71
     0
 42
3.0
  3
txt
  4

  0
ENDTAB
  0
TABLE
  2
VIEW
 70
     1
  0
VIEW
  2
ALL
 70
     0
 40
540.0
 10
441.98319299999991
 20
270.0
 41
0.0
 11
0.0
 21
0.0
 31
1.0
 12
0.0
 22
0.0
 32
0.0
 42
0.0
 43
0.0
 44
0.0
 50
0.0
 71
     0
  0
ENDTAB
  0
TABLE
  2
UCS
 70
     0
  0
ENDTAB
  0
TABLE
  2
APPID
 70
     7
  0
APPID
  2
ACAD
 70
     0
  0
APPID
  2
ACAD_NAV_VCDISPLAY
 70
     0
  0
APPID
  2
ACAD_EXEMPT_FROM_CAD_STANDARDS
 70
     0
  0
APPID
  2
ACAD_DSTYLE_DIMJAG
 70
     0
  0
APPID
  2
ACAD_DSTYLE_DIMTALN
 70
     0
  0
APPID
  2
ACAD_MLEADERVER
 70
     0
  0
APPID
  2
DBPROPERTIES
 70
     0
  0
ENDTAB
  0
TABLE
  2
DIMSTYLE
 70
     1
  0
DIMSTYLE
  2
STANDARD
 70
     0
  3

  4

  5

  6

  7

 40
1.0
 41
0.18
 42
0.0625
 43
0.38
 44
0.18
 45
0.0
 46
0.0
 47
0.0
 48
0.0
140
0.18
141
0.09
142
0.0
143
25.399999999999999
144
1.0
145
0.0
146
1.0
147
0.09
 71
     0
 72
     0
 73
     1
 74
     1
 75
     0
 76
     0
 77
     0
 78
     0
170
     0
171
     2
172
     0
173
     0
174
     0
175
     0
176
     0
177
     0
178
     0
  0
ENDTAB
  0
ENDSEC
  0
SECTION
  2
BLOCKS
  0
BLOCK
  8
0
  2
$MODEL_SPACE
 70
     0
 10
0.0
 20
0.0
 30
0.0
  3
$MODEL_SPACE
  1

  0
ENDBLK
  5
11D
  8
0
  0
BLOCK
 67
     1
  8
0
  2
$PAPER_SPACE
 70
     0
 10
0.0
 20
0.0
 30
0.0
  3
$PAPER_SPACE
  1

  0
ENDBLK
  5
11B
 67
     1
  8
0
  0
ENDSEC
  0
SECTION
  2
ENTITIES
  0
POLYLINE
  5
A4CE
  8
0
 10
218.76659279936712
 20
107.98678208139579
 30
0.0
 66
     1
 70
     8
  0
VERTEX
  8
0
  5
ACAB
 10
218.767
 20
107.987
 30
0.000000
  70
    32
  0
VERTEX
  8
0
  5
ACAC
 10
218.825
 20
107.982
 30
0.000000
  70
    32
  0
VERTEX
  8
0
  5
ACAD
 10
218.885
 20
107.976
 30
0.000000
  70
    32
  0
VERTEX
  8
0
  5
ACAE
 10
218.945
 20
107.971
 30
0.000000
  70
    32
  0
VERTEX
  8
0
  5
ACAF
 10
219.005
 20
107.967
 30
0.000000
  70
    32
  0
VERTEX
  8
0
  5
ACB0
 10
219.065
 20
107.962
 30
0.000000
  70
    32
  0
VERTEX
  8
0
  5
ACB1
 10
219.126
 20
107.957
 30
0.000000
  70
    32
  0
VERTEX
  8
0
  5
ACB2
 10
219.188
 20
107.953
 30
0.000000
  70
    32
  0
VERTEX
  8
0
  5
ACB3
 10
219.250
 20
107.949
 30
0.000000
  70
    32
  0
VERTEX
  8
0
  5
ACB4
 10
219.312
 20
107.945
 30
0.000000
  70
    32
  0
VERTEX
  8
0
  5
ACB5
 10
219.375
 20
107.941
 30
0.000000
  70
    32
  0
VERTEX
  8
0
  5
ACB6
 10
219.438
 20
107.937
 30
0.000000
  70
    32
  0
VERTEX
  8
0
  5
ACB7
 10
219.501
 20
107.933
 30
0.000000
  70
    32
  0
VERTEX
  8
0
  5
ACB8
 10
219.565
 20
107.930
 30
0.000000
  70
    32
  0
VERTEX
  8
0
  5
ACB9
 10
219.629
 20
107.926
 30
0.000000
  70
    32
  0
VERTEX
  8
0
  5
ACBA
 10
219.693
 20
107.923
 30
0.000000
  70
    32
  0
VERTEX
  8
0
  5
ACBB
 10
219.757
 20
107.920
 30
0.000000
  70
    32
  0
VERTEX
  8
0
  5
ACBC
 10
219.822
 20
107.917
 30
0.000000
  70
    32
  0
VERTEX
  8
0
  5
ACBD
 10
219.887
 20
107.914
 30
0.000000
  70
    32
  0
VERTEX
  8
0
  5
ACBE
 10
219.953
 20
107.912
 30
0.000000
  70
    32
  0
VERTEX
  8
0
  5
ACBF
 10
220.018
 20
107.909
 30
0.000000
  70
    32
  0
VERTEX
  8
0
  5
ACC0
 10
220.084
 20
107.907
 30
0.000000
  70
    32
  0
VERTEX
  8
0
  5
ACC1
 10
220.150
 20
107.905
 30
0.000000
  70
    32
  0
VERTEX
  8
0
  5
ACC2
 10
220.216
 20
107.903
 30
0.000000
  70
    32
  0
VERTEX
  8
0
  5
ACC3
 10
220.282
 20
107.901
 30
0.000000
  70
    32
  0
VERTEX
  8
0
  5
ACC4
 10
220.349
 20
107.900
 30
0.000000
  70
    32
  0
VERTEX
  8
0
  5
ACC5
 10
220.415
 20
107.898
 30
0.000000
  70
    32
  0
VERTEX
  8
0
  5
ACC6
 10
220.482
 20
107.897
 30
0.000000
  70
    32
  0
VERTEX
  8
0
  5
ACC7
 10
220.549
 20
107.896
 30
0.000000
  70
    32
  0
VERTEX
  8
0
  5
ACC8
 10
220.616
 20
107.895
 30
0.000000
  70
    32
  0
VERTEX
  8
0
  5
ACC9
 10
220.683
 20
107.894
 30
0.000000
  70
    32
  0
VERTEX
  8
0
  5
ACCA
 10
220.750
 20
107.893
 30
0.000000
  70
    32
  0
VERTEX
  8
0
  5
ACCB
 10
220.817
 20
107.893
 30
0.000000
  70
    32
  0
VERTEX
  8
0
  5
ACCC
 10
220.884
 20
107.892
 30
0.000000
  70
    32
  0
VERTEX
  8
0
  5
ACCD
 10
220.951
 20
107.892
 30
0.000000
  70
    32
  0
VERTEX
  8
0
  5
ACCE
 10
221.019
 20
107.892
 30
0.000000
  70
    32
  0
VERTEX
  8
0
  5
ACCF
 10
221.086
 20
107.892
 30
0.000000
  70
    32
  0
VERTEX
  8
0
  5
ACD0
 10
221.153
 20
107.892
 30
0.000000
  70
    32
  0
VERTEX
  8
0
  5
ACD1
 10
221.220
 20
107.893
 30
0.000000
  70
    32
  0
VERTEX
  8
0
  5
ACD2
 10
221.287
 20
107.893
 30
0.000000
  70
    32
  0
VERTEX
  8
0
  5
ACD3
 10
221.354
 20
107.894
 30
0.000000
  70
    32
  0
VERTEX
  8
0
  5
ACD4
 10
221.421
 20
107.895
 30
0.000000
  70
    32
  0
VERTEX
  8
0
  5
ACD5
 10
221.488
 20
107.896
 30
0.000000
  70
    32
  0
VERTEX
  8
0
  5
ACD6
 10
221.555
 20
107.898
 30
0.000000
  70
    32
  0
VERTEX
  8
0
  5
ACD7
 10
221.622
 20
107.899
 30
0.000000
  70
    32
  0
VERTEX
  8
0
  5
ACD8
 10
221.688
 20
107.900
 30
0.000000
  70
    32
  0
VERTEX
  8
0
  5
ACD9
 10
221.754
 20
107.902
 30
0.000000
  70
    32
  0
VERTEX
  8
0
  5
ACDA
 10
221.821
 20
107.904
 30
0.000000
  70
    32
  0
VERTEX
  8
0
  5
ACDB
 10
221.887
 20
107.906
 30
0.000000
  70
    32
  0
VERTEX
  8
0
  5
ACDC
 10
221.953
 20
107.908
 30
0.000000
  70
    32
  0
VERTEX
  8
0
  5
ACDD
 10
222.018
 20
107.911
 30
0.000000
  70
    32
  0
VERTEX
  8
0
  5
ACDE
 10
222.084
 20
107.913
 30
0.000000
  70
    32
  0
VERTEX
  8
0
  5
ACDF
 10
222.149
 20
107.916
 30
0.000000
  70
    32
  0
VERTEX
  8
0
  5
ACE0
 10
222.214
 20
107.919
 30
0.000000
  70
    32
  0
VERTEX
  8
0
  5
ACE1
 10
222.278
 20
107.922
 30
0.000000
  70
    32
  0
VERTEX
  8
0
  5
ACE2
 10
222.343
 20
107.925
 30
0.000000
  70
    32
  0
VERTEX
  8
0
  5
ACE3
 10
222.407
 20
107.928
 30
0.000000
  70
    32
  0
VERTEX
  8
0
  5
ACE4
 10
222.471
 20
107.932
 30
0.000000
  70
    32
  0
VERTEX
  8
0
  5
ACE5
 10
222.534
 20
107.935
 30
0.000000
  70
    32
  0
VERTEX
  8
0
  5
ACE6
 10
222.597
 20
107.939
 30
0.000000
  70
    32
  0
VERTEX
  8
0
  5
ACE7
 10
222.660
 20
107.943
 30
0.000000
  70
    32
  0
VERTEX
  8
0
  5
ACE8
 10
222.722
 20
107.947
 30
0.000000
  70
    32
  0
VERTEX
  8
0
  5
ACE9
 10
222.784
 20
107.951
 30
0.000000
  70
    32
  0
VERTEX
  8
0
  5
ACEA
 10
222.846
 20
107.955
 30
0.000000
  70
    32
  0
VERTEX
  8
0
  5
ACEB
 10
222.907
 20
107.960
 30
0.000000
  70
    32
  0
VERTEX
  8
0
  5
ACEC
 10
222.968
 20
107.964
 30
0.000000
  70
    32
  0
VERTEX
  8
0
  5
ACED
 10
223.029
 20
107.969
 30
0.000000
  70
    32
  0
VERTEX
  8
0
  5
ACEE
 10
223.089
 20
107.974
 30
0.000000
  70
    32
  0
VERTEX
  8
0
  5
ACEF
 10
223.148
 20
107.979
 30
0.000000
  70
    32
  0
VERTEX
  8
0
  5
ACF0
 10
223.207
 20
107.984
 30
0.000000
  70
    32
  0
VERTEX
  8
0
  5
ACF1
 10
223.266
 20
107.990
 30
0.000000
  70
    32
  0
VERTEX
  8
0
  5
ACF2
 10
223.324
 20
107.995
 30
0.000000
  70
    32
  0
VERTEX
  8
0
  5
ACF3
 10
223.381
 20
108.001
 30
0.000000
  70
    32
  0
VERTEX
  8
0
  5
ACF4
 10
223.438
 20
108.007
 30
0.000000
  70
    32
  0
VERTEX
  8
0
  5
ACF5
 10
223.495
 20
108.013
 30
0.000000
  70
    32
  0
VERTEX
  8
0
  5
ACF6
 10
223.551
 20
108.019
 30
0.000000
  70
    32
  0
VERTEX
  8
0
  5
ACF7
 10
223.606
 20
108.025
 30
0.000000
  70
    32
  0
VERTEX
  8
0
  5
ACF8
 10
223.661
 20
108.031
 30
0.000000
  70
    32
  0
VERTEX
  8
0
  5
ACF9
 10
223.716
 20
108.037
 30
0.000000
  70
    32
  0
VERTEX
  8
0
  5
ACFA
 10
223.769
 20
108.044
 30
0.000000
  70
    32
  0
VERTEX
  8
0
  5
ACFB
 10
223.822
 20
108.051
 30
0.000000
  70
    32
  0
VERTEX
  8
0
  5
ACFC
 10
223.875
 20
108.057
 30
0.000000
  70
    32
  0
VERTEX
  8
0
  5
ACFD
 10
223.927
 20
108.064
 30
0.000000
  70
    32
  0
VERTEX
  8
0
  5
ACFE
 10
223.978
 20
108.071
 30
0.000000
  70
    32
  0
VERTEX
  8
0
  5
ACFF
 10
224.028
 20
108.079
 30
0.000000
  70
    32
  0
VERTEX
  8
0
  5
AD00
 10
224.078
 20
108.086
 30
0.000000
  70
    32
  0
VERTEX
  8
0
  5
AD01
 10
224.128
 20
108.093
 30
0.000000
  70
    32
  0
VERTEX
  8
0
  5
AD02
 10
224.176
 20
108.101
 30
0.000000
  70
    32
  0
VERTEX
  8
0
  5
AD03
 10
224.224
 20
108.109
 30
0.000000
  70
    32
  0
VERTEX
  8
0
  5
AD04
 10
224.271
 20
108.116
 30
0.000000
  70
    32
  0
VERTEX
  8
0
  5
AD05
 10
224.318
 20
108.124
 30
0.000000
  70
    32
  0
VERTEX
  8
0
  5
AD06
 10
224.363
 20
108.132
 30
0.000000
  70
    32
  0
VERTEX
  8
0
  5
AD07
 10
224.408
 20
108.140
 30
0.000000
  70
    32
  0
VERTEX
  8
0
  5
AD08
 10
224.453
 20
108.148
 30
0.000000
  70
    32
  0
VERTEX
  8
0
  5
AD09
 10
224.496
 20
108.157
 30
0.000000
  70
    32
  0
VERTEX
  8
0
  5
AD0A
 10
224.539
 20
108.165
 30
0.000000
  70
    32
  0
VERTEX
  8
0
  5
AD0B
 10
224.581
 20
108.174
 30
0.000000
  70
    32
  0
VERTEX
  8
0
  5
AD0C
 10
224.622
 20
108.182
 30
0.000000
  70
    32
  0
VERTEX
  8
0
  5
AD0D
 10
224.663
 20
108.191
 30
0.000000
  70
    32
  0
VERTEX
  8
0
  5
AD0E
 10
224.702
 20
108.200
 30
0.000000
  70
    32
  0
VERTEX
  8
0
  5
AD0F
 10
224.741
 20
108.209
 30
0.000000
  70
    32
  0
VERTEX
  8
0
  5
AD10
 10
224.779
 20
108.218
 30
0.000000
  70
    32
  0
VERTEX
  8
0
  5
AD11
 10
224.816
 20
108.227
 30
0.000000
  70
    32
  0
VERTEX
  8
0
  5
AD12
 10
224.853
 20
108.236
 30
0.000000
  70
    32
  0
VERTEX
  8
0
  5
AD13
 10
224.888
 20
108.245
 30
0.000000
  70
    32
  0
VERTEX
  8
0
  5
AD14
 10
224.923
 20
108.254
 30
0.000000
  70
    32
  0
VERTEX
  8
0
  5
AD15
 10
224.957
 20
108.264
 30
0.000000
  70
    32
  0
VERTEX
  8
0
  5
AD16
 10
224.989
 20
108.273
 30
0.000000
  70
    32
  0
VERTEX
  8
0
  5
AD17
 10
225.022
 20
108.283
 30
0.000000
  70
    32
  0
VERTEX
  8
0
  5
AD18
 10
225.053
 20
108.293
 30
0.000000
  70
    32
  0
VERTEX
  8
0
  5
AD19
 10
225.083
 20
108.302
 30
0.000000
  70
    32
  0
VERTEX
  8
0
  5
AD1A
 10
225.113
 20
108.312
 30
0.000000
  70
    32
  0
VERTEX
  8
0
  5
AD1B
 10
225.141
 20
108.322
 30
0.000000
  70
    32
  0
VERTEX
  8
0
  5
AD1C
 10
225.169
 20
108.332
 30
0.000000
  70
    32
  0
VERTEX
  8
0
  5
AD1D
 10
225.196
 20
108.342
 30
0.000000
  70
    32
  0
VERTEX
  8
0
  5
AD1E
 10
225.221
 20
108.352
 30
0.000000
  70
    32
  0
VERTEX
  8
0
  5
AD1F
 10
225.246
 20
108.362
 30
0.000000
  70
    32
  0
VERTEX
  8
0
  5
AD20
 10
225.270
 20
108.372
 30
0.000000
  70
    32
  0
VERTEX
  8
0
  5
AD21
 10
225.293
 20
108.383
 30
0.000000
  70
    32
  0
VERTEX
  8
0
  5
AD22
 10
225.315
 20
108.393
 30
0.000000
  70
    32
  0
VERTEX
  8
0
  5
AD23
 10
225.337
 20
108.403
 30
0.000000
  70
    32
  0
VERTEX
  8
0
  5
AD24
 10
225.357
 20
108.414
 30
0.000000
  70
    32
  0
VERTEX
  8
0
  5
AD25
 10
225.376
 20
108.424
 30
0.000000
  70
    32
  0
VERTEX
  8
0
  5
AD26
 10
225.395
 20
108.434
 30
0.000000
  70
    32
  0
VERTEX
  8
0
  5
AD27
 10
225.412
 20
108.445
 30
0.000000
  70
    32
  0
VERTEX
  8
0
  5
AD28
 10
225.428
 20
108.456
 30
0.000000
  70
    32
  0
VERTEX
  8
0
  5
AD29
 10
225.444
 20
108.466
 30
0.000000
  70
    32
  0
VERTEX
  8
0
  5
AD2A
 10
225.458
 20
108.477
 30
0.000000
  70
    32
  0
VERTEX
  8
0
  5
AD2B
 10
225.472
 20
108.487
 30
0.000000
  70
    32
  0
SEQEND
  8
0
  5
AD2C
  0
LINE
  5
A4D1
  8
0
 10
213.4442344661116
 20
107.04803446956871
 30
0.0
 11
211.8211145617995
 21
106.75292175969381
 31
0.0
  0
LINE
  5
A4D2
  8
0
 10
218.5761986233428
 20
107.98111886179269
 30
0.0
 11
213.4442344661116
 21
107.04803446956871
 31
0.0
  0
LINE
  5
A4D3
  8
0
 10
242.49999999999949
 20
100.0000000000005
 30
0.0
 11
242.49999999999949
 21
108.5000000000005
 31
0.0
  0
LINE
  5
A4D4
  8
0
 10
242.49999999999949
 20
100.0000000000005
 30
0.0
 11
199.49999999999989
 21
100.0000000000005
 31
0.0
  0
LINE
  5
A4D5
  8
0
 10
225.48728088790571
 20
108.5000000000002
 30
0.0
 11
225.47185147301161
 21
108.4873761446102
 31
0.0
  0
LINE
  5
A4D7
  8
0
 10
211.8211145617995
 20
106.75292175969381
 30
0.0
 11
201.428655668239
 21
104.8633837790462
 31
0.0
  0
LINE
  5
A4D9
  8
0
 10
201.428655667002
 20
104.8633837788213
 30
0.0
 11
200.3211145617995
 21
104.6620126687845
 31
0.0
  0
ARC
  5
A4DA
  8
0
 10
200.49999999999989
 20
103.6781427586846
 30
0.0
 40
1.0000000000000091
 50
100.3048464687694
 51
180.0
  0
LINE
  5
A4DB
  8
0
 10
242.49999999999949
 20
108.5000000000005
 30
0.0
 11
225.48728088790571
 21
108.5000000000005
 31
0.0
  0
LINE
  5
A4DC
  8
0
 10
199.49999999999989
 20
103.6781427586846
 30
0.0
 11
199.49999999999989
 21
100.0000000000005
 31
0.0
  0
ARC
  5
A4ED
  8
0
 10
301.0
 20
-15.49999999999762
 30
0.0
 40
134.99999459333119
 50
64.320711380546527
 51
115.6792886194534
  0
ARC
  5
A4EE
  8
0
 10
300.99999999999989
 20
-20.499999999997389
 30
0.0
 40
134.9999948744929
 50
64.320710334594082
 51
115.6792896654059
  0
LINE
  5
A4F0
  8
2
 10
223.1499999999989
 20
106.1627191120934
 30
0.0
 11
218.85000000000011
 21
106.1627191120934
 31
0.0
  0
LINE
  5
A4F9
  8
2
 10
223.1499999999989
 20
106.1627191120934
 30
0.0
 11
223.14999999999881
 21
102.9999999999999
 31
0.0
  0
LINE
  5
A4FA
  8
2
 10
218.84999999999889
 20
106.16271911209461
 30
0.0
 11
218.8499999999988
 21
102.9999999999999
 31
0.0
  0
LINE
  5
A4FC
  8
2
 10
218.84999999999889
 20
106.16271911209461
 30
0.0
 11
217.26923076923029
 21
107.7434883428631
 31
0.0
  0
LINE
  5
A4FD
  8
2
 10
223.1499999999989
 20
106.1627191120934
 30
0.0
 11
225.48728088790571
 21
108.5000000000002
 31
0.0
  0
ARC
  5
A510
  8
2
 10
301.00000003153548
 20
-15.500000065223761
 30
0.0
 40
134.9999946657806
 50
115.67928861952571
 51
115.9330647791941
  0
ARC
  5
A517
  8
2
 10
238.02579893321391
 20
109.0000000000027
 30
0.0
 40
8.9999999999999432
 50
270.0
 51
295.93306477926649
  0
LINE
  5
A51B
  8
2
 10
232.99999999999989
 20
105.0000000000027
 30
0.0
 11
238.02579893321391
 21
105.0000000000027
 31
0.0
  0
ARC
  5
A51D
  8
2
 10
300.99999998629659
 20
-20.499999971675191
 30
0.0
 40
134.99999484303001
 50
115.67928966536969
 51
115.93306477929551
  0
LINE
  5
A520
  8
2
 10
232.99999999999989
 20
105.0000000000027
 30
0.0
 11
232.99999999999989
 21
100.0000000000027
 31
0.0
  0
ARC
  5
A521
  8
2
 10
238.02579893321391
 20
114.0000000000026
 30
0.0
 40
8.9999999999998863
 50
270.0
 51
295.93306477926649
  0
LINE
  5
A526
  8
2
 10
205.4999999999998
 20
101.9999999999998
 30
0.0
 11
232.99999999999989
 21
101.9999999999998
 31
0.0
  0
LINE
  5
A527
  8
2
 10
232.99999999999989
 20
102.9999999999999
 30
0.0
 11
205.49999999999969
 21
102.9999999999999
 31
0.0
  0
LINE
  5
A534
  8
2
 10
205.4999999999998
 20
102.9999999999998
 30
0.0
 11
205.4999999999998
 21
101.9999999999998
 31
0.0
  0
LINE
  5
A55F
  8
1
 10
220.99999999999949
 20
97.000000000000554
 30
0.0
 11
220.99999999999949
 21
110.8800747996177
 31
0.0
  0
POLYLINE
  5
A567
  8
0
 10
218.76659279936678
 20
196.71197282035246
 30
0.0
 66
     1
 70
     8
  0
VERTEX
  8
0
  5
AD2D
 10
218.767
 20
196.712
 30
0.000000
  70
    32
  0
VERTEX
  8
0
  5
AD2E
 10
218.825
 20
196.679
 30
0.000000
  70
    32
  0
VERTEX
  8
0
  5
AD2F
 10
218.885
 20
196.647
 30
0.000000
  70
    32
  0
VERTEX
  8
0
  5
AD30
 10
218.945
 20
196.616
 30
0.000000
  70
    32
  0
VERTEX
  8
0
  5
AD31
 10
219.005
 20
196.586
 30
0.000000
  70
    32
  0
VERTEX
  8
0
  5
AD32
 10
219.065
 20
196.556
 30
0.000000
  70
    32
  0
VERTEX
  8
0
  5
AD33
 10
219.126
 20
196.528
 30
0.000000
  70
    32
  0
VERTEX
  8
0
  5
AD34
 10
219.188
 20
196.500
 30
0.000000
  70
    32
  0
VERTEX
  8
0
  5
AD35
 10
219.250
 20
196.474
 30
0.000000
  70
    32
  0
VERTEX
  8
0
  5
AD36
 10
219.312
 20
196.448
 30
0.000000
  70
    32
  0
VERTEX
  8
0
  5
AD37
 10
219.375
 20
196.423
 30
0.000000
  70
    32
  0
VERTEX
  8
0
  5
AD38
 10
219.438
 20
196.399
 30
0.000000
  70
    32
  0
VERTEX
  8
0
  5
AD39
 10
219.501
 20
196.377
 30
0.000000
  70
    32
  0
VERTEX
  8
0
  5
AD3A
 10
219.565
 20
196.355
 30
0.000000
  70
    32
  0
VERTEX
  8
0
  5
AD3B
 10
219.629
 20
196.334
 30
0.000000
  70
    32
  0
VERTEX
  8
0
  5
AD3C
 10
219.693
 20
196.314
 30
0.000000
  70
    32
  0
VERTEX
  8
0
  5
AD3D
 10
219.757
 20
196.295
 30
0.000000
  70
    32
  0
VERTEX
  8
0
  5
AD3E
 10
219.822
 20
196.277
 30
0.000000
  70
    32
  0
VERTEX
  8
0
  5
AD3F
 10
219.887
 20
196.259
 30
0.000000
  70
    32
  0
VERTEX
  8
0
  5
AD40
 10
219.953
 20
196.243
 30
0.000000
  70
    32
  0
VERTEX
  8
0
  5
AD41
 10
220.018
 20
196.228
 30
0.000000
  70
    32
  0
VERTEX
  8
0
  5
AD42
 10
220.084
 20
196.214
 30
0.000000
  70
    32
  0
VERTEX
  8
0
  5
AD43
 10
220.150
 20
196.201
 30
0.000000
  70
    32
  0
VERTEX
  8
0
  5
AD44
 10
220.216
 20
196.189
 30
0.000000
  70
    32
  0
VERTEX
  8
0
  5
AD45
 10
220.282
 20
196.177
 30
0.000000
  70
    32
  0
VERTEX
  8
0
  5
AD46
 10
220.349
 20
196.167
 30
0.000000
  70
    32
  0
VERTEX
  8
0
  5
AD47
 10
220.415
 20
196.158
 30
0.000000
  70
    32
  0
VERTEX
  8
0
  5
AD48
 10
220.482
 20
196.150
 30
0.000000
  70
    32
  0
VERTEX
  8
0
  5
AD49
 10
220.549
 20
196.142
 30
0.000000
  70
    32
  0
VERTEX
  8
0
  5
AD4A
 10
220.616
 20
196.136
 30
0.000000
  70
    32
  0
VERTEX
  8
0
  5
AD4B
 10
220.683
 20
196.131
 30
0.000000
  70
    32
  0
VERTEX
  8
0
  5
AD4C
 10
220.750
 20
196.127
 30
0.000000
  70
    32
  0
VERTEX
  8
0
  5
AD4D
 10
220.817
 20
196.123
 30
0.000000
  70
    32
  0
VERTEX
  8
0
  5
AD4E
 10
220.884
 20
196.121
 30
0.000000
  70
    32
  0
VERTEX
  8
0
  5
AD4F
 10
220.951
 20
196.120
 30
0.000000
  70
    32
  0
VERTEX
  8
0
  5
AD50
 10
221.019
 20
196.120
 30
0.000000
  70
    32
  0
VERTEX
  8
0
  5
AD51
 10
221.086
 20
196.121
 30
0.000000
  70
    32
  0
VERTEX
  8
0
  5
AD52
 10
221.153
 20
196.122
 30
0.000000
  70
    32
  0
VERTEX
  8
0
  5
AD53
 10
221.220
 20
196.125
 30
0.000000
  70
    32
  0
VERTEX
  8
0
  5
AD54
 10
221.287
 20
196.129
 30
0.000000
  70
    32
  0
VERTEX
  8
0
  5
AD55
 10
221.354
 20
196.134
 30
0.000000
  70
    32
  0
VERTEX
  8
0
  5
AD56
 10
221.421
 20
196.140
 30
0.000000
  70
    32
  0
VERTEX
  8
0
  5
AD57
 10
221.488
 20
196.146
 30
0.000000
  70
    32
  0
VERTEX
  8
0
  5
AD58
 10
221.555
 20
196.154
 30
0.000000
  70
    32
  0
VERTEX
  8
0
  5
AD59
 10
221.622
 20
196.163
 30
0.000000
  70
    32
  0
VERTEX
  8
0
  5
AD5A
 10
221.688
 20
196.173
 30
0.000000
  70
    32
  0
VERTEX
  8
0
  5
AD5B
 10
221.754
 20
196.183
 30
0.000000
  70
    32
  0
VERTEX
  8
0
  5
AD5C
 10
221.821
 20
196.195
 30
0.000000
  70
    32
  0
VERTEX
  8
0
  5
AD5D
 10
221.887
 20
196.208
 30
0.000000
  70
    32
  0
VERTEX
  8
0
  5
AD5E
 10
221.953
 20
196.222
 30
0.000000
  70
    32
  0
VERTEX
  8
0
  5
AD5F
 10
222.018
 20
196.236
 30
0.000000
  70
    32
  0
VERTEX
  8
0
  5
AD60
 10
222.084
 20
196.252
 30
0.000000
  70
    32
  0
VERTEX
  8
0
  5
AD61
 10
222.149
 20
196.269
 30
0.000000
  70
    32
  0
VERTEX
  8
0
  5
AD62
 10
222.214
 20
196.286
 30
0.000000
  70
    32
  0
VERTEX
  8
0
  5
AD63
 10
222.278
 20
196.305
 30
0.000000
  70
    32
  0
VERTEX
  8
0
  5
AD64
 10
222.343
 20
196.325
 30
0.000000
  70
    32
  0
VERTEX
  8
0
  5
AD65
 10
222.407
 20
196.345
 30
0.000000
  70
    32
  0
VERTEX
  8
0
  5
AD66
 10
222.471
 20
196.367
 30
0.000000
  70
    32
  0
VERTEX
  8
0
  5
AD67
 10
222.534
 20
196.389
 30
0.000000
  70
    32
  0
VERTEX
  8
0
  5
AD68
 10
222.597
 20
196.412
 30
0.000000
  70
    32
  0
VERTEX
  8
0
  5
AD69
 10
222.660
 20
196.437
 30
0.000000
  70
    32
  0
VERTEX
  8
0
  5
AD6A
 10
222.722
 20
196.462
 30
0.000000
  70
    32
  0
VERTEX
  8
0
  5
AD6B
 10
222.784
 20
196.488
 30
0.000000
  70
    32
  0
VERTEX
  8
0
  5
AD6C
 10
222.846
 20
196.515
 30
0.000000
  70
    32
  0
VERTEX
  8
0
  5
AD6D
 10
222.907
 20
196.543
 30
0.000000
  70
    32
  0
VERTEX
  8
0
  5
AD6E
 10
222.968
 20
196.572
 30
0.000000
  70
    32
  0
VERTEX
  8
0
  5
AD6F
 10
223.029
 20
196.602
 30
0.000000
  70
    32
  0
VERTEX
  8
0
  5
AD70
 10
223.089
 20
196.633
 30
0.000000
  70
    32
  0
VERTEX
  8
0
  5
AD71
 10
223.148
 20
196.665
 30
0.000000
  70
    32
  0
VERTEX
  8
0
  5
AD72
 10
223.207
 20
196.697
 30
0.000000
  70
    32
  0
VERTEX
  8
0
  5
AD73
 10
223.266
 20
196.731
 30
0.000000
  70
    32
  0
VERTEX
  8
0
  5
AD74
 10
223.324
 20
196.765
 30
0.000000
  70
    32
  0
VERTEX
  8
0
  5
AD75
 10
223.381
 20
196.800
 30
0.000000
  70
    32
  0
VERTEX
  8
0
  5
AD76
 10
223.438
 20
196.836
 30
0.000000
  70
    32
  0
VERTEX
  8
0
  5
AD77
 10
223.495
 20
196.873
 30
0.000000
  70
    32
  0
VERTEX
  8
0
  5
AD78
 10
223.551
 20
196.910
 30
0.000000
  70
    32
  0
VERTEX
  8
0
  5
AD79
 10
223.606
 20
196.949
 30
0.000000
  70
    32
  0
VERTEX
  8
0
  5
AD7A
 10
223.661
 20
196.988
 30
0.000000
  70
    32
  0
VERTEX
  8
0
  5
AD7B
 10
223.716
 20
197.029
 30
0.000000
  70
    32
  0
VERTEX
  8
0
  5
AD7C
 10
223.769
 20
197.069
 30
0.000000
  70
    32
  0
VERTEX
  8
0
  5
AD7D
 10
223.822
 20
197.111
 30
0.000000
  70
    32
  0
VERTEX
  8
0
  5
AD7E
 10
223.875
 20
197.154
 30
0.000000
  70
    32
  0
VERTEX
  8
0
  5
AD7F
 10
223.927
 20
197.197
 30
0.000000
  70
    32
  0
VERTEX
  8
0
  5
AD80
 10
223.978
 20
197.241
 30
0.000000
  70
    32
  0
VERTEX
  8
0
  5
AD81
 10
224.028
 20
197.286
 30
0.000000
  70
    32
  0
VERTEX
  8
0
  5
AD82
 10
224.078
 20
197.332
 30
0.000000
  70
    32
  0
VERTEX
  8
0
  5
AD83
 10
224.128
 20
197.378
 30
0.000000
  70
    32
  0
VERTEX
  8
0
  5
AD84
 10
224.176
 20
197.425
 30
0.000000
  70
    32
  0
VERTEX
  8
0
  5
AD85
 10
224.224
 20
197.473
 30
0.000000
  70
    32
  0
VERTEX
  8
0
  5
AD86
 10
224.271
 20
197.521
 30
0.000000
  70
    32
  0
VERTEX
  8
0
  5
AD87
 10
224.318
 20
197.571
 30
0.000000
  70
    32
  0
VERTEX
  8
0
  5
AD88
 10
224.363
 20
197.621
 30
0.000000
  70
    32
  0
VERTEX
  8
0
  5
AD89
 10
224.408
 20
197.671
 30
0.000000
  70
    32
  0
VERTEX
  8
0
  5
AD8A
 10
224.453
 20
197.722
 30
0.000000
  70
    32
  0
VERTEX
  8
0
  5
AD8B
 10
224.496
 20
197.774
 30
0.000000
  70
    32
  0
VERTEX
  8
0
  5
AD8C
 10
224.539
 20
197.827
 30
0.000000
  70
    32
  0
VERTEX
  8
0
  5
AD8D
 10
224.581
 20
197.880
 30
0.000000
  70
    32
  0
VERTEX
  8
0
  5
AD8E
 10
224.622
 20
197.934
 30
0.000000
  70
    32
  0
VERTEX
  8
0
  5
AD8F
 10
224.663
 20
197.988
 30
0.000000
  70
    32
  0
VERTEX
  8
0
  5
AD90
 10
224.702
 20
198.043
 30
0.000000
  70
    32
  0
VERTEX
  8
0
  5
AD91
 10
224.741
 20
198.099
 30
0.000000
  70
    32
  0
VERTEX
  8
0
  5
AD92
 10
224.779
 20
198.155
 30
0.000000
  70
    32
  0
VERTEX
  8
0
  5
AD93
 10
224.816
 20
198.212
 30
0.000000
  70
    32
  0
VERTEX
  8
0
  5
AD94
 10
224.853
 20
198.269
 30
0.000000
  70
    32
  0
VERTEX
  8
0
  5
AD95
 10
224.888
 20
198.327
 30
0.000000
  70
    32
  0
VERTEX
  8
0
  5
AD96
 10
224.923
 20
198.385
 30
0.000000
  70
    32
  0
VERTEX
  8
0
  5
AD97
 10
224.957
 20
198.444
 30
0.000000
  70
    32
  0
VERTEX
  8
0
  5
AD98
 10
224.989
 20
198.503
 30
0.000000
  70
    32
  0
VERTEX
  8
0
  5
AD99
 10
225.022
 20
198.563
 30
0.000000
  70
    32
  0
VERTEX
  8
0
  5
AD9A
 10
225.053
 20
198.623
 30
0.000000
  70
    32
  0
VERTEX
  8
0
  5
AD9B
 10
225.083
 20
198.684
 30
0.000000
  70
    32
  0
VERTEX
  8
0
  5
AD9C
 10
225.113
 20
198.745
 30
0.000000
  70
    32
  0
VERTEX
  8
0
  5
AD9D
 10
225.141
 20
198.807
 30
0.000000
  70
    32
  0
VERTEX
  8
0
  5
AD9E
 10
225.169
 20
198.869
 30
0.000000
  70
    32
  0
VERTEX
  8
0
  5
AD9F
 10
225.196
 20
198.932
 30
0.000000
  70
    32
  0
VERTEX
  8
0
  5
ADA0
 10
225.221
 20
198.994
 30
0.000000
  70
    32
  0
VERTEX
  8
0
  5
ADA1
 10
225.246
 20
199.058
 30
0.000000
  70
    32
  0
VERTEX
  8
0
  5
ADA2
 10
225.270
 20
199.121
 30
0.000000
  70
    32
  0
VERTEX
  8
0
  5
ADA3
 10
225.293
 20
199.185
 30
0.000000
  70
    32
  0
VERTEX
  8
0
  5
ADA4
 10
225.315
 20
199.250
 30
0.000000
  70
    32
  0
VERTEX
  8
0
  5
ADA5
 10
225.337
 20
199.314
 30
0.000000
  70
    32
  0
VERTEX
  8
0
  5
ADA6
 10
225.357
 20
199.379
 30
0.000000
  70
    32
  0
VERTEX
  8
0
  5
ADA7
 10
225.376
 20
199.444
 30
0.000000
  70
    32
  0
VERTEX
  8
0
  5
ADA8
 10
225.395
 20
199.510
 30
0.000000
  70
    32
  0
VERTEX
  8
0
  5
ADA9
 10
225.412
 20
199.576
 30
0.000000
  70
    32
  0
VERTEX
  8
0
  5
ADAA
 10
225.428
 20
199.642
 30
0.000000
  70
    32
  0
VERTEX
  8
0
  5
ADAB
 10
225.444
 20
199.708
 30
0.000000
  70
    32
  0
VERTEX
  8
0
  5
ADAC
 10
225.458
 20
199.774
 30
0.000000
  70
    32
  0
VERTEX
  8
0
  5
ADAD
 10
225.472
 20
199.841
 30
0.000000
  70
    32
  0
SEQEND
  8
0
  5
ADAE
  0
LINE
  5
A568
  8
0
 10
211.99999999999889
 20
187.4990792622161
 30
0.0
 11
242.49999999999889
 21
187.4990792622161
 31
0.0
  0
LINE
  5
A56B
  8
0
 10
242.49999999999889
 20
212.4990792622161
 30
0.0
 11
211.99999999999889
 21
212.4990792622161
 31
0.0
  0
POLYLINE
  5
A56C
  8
0
 10
225.47193153810713
 20
200.15706976332169
 30
0.0
 66
     1
 70
     8
  0
VERTEX
  8
0
  5
ADAF
 10
225.472
 20
200.157
 30
0.000000
  70
    32
  0
VERTEX
  8
0
  5
ADB0
 10
225.458
 20
200.224
 30
0.000000
  70
    32
  0
VERTEX
  8
0
  5
ADB1
 10
225.444
 20
200.290
 30
0.000000
  70
    32
  0
VERTEX
  8
0
  5
ADB2
 10
225.428
 20
200.357
 30
0.000000
  70
    32
  0
VERTEX
  8
0
  5
ADB3
 10
225.412
 20
200.423
 30
0.000000
  70
    32
  0
VERTEX
  8
0
  5
ADB4
 10
225.395
 20
200.488
 30
0.000000
  70
    32
  0
VERTEX
  8
0
  5
ADB5
 10
225.376
 20
200.554
 30
0.000000
  70
    32
  0
VERTEX
  8
0
  5
ADB6
 10
225.357
 20
200.619
 30
0.000000
  70
    32
  0
VERTEX
  8
0
  5
ADB7
 10
225.337
 20
200.684
 30
0.000000
  70
    32
  0
VERTEX
  8
0
  5
ADB8
 10
225.315
 20
200.749
 30
0.000000
  70
    32
  0
VERTEX
  8
0
  5
ADB9
 10
225.293
 20
200.813
 30
0.000000
  70
    32
  0
VERTEX
  8
0
  5
ADBA
 10
225.270
 20
200.877
 30
0.000000
  70
    32
  0
VERTEX
  8
0
  5
ADBB
 10
225.246
 20
200.940
 30
0.000000
  70
    32
  0
VERTEX
  8
0
  5
ADBC
 10
225.221
 20
201.004
 30
0.000000
  70
    32
  0
VERTEX
  8
0
  5
ADBD
 10
225.196
 20
201.067
 30
0.000000
  70
    32
  0
VERTEX
  8
0
  5
ADBE
 10
225.169
 20
201.129
 30
0.000000
  70
    32
  0
VERTEX
  8
0
  5
ADBF
 10
225.141
 20
201.191
 30
0.000000
  70
    32
  0
VERTEX
  8
0
  5
ADC0
 10
225.113
 20
201.253
 30
0.000000
  70
    32
  0
VERTEX
  8
0
  5
ADC1
 10
225.083
 20
201.314
 30
0.000000
  70
    32
  0
VERTEX
  8
0
  5
ADC2
 10
225.053
 20
201.375
 30
0.000000
  70
    32
  0
VERTEX
  8
0
  5
ADC3
 10
225.022
 20
201.435
 30
0.000000
  70
    32
  0
VERTEX
  8
0
  5
ADC4
 10
224.989
 20
201.495
 30
0.000000
  70
    32
  0
VERTEX
  8
0
  5
ADC5
 10
224.957
 20
201.554
 30
0.000000
  70
    32
  0
VERTEX
  8
0
  5
ADC6
 10
224.923
 20
201.613
 30
0.000000
  70
    32
  0
VERTEX
  8
0
  5
ADC7
 10
224.888
 20
201.671
 30
0.000000
  70
    32
  0
VERTEX
  8
0
  5
ADC8
 10
224.853
 20
201.729
 30
0.000000
  70
    32
  0
VERTEX
  8
0
  5
ADC9
 10
224.816
 20
201.786
 30
0.000000
  70
    32
  0
VERTEX
  8
0
  5
ADCA
 10
224.779
 20
201.843
 30
0.000000
  70
    32
  0
VERTEX
  8
0
  5
ADCB
 10
224.741
 20
201.899
 30
0.000000
  70
    32
  0
VERTEX
  8
0
  5
ADCC
 10
224.702
 20
201.955
 30
0.000000
  70
    32
  0
VERTEX
  8
0
  5
ADCD
 10
224.663
 20
202.010
 30
0.000000
  70
    32
  0
VERTEX
  8
0
  5
ADCE
 10
224.622
 20
202.064
 30
0.000000
  70
    32
  0
VERTEX
  8
0
  5
ADCF
 10
224.581
 20
202.118
 30
0.000000
  70
    32
  0
VERTEX
  8
0
  5
ADD0
 10
224.539
 20
202.171
 30
0.000000
  70
    32
  0
VERTEX
  8
0
  5
ADD1
 10
224.496
 20
202.224
 30
0.000000
  70
    32
  0
VERTEX
  8
0
  5
ADD2
 10
224.453
 20
202.276
 30
0.000000
  70
    32
  0
VERTEX
  8
0
  5
ADD3
 10
224.408
 20
202.327
 30
0.000000
  70
    32
  0
VERTEX
  8
0
  5
ADD4
 10
224.363
 20
202.378
 30
0.000000
  70
    32
  0
VERTEX
  8
0
  5
ADD5
 10
224.318
 20
202.428
 30
0.000000
  70
    32
  0
VERTEX
  8
0
  5
ADD6
 10
224.271
 20
202.477
 30
0.000000
  70
    32
  0
VERTEX
  8
0
  5
ADD7
 10
224.224
 20
202.525
 30
0.000000
  70
    32
  0
VERTEX
  8
0
  5
ADD8
 10
224.176
 20
202.573
 30
0.000000
  70
    32
  0
VERTEX
  8
0
  5
ADD9
 10
224.128
 20
202.620
 30
0.000000
  70
    32
  0
VERTEX
  8
0
  5
ADDA
 10
224.078
 20
202.666
 30
0.000000
  70
    32
  0
VERTEX
  8
0
  5
ADDB
 10
224.028
 20
202.712
 30
0.000000
  70
    32
  0
VERTEX
  8
0
  5
ADDC
 10
223.978
 20
202.757
 30
0.000000
  70
    32
  0
VERTEX
  8
0
  5
ADDD
 10
223.927
 20
202.801
 30
0.000000
  70
    32
  0
VERTEX
  8
0
  5
ADDE
 10
223.875
 20
202.844
 30
0.000000
  70
    32
  0
VERTEX
  8
0
  5
ADDF
 10
223.822
 20
202.887
 30
0.000000
  70
    32
  0
VERTEX
  8
0
  5
ADE0
 10
223.769
 20
202.929
 30
0.000000
  70
    32
  0
VERTEX
  8
0
  5
ADE1
 10
223.716
 20
202.970
 30
0.000000
  70
    32
  0
VERTEX
  8
0
  5
ADE2
 10
223.661
 20
203.010
 30
0.000000
  70
    32
  0
VERTEX
  8
0
  5
ADE3
 10
223.606
 20
203.049
 30
0.000000
  70
    32
  0
VERTEX
  8
0
  5
ADE4
 10
223.551
 20
203.088
 30
0.000000
  70
    32
  0
VERTEX
  8
0
  5
ADE5
 10
223.495
 20
203.125
 30
0.000000
  70
    32
  0
VERTEX
  8
0
  5
ADE6
 10
223.438
 20
203.162
 30
0.000000
  70
    32
  0
VERTEX
  8
0
  5
ADE7
 10
223.381
 20
203.198
 30
0.000000
  70
    32
  0
VERTEX
  8
0
  5
ADE8
 10
223.324
 20
203.233
 30
0.000000
  70
    32
  0
VERTEX
  8
0
  5
ADE9
 10
223.266
 20
203.268
 30
0.000000
  70
    32
  0
VERTEX
  8
0
  5
ADEA
 10
223.207
 20
203.301
 30
0.000000
  70
    32
  0
VERTEX
  8
0
  5
ADEB
 10
223.148
 20
203.334
 30
0.000000
  70
    32
  0
VERTEX
  8
0
  5
ADEC
 10
223.089
 20
203.365
 30
0.000000
  70
    32
  0
VERTEX
  8
0
  5
ADED
 10
223.029
 20
203.396
 30
0.000000
  70
    32
  0
VERTEX
  8
0
  5
ADEE
 10
222.968
 20
203.426
 30
0.000000
  70
    32
  0
VERTEX
  8
0
  5
ADEF
 10
222.907
 20
203.455
 30
0.000000
  70
    32
  0
VERTEX
  8
0
  5
ADF0
 10
222.846
 20
203.483
 30
0.000000
  70
    32
  0
VERTEX
  8
0
  5
ADF1
 10
222.784
 20
203.510
 30
0.000000
  70
    32
  0
VERTEX
  8
0
  5
ADF2
 10
222.722
 20
203.536
 30
0.000000
  70
    32
  0
VERTEX
  8
0
  5
ADF3
 10
222.660
 20
203.561
 30
0.000000
  70
    32
  0
VERTEX
  8
0
  5
ADF4
 10
222.597
 20
203.586
 30
0.000000
  70
    32
  0
VERTEX
  8
0
  5
ADF5
 10
222.534
 20
203.609
 30
0.000000
  70
    32
  0
VERTEX
  8
0
  5
ADF6
 10
222.471
 20
203.632
 30
0.000000
  70
    32
  0
VERTEX
  8
0
  5
ADF7
 10
222.407
 20
203.653
 30
0.000000
  70
    32
  0
VERTEX
  8
0
  5
ADF8
 10
222.343
 20
203.674
 30
0.000000
  70
    32
  0
VERTEX
  8
0
  5
ADF9
 10
222.278
 20
203.693
 30
0.000000
  70
    32
  0
VERTEX
  8
0
  5
ADFA
 10
222.214
 20
203.712
 30
0.000000
  70
    32
  0
VERTEX
  8
0
  5
ADFB
 10
222.149
 20
203.729
 30
0.000000
  70
    32
  0
VERTEX
  8
0
  5
ADFC
 10
222.084
 20
203.746
 30
0.000000
  70
    32
  0
VERTEX
  8
0
  5
ADFD
 10
222.018
 20
203.762
 30
0.000000
  70
    32
  0
VERTEX
  8
0
  5
ADFE
 10
221.953
 20
203.776
 30
0.000000
  70
    32
  0
VERTEX
  8
0
  5
ADFF
 10
221.887
 20
203.790
 30
0.000000
  70
    32
  0
VERTEX
  8
0
  5
AE00
 10
221.821
 20
203.803
 30
0.000000
  70
    32
  0
VERTEX
  8
0
  5
AE01
 10
221.754
 20
203.815
 30
0.000000
  70
    32
  0
VERTEX
  8
0
  5
AE02
 10
221.688
 20
203.825
 30
0.000000
  70
    32
  0
VERTEX
  8
0
  5
AE03
 10
221.622
 20
203.835
 30
0.000000
  70
    32
  0
VERTEX
  8
0
  5
AE04
 10
221.555
 20
203.844
 30
0.000000
  70
    32
  0
VERTEX
  8
0
  5
AE05
 10
221.488
 20
203.852
 30
0.000000
  70
    32
  0
VERTEX
  8
0
  5
AE06
 10
221.421
 20
203.859
 30
0.000000
  70
    32
  0
VERTEX
  8
0
  5
AE07
 10
221.354
 20
203.864
 30
0.000000
  70
    32
  0
VERTEX
  8
0
  5
AE08
 10
221.287
 20
203.869
 30
0.000000
  70
    32
  0
VERTEX
  8
0
  5
AE09
 10
221.220
 20
203.873
 30
0.000000
  70
    32
  0
VERTEX
  8
0
  5
AE0A
 10
221.153
 20
203.876
 30
0.000000
  70
    32
  0
VERTEX
  8
0
  5
AE0B
 10
221.086
 20
203.878
 30
0.000000
  70
    32
  0
VERTEX
  8
0
  5
AE0C
 10
221.019
 20
203.878
 30
0.000000
  70
    32
  0
VERTEX
  8
0
  5
AE0D
 10
220.951
 20
203.878
 30
0.000000
  70
    32
  0
VERTEX
  8
0
  5
AE0E
 10
220.884
 20
203.877
 30
0.000000
  70
    32
  0
VERTEX
  8
0
  5
AE0F
 10
220.817
 20
203.875
 30
0.000000
  70
    32
  0
VERTEX
  8
0
  5
AE10
 10
220.750
 20
203.871
 30
0.000000
  70
    32
  0
VERTEX
  8
0
  5
AE11
 10
220.683
 20
203.867
 30
0.000000
  70
    32
  0
VERTEX
  8
0
  5
AE12
 10
220.616
 20
203.862
 30
0.000000
  70
    32
  0
VERTEX
  8
0
  5
AE13
 10
220.549
 20
203.856
 30
0.000000
  70
    32
  0
VERTEX
  8
0
  5
AE14
 10
220.482
 20
203.848
 30
0.000000
  70
    32
  0
VERTEX
  8
0
  5
AE15
 10
220.415
 20
203.840
 30
0.000000
  70
    32
  0
VERTEX
  8
0
  5
AE16
 10
220.349
 20
203.831
 30
0.000000
  70
    32
  0
VERTEX
  8
0
  5
AE17
 10
220.282
 20
203.821
 30
0.000000
  70
    32
  0
VERTEX
  8
0
  5
AE18
 10
220.216
 20
203.810
 30
0.000000
  70
    32
  0
VERTEX
  8
0
  5
AE19
 10
220.150
 20
203.797
 30
0.000000
  70
    32
  0
VERTEX
  8
0
  5
AE1A
 10
220.084
 20
203.784
 30
0.000000
  70
    32
  0
VERTEX
  8
0
  5
AE1B
 10
220.018
 20
203.770
 30
0.000000
  70
    32
  0
VERTEX
  8
0
  5
AE1C
 10
219.953
 20
203.755
 30
0.000000
  70
    32
  0
VERTEX
  8
0
  5
AE1D
 10
219.887
 20
203.739
 30
0.000000
  70
    32
  0
VERTEX
  8
0
  5
AE1E
 10
219.822
 20
203.722
 30
0.000000
  70
    32
  0
VERTEX
  8
0
  5
AE1F
 10
219.757
 20
203.704
 30
0.000000
  70
    32
  0
VERTEX
  8
0
  5
AE20
 10
219.693
 20
203.684
 30
0.000000
  70
    32
  0
VERTEX
  8
0
  5
AE21
 10
219.629
 20
203.664
 30
0.000000
  70
    32
  0
VERTEX
  8
0
  5
AE22
 10
219.565
 20
203.643
 30
0.000000
  70
    32
  0
VERTEX
  8
0
  5
AE23
 10
219.501
 20
203.622
 30
0.000000
  70
    32
  0
VERTEX
  8
0
  5
AE24
 10
219.438
 20
203.599
 30
0.000000
  70
    32
  0
VERTEX
  8
0
  5
AE25
 10
219.375
 20
203.575
 30
0.000000
  70
    32
  0
VERTEX
  8
0
  5
AE26
 10
219.312
 20
203.550
 30
0.000000
  70
    32
  0
VERTEX
  8
0
  5
AE27
 10
219.250
 20
203.524
 30
0.000000
  70
    32
  0
VERTEX
  8
0
  5
AE28
 10
219.188
 20
203.498
 30
0.000000
  70
    32
  0
VERTEX
  8
0
  5
AE29
 10
219.126
 20
203.470
 30
0.000000
  70
    32
  0
VERTEX
  8
0
  5
AE2A
 10
219.065
 20
203.442
 30
0.000000
  70
    32
  0
VERTEX
  8
0
  5
AE2B
 10
219.005
 20
203.413
 30
0.000000
  70
    32
  0
VERTEX
  8
0
  5
AE2C
 10
218.945
 20
203.382
 30
0.000000
  70
    32
  0
VERTEX
  8
0
  5
AE2D
 10
218.885
 20
203.351
 30
0.000000
  70
    32
  0
VERTEX
  8
0
  5
AE2E
 10
218.825
 20
203.319
 30
0.000000
  70
    32
  0
VERTEX
  8
0
  5
AE2F
 10
218.767
 20
203.286
 30
0.000000
  70
    32
  0
SEQEND
  8
0
  5
AE30
  0
ARC
  5
A56D
  8
0
 10
211.99999999999881
 20
199.9990792622161
 30
0.0
 40
12.49999999999944
 50
154.64770023389659
 51
205.35229998981231
  0
ARC
  5
A56F
  8
0
 10
211.99999999999849
 20
199.99907926221729
 30
0.0
 40
12.499999999998749
 50
89.999999999998309
 51
154.64770023390111
  0
POLYLINE
  5
A571
  8
0
 10
218.57619862334215
 20
203.14127331413698
 30
0.0
 66
     1
 70
     8
  0
VERTEX
  8
0
  5
AE31
 10
218.576
 20
203.141
 30
0.000000
  70
    32
  0
VERTEX
  8
0
  5
AE32
 10
218.538
 20
203.102
 30
0.000000
  70
    32
  0
VERTEX
  8
0
  5
AE33
 10
218.500
 20
203.063
 30
0.000000
  70
    32
  0
VERTEX
  8
0
  5
AE34
 10
218.462
 20
203.023
 30
0.000000
  70
    32
  0
VERTEX
  8
0
  5
AE35
 10
218.425
 20
202.982
 30
0.000000
  70
    32
  0
VERTEX
  8
0
  5
AE36
 10
218.388
 20
202.942
 30
0.000000
  70
    32
  0
VERTEX
  8
0
  5
AE37
 10
218.352
 20
202.900
 30
0.000000
  70
    32
  0
VERTEX
  8
0
  5
AE38
 10
218.317
 20
202.859
 30
0.000000
  70
    32
  0
VERTEX
  8
0
  5
AE39
 10
218.282
 20
202.817
 30
0.000000
  70
    32
  0
VERTEX
  8
0
  5
AE3A
 10
218.247
 20
202.774
 30
0.000000
  70
    32
  0
VERTEX
  8
0
  5
AE3B
 10
218.213
 20
202.731
 30
0.000000
  70
    32
  0
VERTEX
  8
0
  5
AE3C
 10
218.180
 20
202.688
 30
0.000000
  70
    32
  0
VERTEX
  8
0
  5
AE3D
 10
218.147
 20
202.644
 30
0.000000
  70
    32
  0
VERTEX
  8
0
  5
AE3E
 10
218.115
 20
202.600
 30
0.000000
  70
    32
  0
VERTEX
  8
0
  5
AE3F
 10
218.083
 20
202.555
 30
0.000000
  70
    32
  0
VERTEX
  8
0
  5
AE40
 10
218.052
 20
202.510
 30
0.000000
  70
    32
  0
VERTEX
  8
0
  5
AE41
 10
218.021
 20
202.465
 30
0.000000
  70
    32
  0
VERTEX
  8
0
  5
AE42
 10
217.991
 20
202.420
 30
0.000000
  70
    32
  0
VERTEX
  8
0
  5
AE43
 10
217.961
 20
202.374
 30
0.000000
  70
    32
  0
VERTEX
  8
0
  5
AE44
 10
217.932
 20
202.327
 30
0.000000
  70
    32
  0
VERTEX
  8
0
  5
AE45
 10
217.904
 20
202.281
 30
0.000000
  70
    32
  0
VERTEX
  8
0
  5
AE46
 10
217.876
 20
202.234
 30
0.000000
  70
    32
  0
VERTEX
  8
0
  5
AE47
 10
217.849
 20
202.186
 30
0.000000
  70
    32
  0
VERTEX
  8
0
  5
AE48
 10
217.822
 20
202.139
 30
0.000000
  70
    32
  0
VERTEX
  8
0
  5
AE49
 10
217.796
 20
202.091
 30
0.000000
  70
    32
  0
VERTEX
  8
0
  5
AE4A
 10
217.770
 20
202.042
 30
0.000000
  70
    32
  0
VERTEX
  8
0
  5
AE4B
 10
217.745
 20
201.994
 30
0.000000
  70
    32
  0
VERTEX
  8
0
  5
AE4C
 10
217.721
 20
201.945
 30
0.000000
  70
    32
  0
VERTEX
  8
0
  5
AE4D
 10
217.697
 20
201.896
 30
0.000000
  70
    32
  0
VERTEX
  8
0
  5
AE4E
 10
217.674
 20
201.846
 30
0.000000
  70
    32
  0
VERTEX
  8
0
  5
AE4F
 10
217.652
 20
201.797
 30
0.000000
  70
    32
  0
VERTEX
  8
0
  5
AE50
 10
217.630
 20
201.747
 30
0.000000
  70
    32
  0
VERTEX
  8
0
  5
AE51
 10
217.609
 20
201.697
 30
0.000000
  70
    32
  0
VERTEX
  8
0
  5
AE52
 10
217.588
 20
201.646
 30
0.000000
  70
    32
  0
VERTEX
  8
0
  5
AE53
 10
217.568
 20
201.595
 30
0.000000
  70
    32
  0
VERTEX
  8
0
  5
AE54
 10
217.549
 20
201.544
 30
0.000000
  70
    32
  0
VERTEX
  8
0
  5
AE55
 10
217.530
 20
201.493
 30
0.000000
  70
    32
  0
VERTEX
  8
0
  5
AE56
 10
217.512
 20
201.442
 30
0.000000
  70
    32
  0
VERTEX
  8
0
  5
AE57
 10
217.494
 20
201.390
 30
0.000000
  70
    32
  0
VERTEX
  8
0
  5
AE58
 10
217.477
 20
201.338
 30
0.000000
  70
    32
  0
VERTEX
  8
0
  5
AE59
 10
217.461
 20
201.286
 30
0.000000
  70
    32
  0
VERTEX
  8
0
  5
AE5A
 10
217.446
 20
201.234
 30
0.000000
  70
    32
  0
VERTEX
  8
0
  5
AE5B
 10
217.431
 20
201.182
 30
0.000000
  70
    32
  0
VERTEX
  8
0
  5
AE5C
 10
217.416
 20
201.129
 30
0.000000
  70
    32
  0
VERTEX
  8
0
  5
AE5D
 10
217.403
 20
201.076
 30
0.000000
  70
    32
  0
VERTEX
  8
0
  5
AE5E
 10
217.390
 20
201.024
 30
0.000000
  70
    32
  0
VERTEX
  8
0
  5
AE5F
 10
217.378
 20
200.971
 30
0.000000
  70
    32
  0
VERTEX
  8
0
  5
AE60
 10
217.366
 20
200.917
 30
0.000000
  70
    32
  0
VERTEX
  8
0
  5
AE61
 10
217.355
 20
200.864
 30
0.000000
  70
    32
  0
VERTEX
  8
0
  5
AE62
 10
217.345
 20
200.811
 30
0.000000
  70
    32
  0
VERTEX
  8
0
  5
AE63
 10
217.335
 20
200.757
 30
0.000000
  70
    32
  0
VERTEX
  8
0
  5
AE64
 10
217.326
 20
200.703
 30
0.000000
  70
    32
  0
VERTEX
  8
0
  5
AE65
 10
217.317
 20
200.650
 30
0.000000
  70
    32
  0
VERTEX
  8
0
  5
AE66
 10
217.310
 20
200.596
 30
0.000000
  70
    32
  0
VERTEX
  8
0
  5
AE67
 10
217.303
 20
200.542
 30
0.000000
  70
    32
  0
VERTEX
  8
0
  5
AE68
 10
217.296
 20
200.488
 30
0.000000
  70
    32
  0
VERTEX
  8
0
  5
AE69
 10
217.291
 20
200.434
 30
0.000000
  70
    32
  0
VERTEX
  8
0
  5
AE6A
 10
217.286
 20
200.379
 30
0.000000
  70
    32
  0
VERTEX
  8
0
  5
AE6B
 10
217.281
 20
200.325
 30
0.000000
  70
    32
  0
VERTEX
  8
0
  5
AE6C
 10
217.278
 20
200.271
 30
0.000000
  70
    32
  0
VERTEX
  8
0
  5
AE6D
 10
217.275
 20
200.217
 30
0.000000
  70
    32
  0
VERTEX
  8
0
  5
AE6E
 10
217.272
 20
200.162
 30
0.000000
  70
    32
  0
VERTEX
  8
0
  5
AE6F
 10
217.271
 20
200.108
 30
0.000000
  70
    32
  0
VERTEX
  8
0
  5
AE70
 10
217.270
 20
200.053
 30
0.000000
  70
    32
  0
VERTEX
  8
0
  5
AE71
 10
217.269
 20
199.999
 30
0.000000
  70
    32
  0
VERTEX
  8
0
  5
AE72
 10
217.270
 20
199.945
 30
0.000000
  70
    32
  0
VERTEX
  8
0
  5
AE73
 10
217.271
 20
199.890
 30
0.000000
  70
    32
  0
VERTEX
  8
0
  5
AE74
 10
217.272
 20
199.836
 30
0.000000
  70
    32
  0
VERTEX
  8
0
  5
AE75
 10
217.275
 20
199.782
 30
0.000000
  70
    32
  0
VERTEX
  8
0
  5
AE76
 10
217.278
 20
199.727
 30
0.000000
  70
    32
  0
VERTEX
  8
0
  5
AE77
 10
217.281
 20
199.673
 30
0.000000
  70
    32
  0
VERTEX
  8
0
  5
AE78
 10
217.286
 20
199.619
 30
0.000000
  70
    32
  0
VERTEX
  8
0
  5
AE79
 10
217.291
 20
199.565
 30
0.000000
  70
    32
  0
VERTEX
  8
0
  5
AE7A
 10
217.296
 20
199.510
 30
0.000000
  70
    32
  0
VERTEX
  8
0
  5
AE7B
 10
217.303
 20
199.456
 30
0.000000
  70
    32
  0
VERTEX
  8
0
  5
AE7C
 10
217.310
 20
199.402
 30
0.000000
  70
    32
  0
VERTEX
  8
0
  5
AE7D
 10
217.317
 20
199.349
 30
0.000000
  70
    32
  0
VERTEX
  8
0
  5
AE7E
 10
217.326
 20
199.295
 30
0.000000
  70
    32
  0
VERTEX
  8
0
  5
AE7F
 10
217.335
 20
199.241
 30
0.000000
  70
    32
  0
VERTEX
  8
0
  5
AE80
 10
217.345
 20
199.188
 30
0.000000
  70
    32
  0
VERTEX
  8
0
  5
AE81
 10
217.355
 20
199.134
 30
0.000000
  70
    32
  0
VERTEX
  8
0
  5
AE82
 10
217.366
 20
199.081
 30
0.000000
  70
    32
  0
VERTEX
  8
0
  5
AE83
 10
217.378
 20
199.028
 30
0.000000
  70
    32
  0
VERTEX
  8
0
  5
AE84
 10
217.390
 20
198.975
 30
0.000000
  70
    32
  0
VERTEX
  8
0
  5
AE85
 10
217.403
 20
198.922
 30
0.000000
  70
    32
  0
VERTEX
  8
0
  5
AE86
 10
217.416
 20
198.869
 30
0.000000
  70
    32
  0
VERTEX
  8
0
  5
AE87
 10
217.431
 20
198.816
 30
0.000000
  70
    32
  0
VERTEX
  8
0
  5
AE88
 10
217.446
 20
198.764
 30
0.000000
  70
    32
  0
VERTEX
  8
0
  5
AE89
 10
217.461
 20
198.712
 30
0.000000
  70
    32
  0
VERTEX
  8
0
  5
AE8A
 10
217.477
 20
198.660
 30
0.000000
  70
    32
  0
VERTEX
  8
0
  5
AE8B
 10
217.494
 20
198.608
 30
0.000000
  70
    32
  0
VERTEX
  8
0
  5
AE8C
 10
217.512
 20
198.556
 30
0.000000
  70
    32
  0
VERTEX
  8
0
  5
AE8D
 10
217.530
 20
198.505
 30
0.000000
  70
    32
  0
VERTEX
  8
0
  5
AE8E
 10
217.549
 20
198.454
 30
0.000000
  70
    32
  0
VERTEX
  8
0
  5
AE8F
 10
217.568
 20
198.403
 30
0.000000
  70
    32
  0
VERTEX
  8
0
  5
AE90
 10
217.588
 20
198.352
 30
0.000000
  70
    32
  0
VERTEX
  8
0
  5
AE91
 10
217.609
 20
198.302
 30
0.000000
  70
    32
  0
VERTEX
  8
0
  5
AE92
 10
217.630
 20
198.251
 30
0.000000
  70
    32
  0
VERTEX
  8
0
  5
AE93
 10
217.652
 20
198.201
 30
0.000000
  70
    32
  0
VERTEX
  8
0
  5
AE94
 10
217.674
 20
198.152
 30
0.000000
  70
    32
  0
VERTEX
  8
0
  5
AE95
 10
217.697
 20
198.102
 30
0.000000
  70
    32
  0
VERTEX
  8
0
  5
AE96
 10
217.721
 20
198.053
 30
0.000000
  70
    32
  0
VERTEX
  8
0
  5
AE97
 10
217.745
 20
198.004
 30
0.000000
  70
    32
  0
VERTEX
  8
0
  5
AE98
 10
217.770
 20
197.956
 30
0.000000
  70
    32
  0
VERTEX
  8
0
  5
AE99
 10
217.796
 20
197.907
 30
0.000000
  70
    32
  0
VERTEX
  8
0
  5
AE9A
 10
217.822
 20
197.859
 30
0.000000
  70
    32
  0
VERTEX
  8
0
  5
AE9B
 10
217.849
 20
197.812
 30
0.000000
  70
    32
  0
VERTEX
  8
0
  5
AE9C
 10
217.876
 20
197.765
 30
0.000000
  70
    32
  0
VERTEX
  8
0
  5
AE9D
 10
217.904
 20
197.718
 30
0.000000
  70
    32
  0
VERTEX
  8
0
  5
AE9E
 10
217.932
 20
197.671
 30
0.000000
  70
    32
  0
VERTEX
  8
0
  5
AE9F
 10
217.961
 20
197.625
 30
0.000000
  70
    32
  0
VERTEX
  8
0
  5
AEA0
 10
217.991
 20
197.579
 30
0.000000
  70
    32
  0
VERTEX
  8
0
  5
AEA1
 10
218.021
 20
197.533
 30
0.000000
  70
    32
  0
VERTEX
  8
0
  5
AEA2
 10
218.052
 20
197.488
 30
0.000000
  70
    32
  0
VERTEX
  8
0
  5
AEA3
 10
218.083
 20
197.443
 30
0.000000
  70
    32
  0
VERTEX
  8
0
  5
AEA4
 10
218.115
 20
197.398
 30
0.000000
  70
    32
  0
VERTEX
  8
0
  5
AEA5
 10
218.147
 20
197.354
 30
0.000000
  70
    32
  0
VERTEX
  8
0
  5
AEA6
 10
218.180
 20
197.310
 30
0.000000
  70
    32
  0
VERTEX
  8
0
  5
AEA7
 10
218.213
 20
197.267
 30
0.000000
  70
    32
  0
VERTEX
  8
0
  5
AEA8
 10
218.247
 20
197.224
 30
0.000000
  70
    32
  0
VERTEX
  8
0
  5
AEA9
 10
218.282
 20
197.182
 30
0.000000
  70
    32
  0
VERTEX
  8
0
  5
AEAA
 10
218.317
 20
197.140
 30
0.000000
  70
    32
  0
VERTEX
  8
0
  5
AEAB
 10
218.352
 20
197.098
 30
0.000000
  70
    32
  0
VERTEX
  8
0
  5
AEAC
 10
218.388
 20
197.057
 30
0.000000
  70
    32
  0
VERTEX
  8
0
  5
AEAD
 10
218.425
 20
197.016
 30
0.000000
  70
    32
  0
VERTEX
  8
0
  5
AEAE
 10
218.462
 20
196.975
 30
0.000000
  70
    32
  0
VERTEX
  8
0
  5
AEAF
 10
218.500
 20
196.935
 30
0.000000
  70
    32
  0
VERTEX
  8
0
  5
AEB0
 10
218.538
 20
196.896
 30
0.000000
  70
    32
  0
VERTEX
  8
0
  5
AEB1
 10
218.576
 20
196.857
 30
0.000000
  70
    32
  0
SEQEND
  8
0
  5
AEB2
  0
LINE
  5
A574
  8
0
 10
242.49999999999889
 20
212.4990792622161
 30
0.0
 11
242.49999999999889
 21
187.4990792622161
 31
0.0
  0
LINE
  5
A588
  8
0
 10
359.50000000000159
 20
209.9990792622161
 30
0.0
 11
242.50000000000159
 21
209.9990792622161
 31
0.0
  0
LINE
  5
A589
  8
0
 10
242.50000234289209
 20
189.9990792622161
 30
0.0
 11
359.49999765711209
 21
189.9990792622161
 31
0.0
  0
LINE
  5
A5B1
  8
2
 10
232.9999999999992
 20
209.9990792622161
 30
0.0
 11
232.9999999999992
 21
189.9990792622161
 31
0.0
  0
LINE
  5
A5B2
  8
2
 10
232.9999999999992
 20
189.9990792622161
 30
0.0
 11
242.49999999999889
 21
189.9990792622161
 31
0.0
  0
LINE
  5
A5B3
  8
2
 10
242.49999999999869
 20
209.9990792622161
 30
0.0
 11
232.99999999999929
 21
209.9990792622161
 31
0.0
  0
LINE
  5
A5BD
  8
3
 10
359.50000000000449
 20
207.9990792622161
 30
0.0
 11
242.49999999999889
 21
207.9990792622161
 31
0.0
  0
ARC
  5
A5BE
  8
2
 10
208.49999999999909
 20
194.9990792622161
 30
0.0
 40
3.0
 50
180.0
 51
270.0
  0
LINE
  5
A5C2
  8
2
 10
213.29999999999879
 20
197.59907926221609
 30
0.0
 11
219.3721179403889
 21
197.59907926221609
 31
0.0
  0
LINE
  5
A5C6
  8
2
 10
232.9999999999992
 20
207.9990792622161
 30
0.0
 11
208.49999999999909
 21
207.9990792622161
 31
0.0
  0
LINE
  5
A5C9
  8
2
 10
219.37211794038899
 20
202.39907926221611
 30
0.0
 11
213.2999999999989
 21
202.39907926221611
 31
0.0
  0
LINE
  5
A5CB
  8
2
 10
208.49999999999909
 20
191.9990792622161
 30
0.0
 11
232.9999999999992
 21
191.99907926221599
 31
0.0
  0
LINE
  5
A5CD
  8
3
 10
242.49999999999889
 20
191.9990792622161
 30
0.0
 11
359.50000000000432
 21
191.9990792622161
 31
0.0
  0
ARC
  5
A5CF
  8
2
 10
213.29999999999879
 20
199.9990792622161
 30
0.0
 40
2.4000000000000048
 50
90.0
 51
270.0
  0
LINE
  5
A5D1
  8
2
 10
205.49999999999909
 20
194.9990792622161
 30
0.0
 11
205.49999999999909
 21
204.9990792622161
 31
0.0
  0
ARC
  5
A5D2
  8
2
 10
208.49999999999909
 20
204.9990792622161
 30
0.0
 40
3.0
 50
90.0
 51
180.0
  0
ARC
  5
A630
  8
0
 10
91.5
 20
103.10191040591739
 30
0.0
 40
4.0000000000004743
 50
99.090276920818695
 51
117.2434188057661
  0
LINE
  5
A631
  8
0
 10
100.1579905011066
 20
108.4875083741161
 30
0.0
 11
103.2871064418635
 21
107.98684982359499
 31
0.0
  0
LINE
  5
A632
  8
0
 10
112.4999999999999
 20
100.0
 30
0.0
 11
87.5
 21
100.0
 31
0.0
  0
ARC
  5
A633
  8
0
 10
91.5
 20
103.10191040591781
 30
0.0
 40
3.9999999999999618
 50
117.2434188057661
 51
180.0
  0
LINE
  5
A634
  8
0
 10
96.712893558136557
 20
107.98684982359499
 30
0.0
 11
99.842009498893404
 21
108.4875083741161
 31
0.0
  0
LINE
  5
A635
  8
0
 10
112.4999999999999
 20
100.0
 30
0.0
 11
112.4999999999999
 21
103.10191040591781
 31
0.0
  0
LINE
  5
A636
  8
0
 10
96.712893558136557
 20
107.98684982359489
 30
0.0
 11
90.868037995573332
 21
107.0516729335847
 31
0.0
  0
ARC
  5
A639
  8
0
 10
99.999999999999886
 20
107.5000677421996
 30
0.0
 40
0.9999322578003264
 50
80.910595032194308
 51
99.089404967799084
  0
LINE
  5
A63A
  8
0
 10
109.1319620044268
 20
107.0516729335847
 30
0.0
 11
103.2871064418635
 21
107.98684982359489
 31
0.0
  0
ARC
  5
A63B
  8
0
 10
108.4999999999999
 20
103.10191040591781
 30
0.0
 40
4.0
 50
0.0
 51
62.756581194233831
  0
ARC
  5
A63D
  8
0
 10
108.4999999999999
 20
103.10191040591739
 30
0.0
 40
4.0000000000004938
 50
62.756581194233831
 51
80.909723079181319
  0
LINE
  5
A63E
  8
0
 10
87.5
 20
103.10191040591781
 30
0.0
 11
87.500000000000014
 21
100.0
 31
0.0
  0
LINE
  5
A63F
  8
0
 10
90.0
 20
119.5000000000028
 30
0.0
 11
90.0
 21
106.8100096494657
 31
0.0
  0
LINE
  5
A640
  8
0
 10
109.9999999999999
 20
106.8100096494657
 30
0.0
 11
109.9999999999999
 21
119.5000000000028
 31
0.0
  0
LINE
  5
A641
  8
0
 10
109.9999999999999
 20
119.5000000000028
 30
0.0
 11
90.0
 21
119.5000000000028
 31
0.0
  0
LINE
  5
A821
  8
1
 10
194.49999999999929
 20
199.9990792622161
 30
0.0
 11
407.4999999999992
 21
199.9990792622161
 31
0.0
  0
LINE
  5
A822
  8
1
 10
213.2999999999991
 20
205.39907926221611
 30
0.0
 11
213.2999999999991
 21
194.59907926221609
 31
0.0
  0
LINE
  5
A823
  8
1
 10
220.99999999999889
 20
205.89907926221611
 30
0.0
 11
220.99999999999889
 21
194.09907926221609
 31
0.0
  0
ARC
  5
A82E
  8
0
 10
224.66650993308849
 20
199.9990792622163
 30
0.0
 40
0.8207709548165638
 50
348.90184511534329
 51
11.098154884571249
  0
ARC
  5
A831
  8
0
 10
219.2144611448729
 20
197.4979394044841
 30
0.0
 40
0.9046156787707953
 50
225.1250283102305
 51
240.32415666205111
  0
ARC
  5
A834
  8
0
 10
219.2144611448729
 20
202.50021911994801
 30
0.0
 40
0.9046156787707953
 50
119.67584333794871
 51
134.87497168976989
  0
ARC
  5
A839
  8
2
 10
220.99999999999889
 20
199.9990792622161
 30
0.0
 40
2.8999999999999768
 50
235.85157565505489
 51
124.1484243449451
  0
POLYLINE
  5
A83C
  8
0
 10
383.23340720063641
 20
196.7119728203528
 30
0.0
 66
     1
 70
     8
  0
VERTEX
  8
0
  5
AEB3
 10
383.233
 20
196.712
 30
0.000000
  70
    32
  0
VERTEX
  8
0
  5
AEB4
 10
383.175
 20
196.679
 30
0.000000
  70
    32
  0
VERTEX
  8
0
  5
AEB5
 10
383.115
 20
196.647
 30
0.000000
  70
    32
  0
VERTEX
  8
0
  5
AEB6
 10
383.055
 20
196.616
 30
0.000000
  70
    32
  0
VERTEX
  8
0
  5
AEB7
 10
382.995
 20
196.586
 30
0.000000
  70
    32
  0
VERTEX
  8
0
  5
AEB8
 10
382.935
 20
196.556
 30
0.000000
  70
    32
  0
VERTEX
  8
0
  5
AEB9
 10
382.874
 20
196.528
 30
0.000000
  70
    32
  0
VERTEX
  8
0
  5
AEBA
 10
382.812
 20
196.500
 30
0.000000
  70
    32
  0
VERTEX
  8
0
  5
AEBB
 10
382.750
 20
196.474
 30
0.000000
  70
    32
  0
VERTEX
  8
0
  5
AEBC
 10
382.688
 20
196.448
 30
0.000000
  70
    32
  0
VERTEX
  8
0
  5
AEBD
 10
382.625
 20
196.423
 30
0.000000
  70
    32
  0
VERTEX
  8
0
  5
AEBE
 10
382.562
 20
196.399
 30
0.000000
  70
    32
  0
VERTEX
  8
0
  5
AEBF
 10
382.499
 20
196.377
 30
0.000000
  70
    32
  0
VERTEX
  8
0
  5
AEC0
 10
382.435
 20
196.355
 30
0.000000
  70
    32
  0
VERTEX
  8
0
  5
AEC1
 10
382.371
 20
196.334
 30
0.000000
  70
    32
  0
VERTEX
  8
0
  5
AEC2
 10
382.307
 20
196.314
 30
0.000000
  70
    32
  0
VERTEX
  8
0
  5
AEC3
 10
382.243
 20
196.295
 30
0.000000
  70
    32
  0
VERTEX
  8
0
  5
AEC4
 10
382.178
 20
196.277
 30
0.000000
  70
    32
  0
VERTEX
  8
0
  5
AEC5
 10
382.113
 20
196.259
 30
0.000000
  70
    32
  0
VERTEX
  8
0
  5
AEC6
 10
382.047
 20
196.243
 30
0.000000
  70
    32
  0
VERTEX
  8
0
  5
AEC7
 10
381.982
 20
196.228
 30
0.000000
  70
    32
  0
VERTEX
  8
0
  5
AEC8
 10
381.916
 20
196.214
 30
0.000000
  70
    32
  0
VERTEX
  8
0
  5
AEC9
 10
381.850
 20
196.201
 30
0.000000
  70
    32
  0
VERTEX
  8
0
  5
AECA
 10
381.784
 20
196.189
 30
0.000000
  70
    32
  0
VERTEX
  8
0
  5
AECB
 10
381.718
 20
196.177
 30
0.000000
  70
    32
  0
VERTEX
  8
0
  5
AECC
 10
381.651
 20
196.167
 30
0.000000
  70
    32
  0
VERTEX
  8
0
  5
AECD
 10
381.585
 20
196.158
 30
0.000000
  70
    32
  0
VERTEX
  8
0
  5
AECE
 10
381.518
 20
196.150
 30
0.000000
  70
    32
  0
VERTEX
  8
0
  5
AECF
 10
381.451
 20
196.142
 30
0.000000
  70
    32
  0
VERTEX
  8
0
  5
AED0
 10
381.384
 20
196.136
 30
0.000000
  70
    32
  0
VERTEX
  8
0
  5
AED1
 10
381.317
 20
196.131
 30
0.000000
  70
    32
  0
VERTEX
  8
0
  5
AED2
 10
381.250
 20
196.127
 30
0.000000
  70
    32
  0
VERTEX
  8
0
  5
AED3
 10
381.183
 20
196.123
 30
0.000000
  70
    32
  0
VERTEX
  8
0
  5
AED4
 10
381.116
 20
196.121
 30
0.000000
  70
    32
  0
VERTEX
  8
0
  5
AED5
 10
381.049
 20
196.120
 30
0.000000
  70
    32
  0
VERTEX
  8
0
  5
AED6
 10
380.981
 20
196.120
 30
0.000000
  70
    32
  0
VERTEX
  8
0
  5
AED7
 10
380.914
 20
196.121
 30
0.000000
  70
    32
  0
VERTEX
  8
0
  5
AED8
 10
380.847
 20
196.122
 30
0.000000
  70
    32
  0
VERTEX
  8
0
  5
AED9
 10
380.780
 20
196.125
 30
0.000000
  70
    32
  0
VERTEX
  8
0
  5
AEDA
 10
380.713
 20
196.129
 30
0.000000
  70
    32
  0
VERTEX
  8
0
  5
AEDB
 10
380.646
 20
196.134
 30
0.000000
  70
    32
  0
VERTEX
  8
0
  5
AEDC
 10
380.579
 20
196.140
 30
0.000000
  70
    32
  0
VERTEX
  8
0
  5
AEDD
 10
380.512
 20
196.146
 30
0.000000
  70
    32
  0
VERTEX
  8
0
  5
AEDE
 10
380.445
 20
196.154
 30
0.000000
  70
    32
  0
VERTEX
  8
0
  5
AEDF
 10
380.378
 20
196.163
 30
0.000000
  70
    32
  0
VERTEX
  8
0
  5
AEE0
 10
380.312
 20
196.173
 30
0.000000
  70
    32
  0
VERTEX
  8
0
  5
AEE1
 10
380.246
 20
196.183
 30
0.000000
  70
    32
  0
VERTEX
  8
0
  5
AEE2
 10
380.179
 20
196.195
 30
0.000000
  70
    32
  0
VERTEX
  8
0
  5
AEE3
 10
380.113
 20
196.208
 30
0.000000
  70
    32
  0
VERTEX
  8
0
  5
AEE4
 10
380.047
 20
196.222
 30
0.000000
  70
    32
  0
VERTEX
  8
0
  5
AEE5
 10
379.982
 20
196.236
 30
0.000000
  70
    32
  0
VERTEX
  8
0
  5
AEE6
 10
379.916
 20
196.252
 30
0.000000
  70
    32
  0
VERTEX
  8
0
  5
AEE7
 10
379.851
 20
196.269
 30
0.000000
  70
    32
  0
VERTEX
  8
0
  5
AEE8
 10
379.786
 20
196.286
 30
0.000000
  70
    32
  0
VERTEX
  8
0
  5
AEE9
 10
379.722
 20
196.305
 30
0.000000
  70
    32
  0
VERTEX
  8
0
  5
AEEA
 10
379.657
 20
196.325
 30
0.000000
  70
    32
  0
VERTEX
  8
0
  5
AEEB
 10
379.593
 20
196.345
 30
0.000000
  70
    32
  0
VERTEX
  8
0
  5
AEEC
 10
379.529
 20
196.367
 30
0.000000
  70
    32
  0
VERTEX
  8
0
  5
AEED
 10
379.466
 20
196.389
 30
0.000000
  70
    32
  0
VERTEX
  8
0
  5
AEEE
 10
379.403
 20
196.412
 30
0.000000
  70
    32
  0
VERTEX
  8
0
  5
AEEF
 10
379.340
 20
196.437
 30
0.000000
  70
    32
  0
VERTEX
  8
0
  5
AEF0
 10
379.278
 20
196.462
 30
0.000000
  70
    32
  0
VERTEX
  8
0
  5
AEF1
 10
379.216
 20
196.488
 30
0.000000
  70
    32
  0
VERTEX
  8
0
  5
AEF2
 10
379.154
 20
196.515
 30
0.000000
  70
    32
  0
VERTEX
  8
0
  5
AEF3
 10
379.093
 20
196.543
 30
0.000000
  70
    32
  0
VERTEX
  8
0
  5
AEF4
 10
379.032
 20
196.572
 30
0.000000
  70
    32
  0
VERTEX
  8
0
  5
AEF5
 10
378.971
 20
196.602
 30
0.000000
  70
    32
  0
VERTEX
  8
0
  5
AEF6
 10
378.911
 20
196.633
 30
0.000000
  70
    32
  0
VERTEX
  8
0
  5
AEF7
 10
378.852
 20
196.665
 30
0.000000
  70
    32
  0
VERTEX
  8
0
  5
AEF8
 10
378.793
 20
196.697
 30
0.000000
  70
    32
  0
VERTEX
  8
0
  5
AEF9
 10
378.734
 20
196.731
 30
0.000000
  70
    32
  0
VERTEX
  8
0
  5
AEFA
 10
378.676
 20
196.765
 30
0.000000
  70
    32
  0
VERTEX
  8
0
  5
AEFB
 10
378.619
 20
196.800
 30
0.000000
  70
    32
  0
VERTEX
  8
0
  5
AEFC
 10
378.562
 20
196.836
 30
0.000000
  70
    32
  0
VERTEX
  8
0
  5
AEFD
 10
378.505
 20
196.873
 30
0.000000
  70
    32
  0
VERTEX
  8
0
  5
AEFE
 10
378.449
 20
196.910
 30
0.000000
  70
    32
  0
VERTEX
  8
0
  5
AEFF
 10
378.394
 20
196.949
 30
0.000000
  70
    32
  0
VERTEX
  8
0
  5
AF00
 10
378.339
 20
196.988
 30
0.000000
  70
    32
  0
VERTEX
  8
0
  5
AF01
 10
378.284
 20
197.029
 30
0.000000
  70
    32
  0
VERTEX
  8
0
  5
AF02
 10
378.231
 20
197.069
 30
0.000000
  70
    32
  0
VERTEX
  8
0
  5
AF03
 10
378.178
 20
197.111
 30
0.000000
  70
    32
  0
VERTEX
  8
0
  5
AF04
 10
378.125
 20
197.154
 30
0.000000
  70
    32
  0
VERTEX
  8
0
  5
AF05
 10
378.073
 20
197.197
 30
0.000000
  70
    32
  0
VERTEX
  8
0
  5
AF06
 10
378.022
 20
197.241
 30
0.000000
  70
    32
  0
VERTEX
  8
0
  5
AF07
 10
377.972
 20
197.286
 30
0.000000
  70
    32
  0
VERTEX
  8
0
  5
AF08
 10
377.922
 20
197.332
 30
0.000000
  70
    32
  0
VERTEX
  8
0
  5
AF09
 10
377.872
 20
197.378
 30
0.000000
  70
    32
  0
VERTEX
  8
0
  5
AF0A
 10
377.824
 20
197.425
 30
0.000000
  70
    32
  0
VERTEX
  8
0
  5
AF0B
 10
377.776
 20
197.473
 30
0.000000
  70
    32
  0
VERTEX
  8
0
  5
AF0C
 10
377.729
 20
197.521
 30
0.000000
  70
    32
  0
VERTEX
  8
0
  5
AF0D
 10
377.682
 20
197.571
 30
0.000000
  70
    32
  0
VERTEX
  8
0
  5
AF0E
 10
377.637
 20
197.621
 30
0.000000
  70
    32
  0
VERTEX
  8
0
  5
AF0F
 10
377.592
 20
197.671
 30
0.000000
  70
    32
  0
VERTEX
  8
0
  5
AF10
 10
377.547
 20
197.722
 30
0.000000
  70
    32
  0
VERTEX
  8
0
  5
AF11
 10
377.504
 20
197.774
 30
0.000000
  70
    32
  0
VERTEX
  8
0
  5
AF12
 10
377.461
 20
197.827
 30
0.000000
  70
    32
  0
VERTEX
  8
0
  5
AF13
 10
377.419
 20
197.880
 30
0.000000
  70
    32
  0
VERTEX
  8
0
  5
AF14
 10
377.378
 20
197.934
 30
0.000000
  70
    32
  0
VERTEX
  8
0
  5
AF15
 10
377.337
 20
197.988
 30
0.000000
  70
    32
  0
VERTEX
  8
0
  5
AF16
 10
377.298
 20
198.043
 30
0.000000
  70
    32
  0
VERTEX
  8
0
  5
AF17
 10
377.259
 20
198.099
 30
0.000000
  70
    32
  0
VERTEX
  8
0
  5
AF18
 10
377.221
 20
198.155
 30
0.000000
  70
    32
  0
VERTEX
  8
0
  5
AF19
 10
377.184
 20
198.212
 30
0.000000
  70
    32
  0
VERTEX
  8
0
  5
AF1A
 10
377.147
 20
198.269
 30
0.000000
  70
    32
  0
VERTEX
  8
0
  5
AF1B
 10
377.112
 20
198.327
 30
0.000000
  70
    32
  0
VERTEX
  8
0
  5
AF1C
 10
377.077
 20
198.385
 30
0.000000
  70
    32
  0
VERTEX
  8
0
  5
AF1D
 10
377.043
 20
198.444
 30
0.000000
  70
    32
  0
VERTEX
  8
0
  5
AF1E
 10
377.011
 20
198.503
 30
0.000000
  70
    32
  0
VERTEX
  8
0
  5
AF1F
 10
376.978
 20
198.563
 30
0.000000
  70
    32
  0
VERTEX
  8
0
  5
AF20
 10
376.947
 20
198.623
 30
0.000000
  70
    32
  0
VERTEX
  8
0
  5
AF21
 10
376.917
 20
198.684
 30
0.000000
  70
    32
  0
VERTEX
  8
0
  5
AF22
 10
376.887
 20
198.745
 30
0.000000
  70
    32
  0
VERTEX
  8
0
  5
AF23
 10
376.859
 20
198.807
 30
0.000000
  70
    32
  0
VERTEX
  8
0
  5
AF24
 10
376.831
 20
198.869
 30
0.000000
  70
    32
  0
VERTEX
  8
0
  5
AF25
 10
376.804
 20
198.932
 30
0.000000
  70
    32
  0
VERTEX
  8
0
  5
AF26
 10
376.779
 20
198.994
 30
0.000000
  70
    32
  0
VERTEX
  8
0
  5
AF27
 10
376.754
 20
199.058
 30
0.000000
  70
    32
  0
VERTEX
  8
0
  5
AF28
 10
376.730
 20
199.121
 30
0.000000
  70
    32
  0
VERTEX
  8
0
  5
AF29
 10
376.707
 20
199.185
 30
0.000000
  70
    32
  0
VERTEX
  8
0
  5
AF2A
 10
376.685
 20
199.250
 30
0.000000
  70
    32
  0
VERTEX
  8
0
  5
AF2B
 10
376.663
 20
199.314
 30
0.000000
  70
    32
  0
VERTEX
  8
0
  5
AF2C
 10
376.643
 20
199.379
 30
0.000000
  70
    32
  0
VERTEX
  8
0
  5
AF2D
 10
376.624
 20
199.444
 30
0.000000
  70
    32
  0
VERTEX
  8
0
  5
AF2E
 10
376.605
 20
199.510
 30
0.000000
  70
    32
  0
VERTEX
  8
0
  5
AF2F
 10
376.588
 20
199.576
 30
0.000000
  70
    32
  0
VERTEX
  8
0
  5
AF30
 10
376.572
 20
199.642
 30
0.000000
  70
    32
  0
VERTEX
  8
0
  5
AF31
 10
376.556
 20
199.708
 30
0.000000
  70
    32
  0
VERTEX
  8
0
  5
AF32
 10
376.542
 20
199.774
 30
0.000000
  70
    32
  0
VERTEX
  8
0
  5
AF33
 10
376.528
 20
199.841
 30
0.000000
  70
    32
  0
SEQEND
  8
0
  5
AF34
  0
LINE
  5
A83D
  8
0
 10
390.00000000000438
 20
187.49907926221641
 30
0.0
 11
359.50000000000449
 21
187.4990792622163
 31
0.0
  0
LINE
  5
A83F
  8
0
 10
359.50000000000432
 20
212.4990792622163
 30
0.0
 11
390.00000000000432
 21
212.4990792622165
 31
0.0
  0
POLYLINE
  5
A840
  8
0
 10
376.52806846189605
 20
200.15706976332197
 30
0.0
 66
     1
 70
     8
  0
VERTEX
  8
0
  5
AF35
 10
376.528
 20
200.157
 30
0.000000
  70
    32
  0
VERTEX
  8
0
  5
AF36
 10
376.542
 20
200.224
 30
0.000000
  70
    32
  0
VERTEX
  8
0
  5
AF37
 10
376.556
 20
200.290
 30
0.000000
  70
    32
  0
VERTEX
  8
0
  5
AF38
 10
376.572
 20
200.357
 30
0.000000
  70
    32
  0
VERTEX
  8
0
  5
AF39
 10
376.588
 20
200.423
 30
0.000000
  70
    32
  0
VERTEX
  8
0
  5
AF3A
 10
376.605
 20
200.488
 30
0.000000
  70
    32
  0
VERTEX
  8
0
  5
AF3B
 10
376.624
 20
200.554
 30
0.000000
  70
    32
  0
VERTEX
  8
0
  5
AF3C
 10
376.643
 20
200.619
 30
0.000000
  70
    32
  0
VERTEX
  8
0
  5
AF3D
 10
376.663
 20
200.684
 30
0.000000
  70
    32
  0
VERTEX
  8
0
  5
AF3E
 10
376.685
 20
200.749
 30
0.000000
  70
    32
  0
VERTEX
  8
0
  5
AF3F
 10
376.707
 20
200.813
 30
0.000000
  70
    32
  0
VERTEX
  8
0
  5
AF40
 10
376.730
 20
200.877
 30
0.000000
  70
    32
  0
VERTEX
  8
0
  5
AF41
 10
376.754
 20
200.940
 30
0.000000
  70
    32
  0
VERTEX
  8
0
  5
AF42
 10
376.779
 20
201.004
 30
0.000000
  70
    32
  0
VERTEX
  8
0
  5
AF43
 10
376.804
 20
201.067
 30
0.000000
  70
    32
  0
VERTEX
  8
0
  5
AF44
 10
376.831
 20
201.129
 30
0.000000
  70
    32
  0
VERTEX
  8
0
  5
AF45
 10
376.859
 20
201.191
 30
0.000000
  70
    32
  0
VERTEX
  8
0
  5
AF46
 10
376.887
 20
201.253
 30
0.000000
  70
    32
  0
VERTEX
  8
0
  5
AF47
 10
376.917
 20
201.314
 30
0.000000
  70
    32
  0
VERTEX
  8
0
  5
AF48
 10
376.947
 20
201.375
 30
0.000000
  70
    32
  0
VERTEX
  8
0
  5
AF49
 10
376.978
 20
201.435
 30
0.000000
  70
    32
  0
VERTEX
  8
0
  5
AF4A
 10
377.011
 20
201.495
 30
0.000000
  70
    32
  0
VERTEX
  8
0
  5
AF4B
 10
377.043
 20
201.554
 30
0.000000
  70
    32
  0
VERTEX
  8
0
  5
AF4C
 10
377.077
 20
201.613
 30
0.000000
  70
    32
  0
VERTEX
  8
0
  5
AF4D
 10
377.112
 20
201.671
 30
0.000000
  70
    32
  0
VERTEX
  8
0
  5
AF4E
 10
377.147
 20
201.729
 30
0.000000
  70
    32
  0
VERTEX
  8
0
  5
AF4F
 10
377.184
 20
201.786
 30
0.000000
  70
    32
  0
VERTEX
  8
0
  5
AF50
 10
377.221
 20
201.843
 30
0.000000
  70
    32
  0
VERTEX
  8
0
  5
AF51
 10
377.259
 20
201.899
 30
0.000000
  70
    32
  0
VERTEX
  8
0
  5
AF52
 10
377.298
 20
201.955
 30
0.000000
  70
    32
  0
VERTEX
  8
0
  5
AF53
 10
377.337
 20
202.010
 30
0.000000
  70
    32
  0
VERTEX
  8
0
  5
AF54
 10
377.378
 20
202.064
 30
0.000000
  70
    32
  0
VERTEX
  8
0
  5
AF55
 10
377.419
 20
202.118
 30
0.000000
  70
    32
  0
VERTEX
  8
0
  5
AF56
 10
377.461
 20
202.171
 30
0.000000
  70
    32
  0
VERTEX
  8
0
  5
AF57
 10
377.504
 20
202.224
 30
0.000000
  70
    32
  0
VERTEX
  8
0
  5
AF58
 10
377.547
 20
202.276
 30
0.000000
  70
    32
  0
VERTEX
  8
0
  5
AF59
 10
377.592
 20
202.327
 30
0.000000
  70
    32
  0
VERTEX
  8
0
  5
AF5A
 10
377.637
 20
202.378
 30
0.000000
  70
    32
  0
VERTEX
  8
0
  5
AF5B
 10
377.682
 20
202.428
 30
0.000000
  70
    32
  0
VERTEX
  8
0
  5
AF5C
 10
377.729
 20
202.477
 30
0.000000
  70
    32
  0
VERTEX
  8
0
  5
AF5D
 10
377.776
 20
202.525
 30
0.000000
  70
    32
  0
VERTEX
  8
0
  5
AF5E
 10
377.824
 20
202.573
 30
0.000000
  70
    32
  0
VERTEX
  8
0
  5
AF5F
 10
377.872
 20
202.620
 30
0.000000
  70
    32
  0
VERTEX
  8
0
  5
AF60
 10
377.922
 20
202.666
 30
0.000000
  70
    32
  0
VERTEX
  8
0
  5
AF61
 10
377.972
 20
202.712
 30
0.000000
  70
    32
  0
VERTEX
  8
0
  5
AF62
 10
378.022
 20
202.757
 30
0.000000
  70
    32
  0
VERTEX
  8
0
  5
AF63
 10
378.073
 20
202.801
 30
0.000000
  70
    32
  0
VERTEX
  8
0
  5
AF64
 10
378.125
 20
202.844
 30
0.000000
  70
    32
  0
VERTEX
  8
0
  5
AF65
 10
378.178
 20
202.887
 30
0.000000
  70
    32
  0
VERTEX
  8
0
  5
AF66
 10
378.231
 20
202.929
 30
0.000000
  70
    32
  0
VERTEX
  8
0
  5
AF67
 10
378.284
 20
202.970
 30
0.000000
  70
    32
  0
VERTEX
  8
0
  5
AF68
 10
378.339
 20
203.010
 30
0.000000
  70
    32
  0
VERTEX
  8
0
  5
AF69
 10
378.394
 20
203.049
 30
0.000000
  70
    32
  0
VERTEX
  8
0
  5
AF6A
 10
378.449
 20
203.088
 30
0.000000
  70
    32
  0
VERTEX
  8
0
  5
AF6B
 10
378.505
 20
203.125
 30
0.000000
  70
    32
  0
VERTEX
  8
0
  5
AF6C
 10
378.562
 20
203.162
 30
0.000000
  70
    32
  0
VERTEX
  8
0
  5
AF6D
 10
378.619
 20
203.198
 30
0.000000
  70
    32
  0
VERTEX
  8
0
  5
AF6E
 10
378.676
 20
203.233
 30
0.000000
  70
    32
  0
VERTEX
  8
0
  5
AF6F
 10
378.734
 20
203.268
 30
0.000000
  70
    32
  0
VERTEX
  8
0
  5
AF70
 10
378.793
 20
203.301
 30
0.000000
  70
    32
  0
VERTEX
  8
0
  5
AF71
 10
378.852
 20
203.334
 30
0.000000
  70
    32
  0
VERTEX
  8
0
  5
AF72
 10
378.911
 20
203.365
 30
0.000000
  70
    32
  0
VERTEX
  8
0
  5
AF73
 10
378.971
 20
203.396
 30
0.000000
  70
    32
  0
VERTEX
  8
0
  5
AF74
 10
379.032
 20
203.426
 30
0.000000
  70
    32
  0
VERTEX
  8
0
  5
AF75
 10
379.093
 20
203.455
 30
0.000000
  70
    32
  0
VERTEX
  8
0
  5
AF76
 10
379.154
 20
203.483
 30
0.000000
  70
    32
  0
VERTEX
  8
0
  5
AF77
 10
379.216
 20
203.510
 30
0.000000
  70
    32
  0
VERTEX
  8
0
  5
AF78
 10
379.278
 20
203.536
 30
0.000000
  70
    32
  0
VERTEX
  8
0
  5
AF79
 10
379.340
 20
203.561
 30
0.000000
  70
    32
  0
VERTEX
  8
0
  5
AF7A
 10
379.403
 20
203.586
 30
0.000000
  70
    32
  0
VERTEX
  8
0
  5
AF7B
 10
379.466
 20
203.609
 30
0.000000
  70
    32
  0
VERTEX
  8
0
  5
AF7C
 10
379.529
 20
203.632
 30
0.000000
  70
    32
  0
VERTEX
  8
0
  5
AF7D
 10
379.593
 20
203.653
 30
0.000000
  70
    32
  0
VERTEX
  8
0
  5
AF7E
 10
379.657
 20
203.674
 30
0.000000
  70
    32
  0
VERTEX
  8
0
  5
AF7F
 10
379.722
 20
203.693
 30
0.000000
  70
    32
  0
VERTEX
  8
0
  5
AF80
 10
379.786
 20
203.712
 30
0.000000
  70
    32
  0
VERTEX
  8
0
  5
AF81
 10
379.851
 20
203.729
 30
0.000000
  70
    32
  0
VERTEX
  8
0
  5
AF82
 10
379.916
 20
203.746
 30
0.000000
  70
    32
  0
VERTEX
  8
0
  5
AF83
 10
379.982
 20
203.762
 30
0.000000
  70
    32
  0
VERTEX
  8
0
  5
AF84
 10
380.047
 20
203.776
 30
0.000000
  70
    32
  0
VERTEX
  8
0
  5
AF85
 10
380.113
 20
203.790
 30
0.000000
  70
    32
  0
VERTEX
  8
0
  5
AF86
 10
380.179
 20
203.803
 30
0.000000
  70
    32
  0
VERTEX
  8
0
  5
AF87
 10
380.246
 20
203.815
 30
0.000000
  70
    32
  0
VERTEX
  8
0
  5
AF88
 10
380.312
 20
203.825
 30
0.000000
  70
    32
  0
VERTEX
  8
0
  5
AF89
 10
380.378
 20
203.835
 30
0.000000
  70
    32
  0
VERTEX
  8
0
  5
AF8A
 10
380.445
 20
203.844
 30
0.000000
  70
    32
  0
VERTEX
  8
0
  5
AF8B
 10
380.512
 20
203.852
 30
0.000000
  70
    32
  0
VERTEX
  8
0
  5
AF8C
 10
380.579
 20
203.859
 30
0.000000
  70
    32
  0
VERTEX
  8
0
  5
AF8D
 10
380.646
 20
203.864
 30
0.000000
  70
    32
  0
VERTEX
  8
0
  5
AF8E
 10
380.713
 20
203.869
 30
0.000000
  70
    32
  0
VERTEX
  8
0
  5
AF8F
 10
380.780
 20
203.873
 30
0.000000
  70
    32
  0
VERTEX
  8
0
  5
AF90
 10
380.847
 20
203.876
 30
0.000000
  70
    32
  0
VERTEX
  8
0
  5
AF91
 10
380.914
 20
203.878
 30
0.000000
  70
    32
  0
VERTEX
  8
0
  5
AF92
 10
380.981
 20
203.878
 30
0.000000
  70
    32
  0
VERTEX
  8
0
  5
AF93
 10
381.049
 20
203.878
 30
0.000000
  70
    32
  0
VERTEX
  8
0
  5
AF94
 10
381.116
 20
203.877
 30
0.000000
  70
    32
  0
VERTEX
  8
0
  5
AF95
 10
381.183
 20
203.875
 30
0.000000
  70
    32
  0
VERTEX
  8
0
  5
AF96
 10
381.250
 20
203.871
 30
0.000000
  70
    32
  0
VERTEX
  8
0
  5
AF97
 10
381.317
 20
203.867
 30
0.000000
  70
    32
  0
VERTEX
  8
0
  5
AF98
 10
381.384
 20
203.862
 30
0.000000
  70
    32
  0
VERTEX
  8
0
  5
AF99
 10
381.451
 20
203.856
 30
0.000000
  70
    32
  0
VERTEX
  8
0
  5
AF9A
 10
381.518
 20
203.848
 30
0.000000
  70
    32
  0
VERTEX
  8
0
  5
AF9B
 10
381.585
 20
203.840
 30
0.000000
  70
    32
  0
VERTEX
  8
0
  5
AF9C
 10
381.651
 20
203.831
 30
0.000000
  70
    32
  0
VERTEX
  8
0
  5
AF9D
 10
381.718
 20
203.821
 30
0.000000
  70
    32
  0
VERTEX
  8
0
  5
AF9E
 10
381.784
 20
203.810
 30
0.000000
  70
    32
  0
VERTEX
  8
0
  5
AF9F
 10
381.850
 20
203.797
 30
0.000000
  70
    32
  0
VERTEX
  8
0
  5
AFA0
 10
381.916
 20
203.784
 30
0.000000
  70
    32
  0
VERTEX
  8
0
  5
AFA1
 10
381.982
 20
203.770
 30
0.000000
  70
    32
  0
VERTEX
  8
0
  5
AFA2
 10
382.047
 20
203.755
 30
0.000000
  70
    32
  0
VERTEX
  8
0
  5
AFA3
 10
382.113
 20
203.739
 30
0.000000
  70
    32
  0
VERTEX
  8
0
  5
AFA4
 10
382.178
 20
203.722
 30
0.000000
  70
    32
  0
VERTEX
  8
0
  5
AFA5
 10
382.243
 20
203.704
 30
0.000000
  70
    32
  0
VERTEX
  8
0
  5
AFA6
 10
382.307
 20
203.684
 30
0.000000
  70
    32
  0
VERTEX
  8
0
  5
AFA7
 10
382.371
 20
203.664
 30
0.000000
  70
    32
  0
VERTEX
  8
0
  5
AFA8
 10
382.435
 20
203.643
 30
0.000000
  70
    32
  0
VERTEX
  8
0
  5
AFA9
 10
382.499
 20
203.622
 30
0.000000
  70
    32
  0
VERTEX
  8
0
  5
AFAA
 10
382.562
 20
203.599
 30
0.000000
  70
    32
  0
VERTEX
  8
0
  5
AFAB
 10
382.625
 20
203.575
 30
0.000000
  70
    32
  0
VERTEX
  8
0
  5
AFAC
 10
382.688
 20
203.550
 30
0.000000
  70
    32
  0
VERTEX
  8
0
  5
AFAD
 10
382.750
 20
203.524
 30
0.000000
  70
    32
  0
VERTEX
  8
0
  5
AFAE
 10
382.812
 20
203.498
 30
0.000000
  70
    32
  0
VERTEX
  8
0
  5
AFAF
 10
382.874
 20
203.470
 30
0.000000
  70
    32
  0
VERTEX
  8
0
  5
AFB0
 10
382.935
 20
203.442
 30
0.000000
  70
    32
  0
VERTEX
  8
0
  5
AFB1
 10
382.995
 20
203.413
 30
0.000000
  70
    32
  0
VERTEX
  8
0
  5
AFB2
 10
383.055
 20
203.382
 30
0.000000
  70
    32
  0
VERTEX
  8
0
  5
AFB3
 10
383.115
 20
203.351
 30
0.000000
  70
    32
  0
VERTEX
  8
0
  5
AFB4
 10
383.175
 20
203.319
 30
0.000000
  70
    32
  0
VERTEX
  8
0
  5
AFB5
 10
383.233
 20
203.286
 30
0.000000
  70
    32
  0
SEQEND
  8
0
  5
AFB6
  0
POLYLINE
  5
A844
  8
0
 10
383.42380137666112
 20
203.14127331413729
 30
0.0
 66
     1
 70
     8
  0
VERTEX
  8
0
  5
AFB7
 10
383.424
 20
203.141
 30
0.000000
  70
    32
  0
VERTEX
  8
0
  5
AFB8
 10
383.462
 20
203.102
 30
0.000000
  70
    32
  0
VERTEX
  8
0
  5
AFB9
 10
383.500
 20
203.063
 30
0.000000
  70
    32
  0
VERTEX
  8
0
  5
AFBA
 10
383.538
 20
203.023
 30
0.000000
  70
    32
  0
VERTEX
  8
0
  5
AFBB
 10
383.575
 20
202.982
 30
0.000000
  70
    32
  0
VERTEX
  8
0
  5
AFBC
 10
383.612
 20
202.942
 30
0.000000
  70
    32
  0
VERTEX
  8
0
  5
AFBD
 10
383.648
 20
202.900
 30
0.000000
  70
    32
  0
VERTEX
  8
0
  5
AFBE
 10
383.683
 20
202.859
 30
0.000000
  70
    32
  0
VERTEX
  8
0
  5
AFBF
 10
383.718
 20
202.817
 30
0.000000
  70
    32
  0
VERTEX
  8
0
  5
AFC0
 10
383.753
 20
202.774
 30
0.000000
  70
    32
  0
VERTEX
  8
0
  5
AFC1
 10
383.787
 20
202.731
 30
0.000000
  70
    32
  0
VERTEX
  8
0
  5
AFC2
 10
383.820
 20
202.688
 30
0.000000
  70
    32
  0
VERTEX
  8
0
  5
AFC3
 10
383.853
 20
202.644
 30
0.000000
  70
    32
  0
VERTEX
  8
0
  5
AFC4
 10
383.885
 20
202.600
 30
0.000000
  70
    32
  0
VERTEX
  8
0
  5
AFC5
 10
383.917
 20
202.555
 30
0.000000
  70
    32
  0
VERTEX
  8
0
  5
AFC6
 10
383.948
 20
202.510
 30
0.000000
  70
    32
  0
VERTEX
  8
0
  5
AFC7
 10
383.979
 20
202.465
 30
0.000000
  70
    32
  0
VERTEX
  8
0
  5
AFC8
 10
384.009
 20
202.420
 30
0.000000
  70
    32
  0
VERTEX
  8
0
  5
AFC9
 10
384.039
 20
202.374
 30
0.000000
  70
    32
  0
VERTEX
  8
0
  5
AFCA
 10
384.068
 20
202.327
 30
0.000000
  70
    32
  0
VERTEX
  8
0
  5
AFCB
 10
384.096
 20
202.281
 30
0.000000
  70
    32
  0
VERTEX
  8
0
  5
AFCC
 10
384.124
 20
202.234
 30
0.000000
  70
    32
  0
VERTEX
  8
0
  5
AFCD
 10
384.151
 20
202.186
 30
0.000000
  70
    32
  0
VERTEX
  8
0
  5
AFCE
 10
384.178
 20
202.139
 30
0.000000
  70
    32
  0
VERTEX
  8
0
  5
AFCF
 10
384.204
 20
202.091
 30
0.000000
  70
    32
  0
VERTEX
  8
0
  5
AFD0
 10
384.230
 20
202.042
 30
0.000000
  70
    32
  0
VERTEX
  8
0
  5
AFD1
 10
384.255
 20
201.994
 30
0.000000
  70
    32
  0
VERTEX
  8
0
  5
AFD2
 10
384.279
 20
201.945
 30
0.000000
  70
    32
  0
VERTEX
  8
0
  5
AFD3
 10
384.303
 20
201.896
 30
0.000000
  70
    32
  0
VERTEX
  8
0
  5
AFD4
 10
384.326
 20
201.846
 30
0.000000
  70
    32
  0
VERTEX
  8
0
  5
AFD5
 10
384.348
 20
201.797
 30
0.000000
  70
    32
  0
VERTEX
  8
0
  5
AFD6
 10
384.370
 20
201.747
 30
0.000000
  70
    32
  0
VERTEX
  8
0
  5
AFD7
 10
384.391
 20
201.697
 30
0.000000
  70
    32
  0
VERTEX
  8
0
  5
AFD8
 10
384.412
 20
201.646
 30
0.000000
  70
    32
  0
VERTEX
  8
0
  5
AFD9
 10
384.432
 20
201.595
 30
0.000000
  70
    32
  0
VERTEX
  8
0
  5
AFDA
 10
384.451
 20
201.544
 30
0.000000
  70
    32
  0
VERTEX
  8
0
  5
AFDB
 10
384.470
 20
201.493
 30
0.000000
  70
    32
  0
VERTEX
  8
0
  5
AFDC
 10
384.488
 20
201.442
 30
0.000000
  70
    32
  0
VERTEX
  8
0
  5
AFDD
 10
384.506
 20
201.390
 30
0.000000
  70
    32
  0
VERTEX
  8
0
  5
AFDE
 10
384.523
 20
201.338
 30
0.000000
  70
    32
  0
VERTEX
  8
0
  5
AFDF
 10
384.539
 20
201.286
 30
0.000000
  70
    32
  0
VERTEX
  8
0
  5
AFE0
 10
384.554
 20
201.234
 30
0.000000
  70
    32
  0
VERTEX
  8
0
  5
AFE1
 10
384.569
 20
201.182
 30
0.000000
  70
    32
  0
VERTEX
  8
0
  5
AFE2
 10
384.584
 20
201.129
 30
0.000000
  70
    32
  0
VERTEX
  8
0
  5
AFE3
 10
384.597
 20
201.076
 30
0.000000
  70
    32
  0
VERTEX
  8
0
  5
AFE4
 10
384.610
 20
201.024
 30
0.000000
  70
    32
  0
VERTEX
  8
0
  5
AFE5
 10
384.622
 20
200.971
 30
0.000000
  70
    32
  0
VERTEX
  8
0
  5
AFE6
 10
384.634
 20
200.917
 30
0.000000
  70
    32
  0
VERTEX
  8
0
  5
AFE7
 10
384.645
 20
200.864
 30
0.000000
  70
    32
  0
VERTEX
  8
0
  5
AFE8
 10
384.655
 20
200.811
 30
0.000000
  70
    32
  0
VERTEX
  8
0
  5
AFE9
 10
384.665
 20
200.757
 30
0.000000
  70
    32
  0
VERTEX
  8
0
  5
AFEA
 10
384.674
 20
200.703
 30
0.000000
  70
    32
  0
VERTEX
  8
0
  5
AFEB
 10
384.683
 20
200.650
 30
0.000000
  70
    32
  0
VERTEX
  8
0
  5
AFEC
 10
384.690
 20
200.596
 30
0.000000
  70
    32
  0
VERTEX
  8
0
  5
AFED
 10
384.697
 20
200.542
 30
0.000000
  70
    32
  0
VERTEX
  8
0
  5
AFEE
 10
384.704
 20
200.488
 30
0.000000
  70
    32
  0
VERTEX
  8
0
  5
AFEF
 10
384.709
 20
200.434
 30
0.000000
  70
    32
  0
VERTEX
  8
0
  5
AFF0
 10
384.714
 20
200.379
 30
0.000000
  70
    32
  0
VERTEX
  8
0
  5
AFF1
 10
384.719
 20
200.325
 30
0.000000
  70
    32
  0
VERTEX
  8
0
  5
AFF2
 10
384.722
 20
200.271
 30
0.000000
  70
    32
  0
VERTEX
  8
0
  5
AFF3
 10
384.725
 20
200.217
 30
0.000000
  70
    32
  0
VERTEX
  8
0
  5
AFF4
 10
384.728
 20
200.162
 30
0.000000
  70
    32
  0
VERTEX
  8
0
  5
AFF5
 10
384.729
 20
200.108
 30
0.000000
  70
    32
  0
VERTEX
  8
0
  5
AFF6
 10
384.730
 20
200.053
 30
0.000000
  70
    32
  0
VERTEX
  8
0
  5
AFF7
 10
384.731
 20
199.999
 30
0.000000
  70
    32
  0
VERTEX
  8
0
  5
AFF8
 10
384.730
 20
199.945
 30
0.000000
  70
    32
  0
VERTEX
  8
0
  5
AFF9
 10
384.729
 20
199.890
 30
0.000000
  70
    32
  0
VERTEX
  8
0
  5
AFFA
 10
384.728
 20
199.836
 30
0.000000
  70
    32
  0
VERTEX
  8
0
  5
AFFB
 10
384.725
 20
199.782
 30
0.000000
  70
    32
  0
VERTEX
  8
0
  5
AFFC
 10
384.722
 20
199.727
 30
0.000000
  70
    32
  0
VERTEX
  8
0
  5
AFFD
 10
384.719
 20
199.673
 30
0.000000
  70
    32
  0
VERTEX
  8
0
  5
AFFE
 10
384.714
 20
199.619
 30
0.000000
  70
    32
  0
VERTEX
  8
0
  5
AFFF
 10
384.709
 20
199.565
 30
0.000000
  70
    32
  0
VERTEX
  8
0
  5
B000
 10
384.704
 20
199.510
 30
0.000000
  70
    32
  0
VERTEX
  8
0
  5
B001
 10
384.697
 20
199.456
 30
0.000000
  70
    32
  0
VERTEX
  8
0
  5
B002
 10
384.690
 20
199.402
 30
0.000000
  70
    32
  0
VERTEX
  8
0
  5
B003
 10
384.683
 20
199.349
 30
0.000000
  70
    32
  0
VERTEX
  8
0
  5
B004
 10
384.674
 20
199.295
 30
0.000000
  70
    32
  0
VERTEX
  8
0
  5
B005
 10
384.665
 20
199.241
 30
0.000000
  70
    32
  0
VERTEX
  8
0
  5
B006
 10
384.655
 20
199.188
 30
0.000000
  70
    32
  0
VERTEX
  8
0
  5
B007
 10
384.645
 20
199.134
 30
0.000000
  70
    32
  0
VERTEX
  8
0
  5
B008
 10
384.634
 20
199.081
 30
0.000000
  70
    32
  0
VERTEX
  8
0
  5
B009
 10
384.622
 20
199.028
 30
0.000000
  70
    32
  0
VERTEX
  8
0
  5
B00A
 10
384.610
 20
198.975
 30
0.000000
  70
    32
  0
VERTEX
  8
0
  5
B00B
 10
384.597
 20
198.922
 30
0.000000
  70
    32
  0
VERTEX
  8
0
  5
B00C
 10
384.584
 20
198.869
 30
0.000000
  70
    32
  0
VERTEX
  8
0
  5
B00D
 10
384.569
 20
198.816
 30
0.000000
  70
    32
  0
VERTEX
  8
0
  5
B00E
 10
384.554
 20
198.764
 30
0.000000
  70
    32
  0
VERTEX
  8
0
  5
B00F
 10
384.539
 20
198.712
 30
0.000000
  70
    32
  0
VERTEX
  8
0
  5
B010
 10
384.523
 20
198.660
 30
0.000000
  70
    32
  0
VERTEX
  8
0
  5
B011
 10
384.506
 20
198.608
 30
0.000000
  70
    32
  0
VERTEX
  8
0
  5
B012
 10
384.488
 20
198.556
 30
0.000000
  70
    32
  0
VERTEX
  8
0
  5
B013
 10
384.470
 20
198.505
 30
0.000000
  70
    32
  0
VERTEX
  8
0
  5
B014
 10
384.451
 20
198.454
 30
0.000000
  70
    32
  0
VERTEX
  8
0
  5
B015
 10
384.432
 20
198.403
 30
0.000000
  70
    32
  0
VERTEX
  8
0
  5
B016
 10
384.412
 20
198.352
 30
0.000000
  70
    32
  0
VERTEX
  8
0
  5
B017
 10
384.391
 20
198.302
 30
0.000000
  70
    32
  0
VERTEX
  8
0
  5
B018
 10
384.370
 20
198.251
 30
0.000000
  70
    32
  0
VERTEX
  8
0
  5
B019
 10
384.348
 20
198.201
 30
0.000000
  70
    32
  0
VERTEX
  8
0
  5
B01A
 10
384.326
 20
198.152
 30
0.000000
  70
    32
  0
VERTEX
  8
0
  5
B01B
 10
384.303
 20
198.102
 30
0.000000
  70
    32
  0
VERTEX
  8
0
  5
B01C
 10
384.279
 20
198.053
 30
0.000000
  70
    32
  0
VERTEX
  8
0
  5
B01D
 10
384.255
 20
198.004
 30
0.000000
  70
    32
  0
VERTEX
  8
0
  5
B01E
 10
384.230
 20
197.956
 30
0.000000
  70
    32
  0
VERTEX
  8
0
  5
B01F
 10
384.204
 20
197.907
 30
0.000000
  70
    32
  0
VERTEX
  8
0
  5
B020
 10
384.178
 20
197.859
 30
0.000000
  70
    32
  0
VERTEX
  8
0
  5
B021
 10
384.151
 20
197.812
 30
0.000000
  70
    32
  0
VERTEX
  8
0
  5
B022
 10
384.124
 20
197.765
 30
0.000000
  70
    32
  0
VERTEX
  8
0
  5
B023
 10
384.096
 20
197.718
 30
0.000000
  70
    32
  0
VERTEX
  8
0
  5
B024
 10
384.068
 20
197.671
 30
0.000000
  70
    32
  0
VERTEX
  8
0
  5
B025
 10
384.039
 20
197.625
 30
0.000000
  70
    32
  0
VERTEX
  8
0
  5
B026
 10
384.009
 20
197.579
 30
0.000000
  70
    32
  0
VERTEX
  8
0
  5
B027
 10
383.979
 20
197.533
 30
0.000000
  70
    32
  0
VERTEX
  8
0
  5
B028
 10
383.948
 20
197.488
 30
0.000000
  70
    32
  0
VERTEX
  8
0
  5
B029
 10
383.917
 20
197.443
 30
0.000000
  70
    32
  0
VERTEX
  8
0
  5
B02A
 10
383.885
 20
197.398
 30
0.000000
  70
    32
  0
VERTEX
  8
0
  5
B02B
 10
383.853
 20
197.354
 30
0.000000
  70
    32
  0
VERTEX
  8
0
  5
B02C
 10
383.820
 20
197.310
 30
0.000000
  70
    32
  0
VERTEX
  8
0
  5
B02D
 10
383.787
 20
197.267
 30
0.000000
  70
    32
  0
VERTEX
  8
0
  5
B02E
 10
383.753
 20
197.224
 30
0.000000
  70
    32
  0
VERTEX
  8
0
  5
B02F
 10
383.718
 20
197.182
 30
0.000000
  70
    32
  0
VERTEX
  8
0
  5
B030
 10
383.683
 20
197.140
 30
0.000000
  70
    32
  0
VERTEX
  8
0
  5
B031
 10
383.648
 20
197.098
 30
0.000000
  70
    32
  0
VERTEX
  8
0
  5
B032
 10
383.612
 20
197.057
 30
0.000000
  70
    32
  0
VERTEX
  8
0
  5
B033
 10
383.575
 20
197.016
 30
0.000000
  70
    32
  0
VERTEX
  8
0
  5
B034
 10
383.538
 20
196.975
 30
0.000000
  70
    32
  0
VERTEX
  8
0
  5
B035
 10
383.500
 20
196.935
 30
0.000000
  70
    32
  0
VERTEX
  8
0
  5
B036
 10
383.462
 20
196.896
 30
0.000000
  70
    32
  0
VERTEX
  8
0
  5
B037
 10
383.424
 20
196.857
 30
0.000000
  70
    32
  0
SEQEND
  8
0
  5
B038
  0
LINE
  5
A845
  8
0
 10
359.50000000000432
 20
212.4990792622163
 30
0.0
 11
359.50000000000449
 21
187.4990792622163
 31
0.0
  0
LINE
  5
A846
  8
2
 10
369.00000000000398
 20
209.99907926221641
 30
0.0
 11
369.00000000000409
 21
189.99907926221641
 31
0.0
  0
LINE
  5
A847
  8
2
 10
369.00000000000409
 20
189.99907926221641
 30
0.0
 11
359.50000000000449
 21
189.9990792622163
 31
0.0
  0
LINE
  5
A848
  8
2
 10
359.50000000000449
 20
209.9990792622163
 30
0.0
 11
369.00000000000392
 21
209.99907926221641
 31
0.0
  0
ARC
  5
A849
  8
2
 10
393.50000000000421
 20
194.9990792622165
 30
0.0
 40
3.0
 50
270.0
 51
0.0000000000002456
  0
LINE
  5
A84A
  8
2
 10
388.70000000000448
 20
197.59907926221641
 30
0.0
 11
382.62788205961442
 21
197.59907926221641
 31
0.0
  0
LINE
  5
A84B
  8
2
 10
369.00000000000398
 20
207.99907926221641
 30
0.0
 11
393.50000000000409
 21
207.9990792622165
 31
0.0
  0
LINE
  5
A84C
  8
2
 10
382.62788205961431
 20
202.39907926221639
 30
0.0
 11
388.70000000000431
 21
202.3990792622165
 31
0.0
  0
LINE
  5
A84D
  8
2
 10
393.50000000000421
 20
191.9990792622165
 30
0.0
 11
369.00000000000409
 21
191.9990792622163
 31
0.0
  0
ARC
  5
A84E
  8
2
 10
388.70000000000448
 20
199.99907926221641
 30
0.0
 40
2.4000000000000048
 50
270.0
 51
90.0
  0
LINE
  5
A84F
  8
2
 10
396.50000000000421
 20
194.9990792622165
 30
0.0
 11
396.50000000000409
 21
204.9990792622165
 31
0.0
  0
ARC
  5
A850
  8
2
 10
393.50000000000409
 20
204.9990792622165
 30
0.0
 40
3.0
 50
0.0000000000002456
 51
90.0
  0
LINE
  5
A851
  8
1
 10
388.70000000000408
 20
205.3990792622165
 30
0.0
 11
388.70000000000431
 21
194.59907926221641
 31
0.0
  0
LINE
  5
A852
  8
1
 10
381.00000000000432
 20
205.89907926221639
 30
0.0
 11
381.00000000000438
 21
194.09907926221641
 31
0.0
  0
ARC
  5
A853
  8
0
 10
377.33349006691481
 20
199.9990792622167
 30
0.0
 40
0.8207709548165638
 50
168.90184511542941
 51
191.0981548846558
  0
ARC
  5
A854
  8
0
 10
382.78553885513043
 20
197.4979394044845
 30
0.0
 40
0.9046156787707953
 50
299.675843337949
 51
314.87497168977592
  0
ARC
  5
A855
  8
0
 10
382.78553885513043
 20
202.50021911994841
 30
0.0
 40
0.9046156787707953
 50
45.125028310224053
 51
60.324156662051067
  0
ARC
  5
A856
  8
2
 10
381.00000000000438
 20
199.99907926221641
 30
0.0
 40
2.8999999999999768
 50
55.851575655047903
 51
304.1484243449521
  0
LINE
  5
A89D
  8
3
 10
242.50905447588801
 20
205.4990792622161
 30
0.0
 11
359.50468606366138
 21
205.49907926221599
 31
0.0
  0
LINE
  5
A89E
  8
3
 10
242.50905447588801
 20
204.4990792622161
 30
0.0
 11
359.50468606366138
 21
204.4990792622161
 31
0.0
  0
LINE
  5
A89F
  8
3
 10
242.50905447588801
 20
202.9990792622161
 30
0.0
 11
359.50468606366138
 21
202.9990792622161
 31
0.0
  0
LINE
  5
A8A0
  8
3
 10
242.50905447588801
 20
201.9990792622161
 30
0.0
 11
359.50468606366138
 21
201.9990792622161
 31
0.0
  0
LINE
  5
A8A1
  8
3
 10
242.50905447588801
 20
200.4990792622161
 30
0.0
 11
359.50468606366138
 21
200.4990792622161
 31
0.0
  0
LINE
  5
A8A2
  8
3
 10
242.50905447588801
 20
199.4990792622161
 30
0.0
 11
359.50468606366138
 21
199.4990792622161
 31
0.0
  0
LINE
  5
A8A3
  8
3
 10
242.50905447588801
 20
197.9990792622161
 30
0.0
 11
359.50468606366138
 21
197.9990792622161
 31
0.0
  0
LINE
  5
A8A4
  8
3
 10
242.50905447588801
 20
196.9990792622161
 30
0.0
 11
359.50468606366138
 21
196.9990792622161
 31
0.0
  0
LINE
  5
A8A5
  8
3
 10
242.50905447588801
 20
195.4990792622161
 30
0.0
 11
359.50468606366138
 21
195.4990792622161
 31
0.0
  0
LINE
  5
A8A6
  8
3
 10
242.50905447588801
 20
194.4990792622161
 30
0.0
 11
359.50468606366138
 21
194.4990792622161
 31
0.0
  0
LINE
  5
A90E
  8
3
 10
91.999999999999901
 20
107.232786854293
 30
0.0
 11
91.999999999999886
 21
119.5000000000028
 31
0.0
  0
LINE
  5
A90F
  8
3
 10
94.500000000000156
 20
107.6327868542931
 30
0.0
 11
94.500000000000014
 21
119.5000000000028
 31
0.0
  0
LINE
  5
A910
  8
3
 10
95.5
 20
107.792786854293
 30
0.0
 11
95.5
 21
119.5000000000028
 31
0.0
  0
LINE
  5
A911
  8
3
 10
97.0
 20
108.03278685429309
 30
0.0
 11
97.0
 21
119.5000000000028
 31
0.0
  0
LINE
  5
A912
  8
3
 10
98.0
 20
108.1927868542931
 30
0.0
 11
98.0
 21
119.5000000000028
 31
0.0
  0
LINE
  5
A913
  8
3
 10
107.9999999999999
 20
107.232786854293
 30
0.0
 11
107.9999999999998
 21
119.5000000000028
 31
0.0
  0
LINE
  5
A914
  8
3
 10
99.500000000000014
 20
108.4327868542932
 30
0.0
 11
99.500000000000014
 21
119.5000000000028
 31
0.0
  0
LINE
  5
A915
  8
3
 10
100.5000000000001
 20
108.4327868542932
 30
0.0
 11
100.5
 21
119.5000000000028
 31
0.0
  0
LINE
  5
A916
  8
3
 10
102.0
 20
108.1927868542932
 30
0.0
 11
102.0
 21
119.5000000000028
 31
0.0
  0
LINE
  5
A917
  8
3
 10
103.0
 20
108.03278685429321
 30
0.0
 11
103.0
 21
119.5000000000028
 31
0.0
  0
LINE
  5
A918
  8
3
 10
104.5000000000001
 20
107.792786854293
 30
0.0
 11
104.5
 21
119.5000000000028
 31
0.0
  0
LINE
  5
A919
  8
3
 10
105.5000000000001
 20
107.632786854293
 30
0.0
 11
105.5
 21
119.5000000000028
 31
0.0
  0
LINE
  5
A91A
  8
1
 10
100.0
 20
95.000000000002785
 30
0.0
 11
100.0
 21
124.5000000000028
 31
0.0
  0
ARC
  5
A9A6
  8
0
 10
218.69275879868761
 20
107.2657357995348
 30
0.0
 40
0.7248166666419228
 50
84.153380611271032
 51
99.254107425918335
  0
POLYLINE
  5
A9B1
  8
0
 10
383.23340720063277
 20
107.98678208139579
 30
0.0
 66
     1
 70
     8
  0
VERTEX
  8
0
  5
B039
 10
383.233
 20
107.987
 30
0.000000
  70
    32
  0
VERTEX
  8
0
  5
B03A
 10
383.175
 20
107.982
 30
0.000000
  70
    32
  0
VERTEX
  8
0
  5
B03B
 10
383.115
 20
107.976
 30
0.000000
  70
    32
  0
VERTEX
  8
0
  5
B03C
 10
383.055
 20
107.971
 30
0.000000
  70
    32
  0
VERTEX
  8
0
  5
B03D
 10
382.995
 20
107.967
 30
0.000000
  70
    32
  0
VERTEX
  8
0
  5
B03E
 10
382.935
 20
107.962
 30
0.000000
  70
    32
  0
VERTEX
  8
0
  5
B03F
 10
382.874
 20
107.957
 30
0.000000
  70
    32
  0
VERTEX
  8
0
  5
B040
 10
382.812
 20
107.953
 30
0.000000
  70
    32
  0
VERTEX
  8
0
  5
B041
 10
382.750
 20
107.949
 30
0.000000
  70
    32
  0
VERTEX
  8
0
  5
B042
 10
382.688
 20
107.945
 30
0.000000
  70
    32
  0
VERTEX
  8
0
  5
B043
 10
382.625
 20
107.941
 30
0.000000
  70
    32
  0
VERTEX
  8
0
  5
B044
 10
382.562
 20
107.937
 30
0.000000
  70
    32
  0
VERTEX
  8
0
  5
B045
 10
382.499
 20
107.933
 30
0.000000
  70
    32
  0
VERTEX
  8
0
  5
B046
 10
382.435
 20
107.930
 30
0.000000
  70
    32
  0
VERTEX
  8
0
  5
B047
 10
382.371
 20
107.926
 30
0.000000
  70
    32
  0
VERTEX
  8
0
  5
B048
 10
382.307
 20
107.923
 30
0.000000
  70
    32
  0
VERTEX
  8
0
  5
B049
 10
382.243
 20
107.920
 30
0.000000
  70
    32
  0
VERTEX
  8
0
  5
B04A
 10
382.178
 20
107.917
 30
0.000000
  70
    32
  0
VERTEX
  8
0
  5
B04B
 10
382.113
 20
107.914
 30
0.000000
  70
    32
  0
VERTEX
  8
0
  5
B04C
 10
382.047
 20
107.912
 30
0.000000
  70
    32
  0
VERTEX
  8
0
  5
B04D
 10
381.982
 20
107.909
 30
0.000000
  70
    32
  0
VERTEX
  8
0
  5
B04E
 10
381.916
 20
107.907
 30
0.000000
  70
    32
  0
VERTEX
  8
0
  5
B04F
 10
381.850
 20
107.905
 30
0.000000
  70
    32
  0
VERTEX
  8
0
  5
B050
 10
381.784
 20
107.903
 30
0.000000
  70
    32
  0
VERTEX
  8
0
  5
B051
 10
381.718
 20
107.901
 30
0.000000
  70
    32
  0
VERTEX
  8
0
  5
B052
 10
381.651
 20
107.900
 30
0.000000
  70
    32
  0
VERTEX
  8
0
  5
B053
 10
381.585
 20
107.898
 30
0.000000
  70
    32
  0
VERTEX
  8
0
  5
B054
 10
381.518
 20
107.897
 30
0.000000
  70
    32
  0
VERTEX
  8
0
  5
B055
 10
381.451
 20
107.896
 30
0.000000
  70
    32
  0
VERTEX
  8
0
  5
B056
 10
381.384
 20
107.895
 30
0.000000
  70
    32
  0
VERTEX
  8
0
  5
B057
 10
381.317
 20
107.894
 30
0.000000
  70
    32
  0
VERTEX
  8
0
  5
B058
 10
381.250
 20
107.893
 30
0.000000
  70
    32
  0
VERTEX
  8
0
  5
B059
 10
381.183
 20
107.893
 30
0.000000
  70
    32
  0
VERTEX
  8
0
  5
B05A
 10
381.116
 20
107.892
 30
0.000000
  70
    32
  0
VERTEX
  8
0
  5
B05B
 10
381.049
 20
107.892
 30
0.000000
  70
    32
  0
VERTEX
  8
0
  5
B05C
 10
380.981
 20
107.892
 30
0.000000
  70
    32
  0
VERTEX
  8
0
  5
B05D
 10
380.914
 20
107.892
 30
0.000000
  70
    32
  0
VERTEX
  8
0
  5
B05E
 10
380.847
 20
107.892
 30
0.000000
  70
    32
  0
VERTEX
  8
0
  5
B05F
 10
380.780
 20
107.893
 30
0.000000
  70
    32
  0
VERTEX
  8
0
  5
B060
 10
380.713
 20
107.893
 30
0.000000
  70
    32
  0
VERTEX
  8
0
  5
B061
 10
380.646
 20
107.894
 30
0.000000
  70
    32
  0
VERTEX
  8
0
  5
B062
 10
380.579
 20
107.895
 30
0.000000
  70
    32
  0
VERTEX
  8
0
  5
B063
 10
380.512
 20
107.896
 30
0.000000
  70
    32
  0
VERTEX
  8
0
  5
B064
 10
380.445
 20
107.898
 30
0.000000
  70
    32
  0
VERTEX
  8
0
  5
B065
 10
380.378
 20
107.899
 30
0.000000
  70
    32
  0
VERTEX
  8
0
  5
B066
 10
380.312
 20
107.900
 30
0.000000
  70
    32
  0
VERTEX
  8
0
  5
B067
 10
380.246
 20
107.902
 30
0.000000
  70
    32
  0
VERTEX
  8
0
  5
B068
 10
380.179
 20
107.904
 30
0.000000
  70
    32
  0
VERTEX
  8
0
  5
B069
 10
380.113
 20
107.906
 30
0.000000
  70
    32
  0
VERTEX
  8
0
  5
B06A
 10
380.047
 20
107.908
 30
0.000000
  70
    32
  0
VERTEX
  8
0
  5
B06B
 10
379.982
 20
107.911
 30
0.000000
  70
    32
  0
VERTEX
  8
0
  5
B06C
 10
379.916
 20
107.913
 30
0.000000
  70
    32
  0
VERTEX
  8
0
  5
B06D
 10
379.851
 20
107.916
 30
0.000000
  70
    32
  0
VERTEX
  8
0
  5
B06E
 10
379.786
 20
107.919
 30
0.000000
  70
    32
  0
VERTEX
  8
0
  5
B06F
 10
379.722
 20
107.922
 30
0.000000
  70
    32
  0
VERTEX
  8
0
  5
B070
 10
379.657
 20
107.925
 30
0.000000
  70
    32
  0
VERTEX
  8
0
  5
B071
 10
379.593
 20
107.928
 30
0.000000
  70
    32
  0
VERTEX
  8
0
  5
B072
 10
379.529
 20
107.932
 30
0.000000
  70
    32
  0
VERTEX
  8
0
  5
B073
 10
379.466
 20
107.935
 30
0.000000
  70
    32
  0
VERTEX
  8
0
  5
B074
 10
379.403
 20
107.939
 30
0.000000
  70
    32
  0
VERTEX
  8
0
  5
B075
 10
379.340
 20
107.943
 30
0.000000
  70
    32
  0
VERTEX
  8
0
  5
B076
 10
379.278
 20
107.947
 30
0.000000
  70
    32
  0
VERTEX
  8
0
  5
B077
 10
379.216
 20
107.951
 30
0.000000
  70
    32
  0
VERTEX
  8
0
  5
B078
 10
379.154
 20
107.955
 30
0.000000
  70
    32
  0
VERTEX
  8
0
  5
B079
 10
379.093
 20
107.960
 30
0.000000
  70
    32
  0
VERTEX
  8
0
  5
B07A
 10
379.032
 20
107.964
 30
0.000000
  70
    32
  0
VERTEX
  8
0
  5
B07B
 10
378.971
 20
107.969
 30
0.000000
  70
    32
  0
VERTEX
  8
0
  5
B07C
 10
378.911
 20
107.974
 30
0.000000
  70
    32
  0
VERTEX
  8
0
  5
B07D
 10
378.852
 20
107.979
 30
0.000000
  70
    32
  0
VERTEX
  8
0
  5
B07E
 10
378.793
 20
107.984
 30
0.000000
  70
    32
  0
VERTEX
  8
0
  5
B07F
 10
378.734
 20
107.990
 30
0.000000
  70
    32
  0
VERTEX
  8
0
  5
B080
 10
378.676
 20
107.995
 30
0.000000
  70
    32
  0
VERTEX
  8
0
  5
B081
 10
378.619
 20
108.001
 30
0.000000
  70
    32
  0
VERTEX
  8
0
  5
B082
 10
378.562
 20
108.007
 30
0.000000
  70
    32
  0
VERTEX
  8
0
  5
B083
 10
378.505
 20
108.013
 30
0.000000
  70
    32
  0
VERTEX
  8
0
  5
B084
 10
378.449
 20
108.019
 30
0.000000
  70
    32
  0
VERTEX
  8
0
  5
B085
 10
378.394
 20
108.025
 30
0.000000
  70
    32
  0
VERTEX
  8
0
  5
B086
 10
378.339
 20
108.031
 30
0.000000
  70
    32
  0
VERTEX
  8
0
  5
B087
 10
378.284
 20
108.037
 30
0.000000
  70
    32
  0
VERTEX
  8
0
  5
B088
 10
378.231
 20
108.044
 30
0.000000
  70
    32
  0
VERTEX
  8
0
  5
B089
 10
378.178
 20
108.051
 30
0.000000
  70
    32
  0
VERTEX
  8
0
  5
B08A
 10
378.125
 20
108.057
 30
0.000000
  70
    32
  0
VERTEX
  8
0
  5
B08B
 10
378.073
 20
108.064
 30
0.000000
  70
    32
  0
VERTEX
  8
0
  5
B08C
 10
378.022
 20
108.071
 30
0.000000
  70
    32
  0
VERTEX
  8
0
  5
B08D
 10
377.972
 20
108.079
 30
0.000000
  70
    32
  0
VERTEX
  8
0
  5
B08E
 10
377.922
 20
108.086
 30
0.000000
  70
    32
  0
VERTEX
  8
0
  5
B08F
 10
377.872
 20
108.093
 30
0.000000
  70
    32
  0
VERTEX
  8
0
  5
B090
 10
377.824
 20
108.101
 30
0.000000
  70
    32
  0
VERTEX
  8
0
  5
B091
 10
377.776
 20
108.109
 30
0.000000
  70
    32
  0
VERTEX
  8
0
  5
B092
 10
377.729
 20
108.116
 30
0.000000
  70
    32
  0
VERTEX
  8
0
  5
B093
 10
377.682
 20
108.124
 30
0.000000
  70
    32
  0
VERTEX
  8
0
  5
B094
 10
377.637
 20
108.132
 30
0.000000
  70
    32
  0
VERTEX
  8
0
  5
B095
 10
377.592
 20
108.140
 30
0.000000
  70
    32
  0
VERTEX
  8
0
  5
B096
 10
377.547
 20
108.148
 30
0.000000
  70
    32
  0
VERTEX
  8
0
  5
B097
 10
377.504
 20
108.157
 30
0.000000
  70
    32
  0
VERTEX
  8
0
  5
B098
 10
377.461
 20
108.165
 30
0.000000
  70
    32
  0
VERTEX
  8
0
  5
B099
 10
377.419
 20
108.174
 30
0.000000
  70
    32
  0
VERTEX
  8
0
  5
B09A
 10
377.378
 20
108.182
 30
0.000000
  70
    32
  0
VERTEX
  8
0
  5
B09B
 10
377.337
 20
108.191
 30
0.000000
  70
    32
  0
VERTEX
  8
0
  5
B09C
 10
377.298
 20
108.200
 30
0.000000
  70
    32
  0
VERTEX
  8
0
  5
B09D
 10
377.259
 20
108.209
 30
0.000000
  70
    32
  0
VERTEX
  8
0
  5
B09E
 10
377.221
 20
108.218
 30
0.000000
  70
    32
  0
VERTEX
  8
0
  5
B09F
 10
377.184
 20
108.227
 30
0.000000
  70
    32
  0
VERTEX
  8
0
  5
B0A0
 10
377.147
 20
108.236
 30
0.000000
  70
    32
  0
VERTEX
  8
0
  5
B0A1
 10
377.112
 20
108.245
 30
0.000000
  70
    32
  0
VERTEX
  8
0
  5
B0A2
 10
377.077
 20
108.254
 30
0.000000
  70
    32
  0
VERTEX
  8
0
  5
B0A3
 10
377.043
 20
108.264
 30
0.000000
  70
    32
  0
VERTEX
  8
0
  5
B0A4
 10
377.011
 20
108.273
 30
0.000000
  70
    32
  0
VERTEX
  8
0
  5
B0A5
 10
376.978
 20
108.283
 30
0.000000
  70
    32
  0
VERTEX
  8
0
  5
B0A6
 10
376.947
 20
108.293
 30
0.000000
  70
    32
  0
VERTEX
  8
0
  5
B0A7
 10
376.917
 20
108.302
 30
0.000000
  70
    32
  0
VERTEX
  8
0
  5
B0A8
 10
376.887
 20
108.312
 30
0.000000
  70
    32
  0
VERTEX
  8
0
  5
B0A9
 10
376.859
 20
108.322
 30
0.000000
  70
    32
  0
VERTEX
  8
0
  5
B0AA
 10
376.831
 20
108.332
 30
0.000000
  70
    32
  0
VERTEX
  8
0
  5
B0AB
 10
376.804
 20
108.342
 30
0.000000
  70
    32
  0
VERTEX
  8
0
  5
B0AC
 10
376.779
 20
108.352
 30
0.000000
  70
    32
  0
VERTEX
  8
0
  5
B0AD
 10
376.754
 20
108.362
 30
0.000000
  70
    32
  0
VERTEX
  8
0
  5
B0AE
 10
376.730
 20
108.372
 30
0.000000
  70
    32
  0
VERTEX
  8
0
  5
B0AF
 10
376.707
 20
108.383
 30
0.000000
  70
    32
  0
VERTEX
  8
0
  5
B0B0
 10
376.685
 20
108.393
 30
0.000000
  70
    32
  0
VERTEX
  8
0
  5
B0B1
 10
376.663
 20
108.403
 30
0.000000
  70
    32
  0
VERTEX
  8
0
  5
B0B2
 10
376.643
 20
108.414
 30
0.000000
  70
    32
  0
VERTEX
  8
0
  5
B0B3
 10
376.624
 20
108.424
 30
0.000000
  70
    32
  0
VERTEX
  8
0
  5
B0B4
 10
376.605
 20
108.434
 30
0.000000
  70
    32
  0
VERTEX
  8
0
  5
B0B5
 10
376.588
 20
108.445
 30
0.000000
  70
    32
  0
VERTEX
  8
0
  5
B0B6
 10
376.572
 20
108.456
 30
0.000000
  70
    32
  0
VERTEX
  8
0
  5
B0B7
 10
376.556
 20
108.466
 30
0.000000
  70
    32
  0
VERTEX
  8
0
  5
B0B8
 10
376.542
 20
108.477
 30
0.000000
  70
    32
  0
VERTEX
  8
0
  5
B0B9
 10
376.528
 20
108.487
 30
0.000000
  70
    32
  0
SEQEND
  8
0
  5
B0BA
  0
LINE
  5
A9B2
  8
0
 10
388.55576553388829
 20
107.04803446956871
 30
0.0
 11
390.1788854382005
 21
106.75292175969381
 31
0.0
  0
LINE
  5
A9B3
  8
0
 10
383.42380137665708
 20
107.98111886179269
 30
0.0
 11
388.55576553388852
 21
107.04803446956871
 31
0.0
  0
LINE
  5
A9B4
  8
0
 10
359.50000000000051
 20
100.0000000000005
 30
0.0
 11
359.50000000000051
 21
108.5000000000005
 31
0.0
  0
LINE
  5
A9B5
  8
0
 10
359.50000000000051
 20
100.0000000000005
 30
0.0
 11
402.50000000000011
 21
100.0000000000005
 31
0.0
  0
LINE
  5
A9B6
  8
0
 10
376.51271911209432
 20
108.5000000000002
 30
0.0
 11
376.52814852698839
 21
108.4873761446102
 31
0.0
  0
LINE
  5
A9B7
  8
0
 10
390.1788854382005
 20
106.75292175969381
 30
0.0
 11
400.571344331761
 21
104.8633837790462
 31
0.0
  0
LINE
  5
A9B8
  8
0
 10
400.57134433299791
 20
104.8633837788213
 30
0.0
 11
401.6788854382005
 21
104.6620126687845
 31
0.0
  0
ARC
  5
A9B9
  8
0
 10
401.50000000000011
 20
103.6781427586846
 30
0.0
 40
1.0000000000000091
 50
0.0000000000000071
 51
79.695153531230602
  0
LINE
  5
A9BA
  8
0
 10
359.50000000000051
 20
108.5000000000005
 30
0.0
 11
376.51271911209432
 21
108.5000000000005
 31
0.0
  0
LINE
  5
A9BB
  8
0
 10
402.50000000000011
 20
103.6781427586846
 30
0.0
 11
402.50000000000011
 21
100.0000000000005
 31
0.0
  0
LINE
  5
A9BC
  8
2
 10
378.8500000000044
 20
106.1627191120901
 30
0.0
 11
383.14999999999668
 21
106.1627191120901
 31
0.0
  0
LINE
  5
A9BD
  8
2
 10
378.8500000000044
 20
106.1627191120901
 30
0.0
 11
378.8500000000044
 21
102.9999999999999
 31
0.0
  0
LINE
  5
A9BE
  8
2
 10
383.15000000000441
 20
106.1627191120978
 30
0.0
 11
383.15000000000418
 21
102.9999999999999
 31
0.0
  0
LINE
  5
A9BF
  8
2
 10
383.15000000000441
 20
106.1627191120978
 30
0.0
 11
384.73076923076979
 21
107.7434883428631
 31
0.0
  0
LINE
  5
A9C0
  8
2
 10
378.8500000000044
 20
106.1627191120901
 30
0.0
 11
376.51271911209432
 21
108.5000000000002
 31
0.0
  0
ARC
  5
A9C1
  8
2
 10
300.99999996846452
 20
-15.500000065223761
 30
0.0
 40
134.9999946657806
 50
64.06693522081288
 51
64.320711380481214
  0
ARC
  5
A9C2
  8
2
 10
363.97420106678612
 20
109.0000000000027
 30
0.0
 40
8.9999999999999432
 50
244.06693522074039
 51
270.0
  0
LINE
  5
A9C3
  8
2
 10
369.00000000000011
 20
105.0000000000027
 30
0.0
 11
363.97420106678612
 21
105.0000000000027
 31
0.0
  0
ARC
  5
A9C4
  8
2
 10
301.00000001370341
 20
-20.499999971675191
 30
0.0
 40
134.99999484303001
 50
64.066935220711471
 51
64.32071033463022
  0
LINE
  5
A9C5
  8
2
 10
369.00000000000011
 20
105.0000000000027
 30
0.0
 11
369.00000000000011
 21
100.0000000000027
 31
0.0
  0
ARC
  5
A9C6
  8
2
 10
363.97420106678612
 20
114.0000000000026
 30
0.0
 40
8.9999999999998863
 50
244.06693522072649
 51
270.0
  0
LINE
  5
A9C7
  8
2
 10
396.50000000000028
 20
101.9999999999998
 30
0.0
 11
369.00000000000011
 21
101.9999999999998
 31
0.0
  0
LINE
  5
A9C8
  8
2
 10
369.00000000000011
 20
102.9999999999999
 30
0.0
 11
396.50000000000028
 21
102.9999999999999
 31
0.0
  0
LINE
  5
A9C9
  8
2
 10
396.50000000000028
 20
102.9999999999998
 30
0.0
 11
396.50000000000028
 21
101.9999999999998
 31
0.0
  0
LINE
  5
A9CA
  8
1
 10
381.0000000000004
 20
97.000000000000554
 30
0.0
 11
381.0000000000004
 21
110.8800747996177
 31
0.0
  0
ARC
  5
A9CB
  8
0
 10
383.30724120131242
 20
107.2657357995348
 30
0.0
 40
0.7248166666419228
 50
80.745892574081608
 51
95.846619388728939
  0
CIRCLE
  5
AA8C
  8
0
 10
381.00000000000438
 20
199.9990792622161
 30
0.0
 40
2.149999999999999
  0
CIRCLE
  5
AA8F
  8
0
 10
220.99999999999889
 20
199.9990792622161
 30
0.0
 40
2.149999999999999
  0
ARC
  5
AAEB
  8
0
 10
211.99999999999849
 20
199.99907926221479
 30
0.0
 40
12.49999999999867
 50
205.35229998980731
 51
270.00000000000159
  0
ARC
  5
AAEC
  8
0
 10
390.00000000000438
 20
199.9990792622161
 30
0.0
 40
12.49999999999944
 50
334.64770001018809
 51
25.352299766104402
  0
ARC
  5
AAED
  8
0
 10
390.0000000000046
 20
199.99907926221729
 30
0.0
 40
12.499999999998749
 50
25.352299766097911
 51
90.0
  0
ARC
  5
AAEE
  8
0
 10
390.0000000000046
 20
199.99907926221479
 30
0.0
 40
12.49999999999867
 50
270.0
 51
334.64770001019218
  0
TEXT
  5
AC4F
  8
0
 62
     3
 10
0.0
 20
0.0
 30
0.0
 40
10.0
  1
CA-160-P
  7
STANDARD1
  0
ENDSEC
  0
EOF
