  0
SECTION
  2
HEADER
  9
$ACADVER
  1
AC1009
  9
$INSBASE
 10
0.0
 20
0.0
 30
0.0
  9
$EXTMIN
 10
0.0
 20
-2.960436562073669
 30
0.0
  9
$EXTMAX
 10
279.31479122813198
 20
205.0000000000002
 30
0.0
  9
$LIMMIN
 10
0.0
 20
0.0
  9
$LIMMAX
 10
375.0
 20
270.0
  9
$ORTHOMODE
 70
     1
  9
$REGENMODE
 70
     1
  9
$FILLMODE
 70
     1
  9
$QTEXTMODE
 70
     0
  9
$MIRRTEXT
 70
     0
  9
$DRAGMODE
 70
     2
  9
$LTSCALE
 40
10.0
  9
$OSMODE
 70
  3071
  9
$ATTMODE
 70
     1
  9
$TEXTSIZE
 40
0.2
  9
$TRACEWID
 40
0.05
  9
$TEXTSTYLE
  7
STANDARD
  9
$CLAYER
  8
0
  9
$CELTYPE
  6
BYLAYER
  9
$CECOLOR
 62
   256
  9
$DIMSCALE
 40
1.0
  9
$DIMASZ
 40
3.0
  9
$DIMEXO
 40
2.0
  9
$DIMDLI
 40
0.38
  9
$DIMRND
 40
0.0
  9
$DIMDLE
 40
0.0
  9
$DIMEXE
 40
2.0
  9
$DIMTP
 40
0.0
  9
$DIMTM
 40
0.0
  9
$DIMTXT
 40
3.2000000000000002
  9
$DIMCEN
 40
0.0
  9
$DIMTSZ
 40
0.0
  9
$DIMTOL
 70
     0
  9
$DIMLIM
 70
     0
  9
$DIMTIH
 70
     0
  9
$DIMTOH
 70
     0
  9
$DIMSE1
 70
     0
  9
$DIMSE2
 70
     0
  9
$DIMTAD
 70
     1
  9
$DIMZIN
 70
     0
  9
$DIMBLK
  1

  9
$DIMASO
 70
     1
  9
$DIMSHO
 70
     0
  9
$DIMPOST
  1

  9
$DIMAPOST
  1

  9
$DIMALT
 70
     0
  9
$DIMALTD
 70
     2
  9
$DIMALTF
 40
25.399999999999999
  9
$DIMLFAC
 40
1.0
  9
$DIMTOFL
 70
     1
  9
$DIMTVP
 40
1.6000000000000001
  9
$DIMTIX
 70
     1
  9
$DIMSOXD
 70
     0
  9
$DIMSAH
 70
     0
  9
$DIMBLK1
  1

  9
$DIMBLK2
  1

  9
$DIMSTYLE
  2
STANDARD
  9
$DIMCLRD
 70
     0
  9
$DIMCLRE
 70
     0
  9
$DIMCLRT
 70
     0
  9
$DIMTFAC
 40
1.0
  9
$DIMGAP
 40
0.09
  9
$LUNITS
 70
     2
  9
$LUPREC
 70
     4
  9
$SKETCHINC
 40
0.1
  9
$FILLETRAD
 40
1.0
  9
$AUNITS
 70
     0
  9
$AUPREC
 70
     4
  9
$MENU
  1
E:\r13\win\SUPPORT\ACAD
  9
$ELEVATION
 40
0.0
  9
$PELEVATION
 40
0.0
  9
$THICKNESS
 40
0.0
  9
$LIMCHECK
 70
     0
  9
$BLIPMODE
 70
     0
  9
$CHAMFERA
 40
0.0
  9
$CHAMFERB
 40
0.0
  9
$SKPOLY
 70
     0
  9
$TDCREATE
 40
2449839.789050926
  9
$TDUPDATE
 40
2456598.4687353242
  9
$TDINDWG
 40
0.0002590046
  9
$TDUSRTIMER
 40
0.0002590046
  9
$USRTIMER
 70
     1
  9
$ANGBASE
 50
0.0
  9
$ANGDIR
 70
     0
  9
$PDMODE
 70
     0
  9
$PDSIZE
 40
0.0
  9
$PLINEWID
 40
0.0
  9
$COORDS
 70
     1
  9
$SPLFRAME
 70
     0
  9
$SPLINETYPE
 70
     6
  9
$SPLINESEGS
 70
     8
  9
$ATTDIA
 70
     0
  9
$ATTREQ
 70
     1
  9
$HANDLING
 70
     1
  9
$HANDSEED
  5
2A9
  9
$SURFTAB1
 70
     6
  9
$SURFTAB2
 70
     6
  9
$SURFTYPE
 70
     6
  9
$SURFU
 70
     6
  9
$SURFV
 70
     6
  9
$UCSNAME
  2

  9
$UCSORG
 10
0.0
 20
0.0
 30
0.0
  9
$UCSXDIR
 10
1.0
 20
0.0
 30
0.0
  9
$UCSYDIR
 10
0.0
 20
1.0
 30
0.0
  9
$PUCSNAME
  2

  9
$PUCSORG
 10
0.0
 20
0.0
 30
0.0
  9
$PUCSXDIR
 10
1.0
 20
0.0
 30
0.0
  9
$PUCSYDIR
 10
0.0
 20
1.0
 30
0.0
  9
$USERI1
 70
     0
  9
$USERI2
 70
     1
  9
$USERI3
 70
     1
  9
$USERI4
 70
     0
  9
$USERI5
 70
     0
  9
$USERR1
 40
0.0
  9
$USERR2
 40
0.0
  9
$USERR3
 40
0.0
  9
$USERR4
 40
0.0
  9
$USERR5
 40
0.0
  9
$WORLDVIEW
 70
     1
  9
$SHADEDGE
 70
     3
  9
$SHADEDIF
 70
    70
  9
$TILEMODE
 70
     1
  9
$MAXACTVP
 70
    16
  9
$PLIMCHECK
 70
     0
  9
$PEXTMIN
 10
1.0000000000000000E+020
 20
1.0000000000000000E+020
 30
1.0000000000000000E+020
  9
$PEXTMAX
 10
-1.0000000000000000E+020
 20
-1.0000000000000000E+020
 30
-1.0000000000000000E+020
  9
$PLIMMIN
 10
0.0
 20
0.0
  9
$PLIMMAX
 10
12.0
 20
9.0
  9
$UNITMODE
 70
     0
  9
$VISRETAIN
 70
     0
  9
$PLINEGEN
 70
     0
  9
$PSLTSCALE
 70
     0
  0
ENDSEC
  0
SECTION
  2
TABLES
  0
TABLE
  2
VPORT
 70
     1
  0
VPORT
  2
*ACTIVE
 70
     0
 10
0.0
 20
0.0
 11
1.0
 21
1.0
 12
195.0581083320873
 22
133.5127261426681
 13
0.0
 23
0.0
 14
10.0
 24
10.0
 15
10.0
 25
10.0
 16
0.0
 26
0.0
 36
1.0
 17
0.0
 27
0.0
 37
0.0
 40
275.42274993631997
 41
1.831871345029239
 42
50.0
 43
0.0
 44
0.0
 50
0.0
 51
0.0
 71
     0
 72
   500
 73
     1
 74
     0
 75
     0
 76
     0
 77
     0
 78
     2
  0
ENDTAB
  0
TABLE
  2
LTYPE
 70
     3
  0
LTYPE
  2
CONTINUOUS
 70
     0
  3
Solid Line
 72
    65
 73
     0
 40
0.0
  0
LTYPE
  2
CENTER
 70
     0
  3
____ _ ____ _ ____ _ ____ _ ____ _ ____ _ ____
 72
    65
 73
     4
 40
2.0
 49
1.25
 49
-0.25
 49
0.25
 49
-0.25
  0
LTYPE
  2
PHANTOM2
 70
     0
  3
___ _ _ ___ _ _ ___ _ _ ___ _ _
 72
    65
 73
     6
 40
1.25
 49
0.625
 49
-0.125
 49
0.125
 49
-0.125
 49
0.125
 49
-0.125
  0
ENDTAB
  0
TABLE
  2
LAYER
 70
     3
  0
LAYER
  2
0
 70
     0
 62
     7
  6
CONTINUOUS
  0
LAYER
  2
1
 70
     0
 62
     1
  6
CENTER
  0
LAYER
  2
3
 70
     0
 62
     3
  6
CONTINUOUS
  0
ENDTAB
  0
TABLE
  2
STYLE
 70
     2
  0
STYLE
  2
STANDARD
 70
     0
 40
0.0
 41
1.0
 50
0.0
 71
     0
 42
0.2
  3
TXT
  4
BIGFONT
  0
STYLE
  2
STANDARD1
 70
     0
 40
0.0
 41
1.0
 50
0.0
 71
     0
 42
3.0
  3
txt
  4

  0
ENDTAB
  0
TABLE
  2
VIEW
 70
     1
  0
VIEW
  2
ALL
 70
     0
 40
270.0
 10
220.99159663865549
 20
135.0
 41
0.0
 11
0.0
 21
0.0
 31
1.0
 12
0.0
 22
0.0
 32
0.0
 42
0.0
 43
0.0
 44
0.0
 50
0.0
 71
     0
  0
ENDTAB
  0
TABLE
  2
UCS
 70
     0
  0
ENDTAB
  0
TABLE
  2
APPID
 70
     3
  0
APPID
  2
ACAD
 70
     0
  0
APPID
  2
ACAD_MLEADERVER
 70
     0
  0
APPID
  2
ACAD_NAV_VCDISPLAY
 70
     0
  0
ENDTAB
  0
TABLE
  2
DIMSTYLE
 70
     1
  0
DIMSTYLE
  2
STANDARD
 70
     0
  3

  4

  5

  6

  7

 40
1.0
 41
0.18
 42
0.0625
 43
0.38
 44
0.18
 45
0.0
 46
0.0
 47
0.0
 48
0.0
140
0.18
141
0.09
142
0.0
143
25.399999999999999
144
1.0
145
0.0
146
1.0
147
0.09
 71
     0
 72
     0
 73
     1
 74
     1
 75
     0
 76
     0
 77
     0
 78
     0
170
     0
171
     2
172
     0
173
     0
174
     0
175
     0
176
     0
177
     0
178
     0
  0
ENDTAB
  0
ENDSEC
  0
SECTION
  2
BLOCKS
  0
BLOCK
  8
0
  2
$MODEL_SPACE
 70
     0
 10
0.0
 20
0.0
 30
0.0
  3
$MODEL_SPACE
  1

  0
ENDBLK
  5
12A
  8
0
  0
BLOCK
 67
     1
  8
0
  2
$PAPER_SPACE
 70
     0
 10
0.0
 20
0.0
 30
0.0
  3
$PAPER_SPACE
  1

  0
ENDBLK
  5
128
 67
     1
  8
0
  0
ENDSEC
  0
SECTION
  2
ENTITIES
  0
LINE
  5
34
  8
0
 10
274.22899353209448
 20
134.58785052111719
 30
0.0
 11
274.22899353209448
 21
124.2786016855206
 31
0.0
  0
LINE
  5
35
  8
0
 10
245.77100646790521
 20
134.5878505211173
 30
0.0
 11
245.77100646790521
 21
124.2786016855212
 31
0.0
  0
ARC
  5
36
  8
0
 10
244.707666712182
 20
131.19736664495571
 30
0.0
 40
8.0
 50
258.00001336186358
 51
291.59252061343551
  0
ARC
  5
37
  8
0
 10
250.22771776911861
 20
117.2500000000001
 30
0.0
 40
7.0
 50
77.73456341612291
 51
111.5925506131487
  0
ARC
  5
38
  8
0
 10
275.29233328781771
 20
131.19736664495571
 30
0.0
 40
8.0
 50
248.4074793865646
 51
281.99998663813648
  0
ARC
  5
39
  8
0
 10
269.77228223088088
 20
117.2500000000001
 30
0.0
 40
7.0
 50
68.407449386851326
 51
102.2654365838771
  0
ARC
  5
3A
  8
0
 10
259.9999999999996
 20
162.20000000000019
 30
0.0
 40
39.0
 50
257.7345665391075
 51
282.26543549889931
  0
ARC
  5
3B
  8
0
 10
246.75545381943101
 20
127.6574202738618
 30
0.0
 40
8.0
 50
76.615511344701517
 51
101.576434306531
  0
ARC
  5
3C
  8
0
 10
250.22771776911861
 20
142.25000000000011
 30
0.0
 40
7.0
 50
256.61550900671352
 51
282.26542945229039
  0
ARC
  5
3D
  8
0
 10
273.24454618056859
 20
127.6574202738618
 30
0.0
 40
8.0
 50
78.423565693469044
 51
103.3844886552985
  0
ARC
  5
3E
  8
0
 10
269.77228223088099
 20
142.25000000000011
 30
0.0
 40
7.0
 50
257.73457054770961
 51
283.38449099328648
  0
ARC
  5
3F
  8
0
 10
259.99999999999977
 20
97.300000000000182
 30
0.0
 40
39.0
 50
77.734563921453358
 51
102.2654335796915
  0
ARC
  5
40
  8
0
 10
278.31479122813198
 20
133.66518536217069
 30
0.0
 40
1.0
 50
0.0
 51
75.469960909223957
  0
ARC
  5
41
  8
0
 10
241.68520877186779
 20
133.6651853621708
 30
0.0
 40
1.0
 50
104.5300390907753
 51
180.0
  0
ARC
  5
42
  8
0
 10
248.99999999999969
 20
121.5951079834026
 30
0.0
 40
0.5
 50
0.0000000000000509
 51
78.000000000000014
  0
ARC
  5
43
  8
0
 10
270.99999999999977
 20
121.5951079834026
 30
0.0
 40
0.5
 50
102.0
 51
180.00000000000011
  0
LINE
  5
44
  8
0
 10
249.10395584540871
 20
122.08418178376959
 30
0.0
 11
240.68520877186779
 21
123.873641715291
 31
0.0
  0
LINE
  5
45
  8
0
 10
270.89604415459081
 20
122.08418178376949
 30
0.0
 11
279.31479122813198
 21
123.873641715291
 31
0.0
  0
LINE
  5
46
  8
0
 10
249.4999999999998
 20
111.3000000000001
 30
0.0
 11
270.49999999999977
 21
111.3000000000001
 31
0.0
  0
LINE
  5
47
  8
0
 10
269.49999999999977
 20
110.3000000000001
 30
0.0
 11
270.49999999999977
 21
111.3000000000001
 31
0.0
  0
LINE
  5
48
  8
0
 10
249.4999999999998
 20
111.3000000000001
 30
0.0
 11
250.4999999999998
 21
110.3000000000001
 31
0.0
  0
LINE
  5
49
  8
0
 10
270.49999999999977
 20
121.5951079834026
 30
0.0
 11
270.49999999999977
 21
111.3000000000001
 31
0.0
  0
LINE
  5
4A
  8
0
 10
249.49999999999969
 20
121.5951079834026
 30
0.0
 11
249.4999999999998
 21
111.3000000000001
 31
0.0
  0
LINE
  5
4B
  8
0
 10
269.49999999999977
 20
110.3000000000001
 30
0.0
 11
250.4999999999998
 21
110.3000000000001
 31
0.0
  0
ARC
  5
4C
  8
0
 10
259.99999999999977
 20
63.000000000000171
 30
0.0
 40
74.000000000000014
 50
75.469960909224227
 51
104.5300390907756
  0
LINE
  5
4D
  8
0
 10
270.49999999999977
 20
122.0000000000001
 30
0.0
 11
249.49999999999969
 21
122.0000000000001
 31
0.0
  0
LINE
  5
4E
  8
0
 10
279.31479122813198
 20
133.66518536217069
 30
0.0
 11
279.31479122813198
 21
123.873641715291
 31
0.0
  0
LINE
  5
4F
  8
0
 10
240.68520877186779
 20
133.6651853621708
 30
0.0
 11
240.68520877186779
 21
123.873641715291
 31
0.0
  0
LINE
  5
50
  8
1
 10
259.99999999999977
 20
142.00000000000011
 30
0.0
 11
259.99999999999977
 21
70.000000000000142
 31
0.0
  0
LINE
  5
51
  8
0
 10
268.22899353209448
 20
134.40027006883679
 30
0.0
 11
268.22899353209448
 21
125.0997299311634
 31
0.0
  0
LINE
  5
52
  8
0
 10
251.7710064679051
 20
134.40027006883679
 30
0.0
 11
251.7710064679051
 21
125.0997299311634
 31
0.0
  0
LINE
  5
53
  8
0
 10
200.4999999999998
 20
122.0000000000001
 30
0.0
 11
179.49999999999969
 21
122.0000000000001
 31
0.0
  0
ARC
  5
54
  8
0
 10
189.9999999999998
 20
63.000000000000171
 30
0.0
 40
74.000000000000014
 50
77.076664775463101
 51
105.0863193255436
  0
LINE
  5
55
  8
0
 10
199.4999999999998
 20
110.3000000000001
 30
0.0
 11
180.49999999999969
 21
110.3000000000001
 31
0.0
  0
LINE
  5
56
  8
0
 10
179.49999999999969
 20
121.5951079834026
 30
0.0
 11
179.49999999999969
 21
111.3000000000001
 31
0.0
  0
LINE
  5
57
  8
0
 10
200.4999999999998
 20
121.5951079834026
 30
0.0
 11
200.4999999999998
 21
111.3000000000001
 31
0.0
  0
LINE
  5
58
  8
0
 10
179.49999999999969
 20
111.3000000000001
 30
0.0
 11
180.49999999999969
 21
110.3000000000001
 31
0.0
  0
LINE
  5
59
  8
0
 10
199.4999999999998
 20
110.3000000000001
 30
0.0
 11
200.4999999999998
 21
111.3000000000001
 31
0.0
  0
LINE
  5
5A
  8
0
 10
179.49999999999969
 20
111.3000000000001
 30
0.0
 11
200.4999999999998
 21
111.3000000000001
 31
0.0
  0
LINE
  5
5B
  8
0
 10
200.8960441545909
 20
122.08418178376949
 30
0.0
 11
207.32623792124929
 21
123.4509616616825
 31
0.0
  0
LINE
  5
5C
  8
0
 10
179.10395584540859
 20
122.08418178376959
 30
0.0
 11
170.0
 21
124.0192873358653
 31
0.0
  0
ARC
  5
5D
  8
0
 10
200.9999999999998
 20
121.5951079834026
 30
0.0
 40
0.5
 50
102.0
 51
180.00000000000011
  0
ARC
  5
5E
  8
0
 10
178.9999999999998
 20
121.5951079834026
 30
0.0
 40
0.5
 50
0.0000000000000509
 51
78.000000000000014
  0
ARC
  5
5F
  8
0
 10
167.91383605356401
 20
163.95346261241551
 30
0.0
 40
12.0
 50
11.129365024153961
 51
60.870634975847082
  0
ARC
  5
60
  8
0
 10
198.43616394643601
 20
154.03615710514239
 30
0.0
 40
12.0
 50
83.129365024153714
 51
132.87063497584739
  0
ARC
  5
61
  8
0
 10
217.30000000000001
 20
180.0
 30
0.0
 40
12.0
 50
155.12936502415019
 51
204.8706349758491
  0
ARC
  5
62
  8
0
 10
198.43616394643601
 20
205.96384289485781
 30
0.0
 40
12.0
 50
227.12936502414951
 51
276.87063497585228
  0
ARC
  5
63
  8
0
 10
167.9138360535637
 20
196.04653738758461
 30
0.0
 40
12.0
 50
299.12936502414323
 51
348.87063497585513
  0
ARC
  5
64
  8
0
 10
201.3262379212492
 20
171.77100646790541
 30
0.0
 40
6.0000000000000462
 50
255.9704104300983
 51
32.02958956989486
  0
ARC
  5
65
  8
0
 10
185.67376207875071
 20
166.6852087718681
 30
0.0
 40
6.000000000000095
 50
183.97041043010049
 51
320.02958956989647
  0
ARC
  5
66
  8
0
 10
176.0
 20
180.0
 30
0.0
 40
6.0
 50
111.97041043012079
 51
248.02958956990031
  0
LINE
  5
67
  8
1
 10
190.0
 20
205.0000000000002
 30
0.0
 11
190.0
 21
155.0
 31
0.0
  0
ARC
  5
68
  8
0
 10
185.67376207875071
 20
193.31479122813209
 30
0.0
 40
6.000000000000032
 50
39.970410430108487
 51
176.0295895698824
  0
ARC
  5
69
  8
0
 10
201.3262379212494
 20
188.22899353209471
 30
0.0
 40
5.9999999999999583
 50
327.97041043010267
 51
104.02958956989239
  0
LINE
  5
6A
  8
1
 10
165.0
 20
180.0
 30
0.0
 11
215.0
 21
180.0
 31
0.0
  0
LINE
  5
6B
  8
1
 10
189.99999999999969
 20
142.00000000000011
 30
0.0
 11
189.9999999999998
 21
70.000000000000142
 31
0.0
  0
LINE
  5
6C
  8
0
 10
170.0
 20
133.4840407468246
 30
0.0
 11
170.0
 21
124.0192873358653
 31
0.0
  0
LINE
  5
6D
  8
0
 10
207.3262379212492
 20
134.15092378415599
 30
0.0
 11
207.3262379212492
 21
123.4509616616825
 31
0.0
  0
ARC
  5
6E
  8
0
 10
171.0
 20
133.4840407468246
 30
0.0
 40
1.0
 50
105.0863193255432
 51
180.0
  0
ARC
  5
6F
  8
0
 10
206.3262379212492
 20
134.15092378415599
 30
0.0
 40
1.0
 50
0.0
 51
77.076664775463229
  0
ARC
  5
70
  8
0
 10
195.07186002252649
 20
124.8606198886919
 30
0.0
 40
11.444548245645329
 50
75.688154277322852
 51
101.82830072887769
  0
ARC
  5
71
  8
0
 10
177.5715099570869
 20
132.07450844448431
 30
0.0
 40
3.816276234486601
 50
79.986437734238237
 51
100.20001527353369
  0
ARC
  5
72
  8
0
 10
184.88578442642799
 20
173.49872452696229
 30
0.0
 40
38.248724526962178
 50
259.98650136086621
 51
281.82825775787302
  0
ARC
  5
73
  8
0
 10
203.47635235478111
 20
157.8042377391705
 30
0.0
 40
22.554237739170389
 50
255.6881160257802
 51
275.29371743951918
  0
ARC
  5
74
  8
0
 10
203.47635235478111
 20
101.6957622608298
 30
0.0
 40
22.554237739170389
 50
80.171795623833518
 51
104.3118839742198
  0
ARC
  5
75
  8
0
 10
184.88578442642799
 20
86.001275473038021
 30
0.0
 40
38.248724526962178
 50
78.171742242126982
 51
98.964521798643815
  0
ARC
  5
76
  8
0
 10
195.07186002252649
 20
134.63938011130841
 30
0.0
 40
11.444548245645329
 50
258.17169927112241
 51
284.31184572267722
  0
ARC
  5
77
  8
0
 10
175.10198987276181
 20
148.0222595494167
 30
0.0
 40
24.53921302214642
 50
257.99999856303248
 51
278.96452213100878
  0
LINE
  5
78
  8
0
 10
173.75523372260039
 20
134.16956911906021
 30
0.0
 11
173.75523372260039
 21
124.5216042910203
 31
0.0
  0
LINE
  5
79
  8
0
 10
179.68816242708641
 20
134.59567705577669
 30
0.0
 11
179.68816242708641
 21
124.90432294422359
 31
0.0
  0
LINE
  5
7A
  8
0
 10
190.27201987418229
 20
134.62134235307201
 30
0.0
 11
190.27201987418229
 21
124.8786576469282
 31
0.0
  0
LINE
  5
7B
  8
0
 10
199.87170017087061
 20
134.5274553561523
 30
0.0
 11
199.87170017087061
 21
124.972544643848
 31
0.0
  0
LINE
  5
7C
  8
1
 10
119.9999999999998
 20
142.00000000000011
 30
0.0
 11
119.9999999999998
 21
70.000000000000142
 31
0.0
  0
LINE
  5
7D
  8
0
 10
100.68520877186781
 20
133.6651853621708
 30
0.0
 11
100.68520877186781
 21
123.873641715291
 31
0.0
  0
LINE
  5
7E
  8
0
 10
139.3147912281319
 20
133.66518536217069
 30
0.0
 11
139.3147912281319
 21
123.873641715291
 31
0.0
  0
LINE
  5
7F
  8
0
 10
130.49999999999969
 20
122.0000000000001
 30
0.0
 11
109.4999999999997
 21
122.0000000000001
 31
0.0
  0
ARC
  5
80
  8
0
 10
119.9999999999998
 20
63.000000000000171
 30
0.0
 40
74.000000000000014
 50
75.469960909224227
 51
104.5300390907756
  0
LINE
  5
81
  8
0
 10
129.4999999999998
 20
110.3000000000001
 30
0.0
 11
110.4999999999998
 21
110.3000000000001
 31
0.0
  0
LINE
  5
82
  8
0
 10
109.4999999999997
 20
121.5951079834026
 30
0.0
 11
109.4999999999998
 21
111.3000000000001
 31
0.0
  0
LINE
  5
83
  8
0
 10
130.49999999999969
 20
121.5951079834026
 30
0.0
 11
130.4999999999998
 21
111.3000000000001
 31
0.0
  0
LINE
  5
84
  8
0
 10
109.4999999999998
 20
111.3000000000001
 30
0.0
 11
110.4999999999998
 21
110.3000000000001
 31
0.0
  0
LINE
  5
85
  8
0
 10
129.4999999999998
 20
110.3000000000001
 30
0.0
 11
130.4999999999998
 21
111.3000000000001
 31
0.0
  0
LINE
  5
86
  8
0
 10
109.4999999999998
 20
111.3000000000001
 30
0.0
 11
130.4999999999998
 21
111.3000000000001
 31
0.0
  0
LINE
  5
87
  8
0
 10
130.89604415459081
 20
122.08418178376949
 30
0.0
 11
139.3147912281319
 21
123.873641715291
 31
0.0
  0
LINE
  5
88
  8
0
 10
109.10395584540861
 20
122.08418178376959
 30
0.0
 11
100.68520877186781
 21
123.873641715291
 31
0.0
  0
ARC
  5
89
  8
0
 10
130.99999999999969
 20
121.5951079834026
 30
0.0
 40
0.5
 50
102.0
 51
180.00000000000011
  0
ARC
  5
8A
  8
0
 10
108.9999999999997
 20
121.5951079834026
 30
0.0
 40
0.5
 50
0.0000000000000509
 51
78.000000000000014
  0
ARC
  5
8B
  8
0
 10
101.68520877186781
 20
133.6651853621708
 30
0.0
 40
1.0
 50
104.5300390907753
 51
180.0
  0
ARC
  5
8C
  8
0
 10
138.3147912281319
 20
133.66518536217069
 30
0.0
 40
1.0
 50
0.0
 51
75.469960909223957
  0
ARC
  5
8D
  8
0
 10
119.9999999999998
 20
171.63031551440039
 30
0.0
 40
36.38031551440028
 50
257.57684520958418
 51
282.32579297743598
  0
ARC
  5
8E
  8
0
 10
110.38353199653901
 20
127.6204039356211
 30
0.0
 40
8.6679782827410676
 50
77.674244707063522
 51
107.8611458250021
  0
ARC
  5
8F
  8
0
 10
129.61646800346051
 20
127.6204039356211
 30
0.0
 40
8.6679782827410676
 50
72.138854174996794
 51
102.32575529293651
  0
ARC
  5
90
  8
0
 10
129.61646800346051
 20
131.8795960643792
 30
0.0
 40
8.6679782827410676
 50
257.67424470706351
 51
287.86114582500318
  0
ARC
  5
91
  8
0
 10
110.38353199653901
 20
131.8795960643792
 30
0.0
 40
8.6679782827410676
 50
252.13885417499679
 51
282.32575529293649
  0
ARC
  5
92
  8
0
 10
119.9999999999998
 20
87.86968448559989
 30
0.0
 40
36.38031551440028
 50
77.674207022564005
 51
102.42315479041579
  0
ARC
  5
93
  8
0
 10
103.7756239416975
 20
111.3735576920121
 30
0.0
 40
12.87644230798807
 50
72.138891039315979
 51
103.8868567059275
  0
ARC
  5
94
  8
0
 10
103.7756239416975
 20
148.12644230798821
 30
0.0
 40
12.87644230798807
 50
271.0506656936106
 51
287.86110896068408
  0
ARC
  5
95
  8
0
 10
136.224376058302
 20
111.3735576920121
 30
0.0
 40
12.87644230798807
 50
76.113143294072529
 51
107.86110896068401
  0
ARC
  5
96
  8
0
 10
136.224376058302
 20
148.12644230798821
 30
0.0
 40
12.87644230798807
 50
252.13889103931601
 51
268.9493343063894
  0
LINE
  5
97
  8
0
 10
114.4357368538287
 20
134.66645527772761
 30
0.0
 11
114.4357368538287
 21
124.83354472227261
 31
0.0
  0
LINE
  5
98
  8
0
 10
125.5642631461721
 20
134.66645527772781
 30
0.0
 11
125.5642631461721
 21
124.83354472227241
 31
0.0
  0
LINE
  5
99
  8
0
 10
106.26976104952691
 20
134.47598695974909
 30
0.0
 11
106.26976104952691
 21
125.02401304025121
 31
0.0
  0
LINE
  5
9A
  8
0
 10
133.730238950471
 20
134.47598695974941
 30
0.0
 11
133.730238950471
 21
125.02401304025091
 31
0.0
  0
LINE
  5
A2
  8
0
 10
264.99999999999977
 20
110.0000000000001
 30
0.0
 11
254.9999999999998
 21
110.0000000000001
 31
0.0
  0
LINE
  5
A3
  8
0
 10
254.9999999999998
 20
110.3000000000001
 30
0.0
 11
254.9999999999998
 21
110.0000000000001
 31
0.0
  0
LINE
  5
A4
  8
0
 10
264.99999999999977
 20
110.3000000000001
 30
0.0
 11
264.99999999999977
 21
110.0000000000001
 31
0.0
  0
LINE
  5
A5
  8
0
 10
263.99999999999989
 20
76.200000000000045
 30
0.0
 11
255.99999999999969
 21
76.200000000000102
 31
0.0
  0
LINE
  5
A6
  8
0
 10
257.19999999999982
 20
75.000000000000142
 30
0.0
 11
255.99999999999969
 21
76.200000000000102
 31
0.0
  0
LINE
  5
A7
  8
0
 10
263.99999999999989
 20
76.200000000000102
 30
0.0
 11
262.79999999999978
 21
75.000000000000057
 31
0.0
  0
LINE
  5
A8
  8
0
 10
263.99999999999989
 20
110.0000000000001
 30
0.0
 11
263.99999999999989
 21
76.200000000000102
 31
0.0
  0
LINE
  5
A9
  8
3
 10
263.32349999999991
 20
107.5000000000001
 30
0.0
 11
263.32349999999991
 21
75.52350000000024
 31
0.0
  0
LINE
  5
AA
  8
3
 10
256.67649999999958
 20
107.5000000000002
 30
0.0
 11
256.67649999999958
 21
75.52350000000024
 31
0.0
  0
LINE
  5
AB
  8
0
 10
255.99999999999969
 20
110.0000000000001
 30
0.0
 11
255.99999999999969
 21
76.200000000000102
 31
0.0
  0
LINE
  5
AC
  8
0
 10
262.79999999999978
 20
75.000000000000057
 30
0.0
 11
257.19999999999982
 21
75.000000000000142
 31
0.0
  0
LINE
  5
AD
  8
3
 10
256.67649999999958
 20
107.5000000000001
 30
0.0
 11
255.99999999999969
 21
108.6717323713203
 31
0.0
  0
LINE
  5
AE
  8
3
 10
263.32349999999991
 20
107.5000000000001
 30
0.0
 11
263.99999999999989
 21
108.6717323713202
 31
0.0
  0
LINE
  5
AF
  8
0
 10
263.99999999999989
 20
107.5000000000001
 30
0.0
 11
255.99999999999969
 21
107.5000000000002
 31
0.0
  0
LINE
  5
B0
  8
0
 10
193.9999999999998
 20
107.5000000000001
 30
0.0
 11
185.99999999999969
 21
107.5000000000002
 31
0.0
  0
LINE
  5
B1
  8
3
 10
193.3235
 20
107.5000000000001
 30
0.0
 11
193.9999999999998
 21
108.6717323713202
 31
0.0
  0
LINE
  5
B2
  8
3
 10
186.67649999999961
 20
107.5000000000001
 30
0.0
 11
185.99999999999969
 21
108.6717323713203
 31
0.0
  0
LINE
  5
B3
  8
0
 10
192.79999999999981
 20
75.000000000000057
 30
0.0
 11
187.19999999999979
 21
75.000000000000142
 31
0.0
  0
LINE
  5
B4
  8
0
 10
185.99999999999969
 20
110.0000000000001
 30
0.0
 11
185.99999999999969
 21
76.200000000000102
 31
0.0
  0
LINE
  5
B5
  8
3
 10
186.67649999999961
 20
107.5000000000002
 30
0.0
 11
186.67649999999961
 21
75.52350000000024
 31
0.0
  0
LINE
  5
B6
  8
3
 10
193.3235
 20
107.5000000000001
 30
0.0
 11
193.3234999999998
 21
75.52350000000024
 31
0.0
  0
LINE
  5
B7
  8
0
 10
193.9999999999998
 20
110.0000000000001
 30
0.0
 11
193.9999999999998
 21
76.200000000000102
 31
0.0
  0
LINE
  5
B8
  8
0
 10
193.9999999999998
 20
76.200000000000102
 30
0.0
 11
192.79999999999981
 21
75.000000000000057
 31
0.0
  0
LINE
  5
B9
  8
0
 10
187.19999999999979
 20
75.000000000000142
 30
0.0
 11
185.99999999999969
 21
76.200000000000102
 31
0.0
  0
LINE
  5
BA
  8
0
 10
193.9999999999998
 20
76.200000000000045
 30
0.0
 11
185.99999999999969
 21
76.200000000000102
 31
0.0
  0
LINE
  5
BB
  8
0
 10
194.9999999999998
 20
110.3000000000001
 30
0.0
 11
194.9999999999998
 21
110.0000000000001
 31
0.0
  0
LINE
  5
BC
  8
0
 10
184.9999999999998
 20
110.3000000000001
 30
0.0
 11
184.9999999999998
 21
110.0000000000001
 31
0.0
  0
LINE
  5
BD
  8
0
 10
194.9999999999998
 20
110.0000000000001
 30
0.0
 11
184.9999999999998
 21
110.0000000000001
 31
0.0
  0
LINE
  5
BE
  8
0
 10
123.9999999999998
 20
107.5000000000001
 30
0.0
 11
115.9999999999997
 21
107.5000000000002
 31
0.0
  0
LINE
  5
BF
  8
3
 10
123.3235
 20
107.5000000000001
 30
0.0
 11
123.9999999999998
 21
108.6717323713202
 31
0.0
  0
LINE
  5
C0
  8
3
 10
116.67649999999961
 20
107.5000000000001
 30
0.0
 11
115.9999999999997
 21
108.6717323713203
 31
0.0
  0
LINE
  5
C1
  8
0
 10
122.7999999999998
 20
75.000000000000057
 30
0.0
 11
117.1999999999998
 21
75.000000000000142
 31
0.0
  0
LINE
  5
C2
  8
0
 10
115.9999999999997
 20
110.0000000000001
 30
0.0
 11
115.9999999999997
 21
76.200000000000102
 31
0.0
  0
LINE
  5
C3
  8
3
 10
116.67649999999961
 20
107.5000000000002
 30
0.0
 11
116.67649999999961
 21
75.52350000000024
 31
0.0
  0
LINE
  5
C4
  8
3
 10
123.3235
 20
107.5000000000001
 30
0.0
 11
123.3234999999998
 21
75.52350000000024
 31
0.0
  0
LINE
  5
C5
  8
0
 10
123.9999999999998
 20
110.0000000000001
 30
0.0
 11
123.9999999999998
 21
76.200000000000102
 31
0.0
  0
LINE
  5
C6
  8
0
 10
123.9999999999998
 20
76.200000000000102
 30
0.0
 11
122.7999999999998
 21
75.000000000000057
 31
0.0
  0
LINE
  5
C7
  8
0
 10
117.1999999999998
 20
75.000000000000142
 30
0.0
 11
115.9999999999997
 21
76.200000000000102
 31
0.0
  0
LINE
  5
C8
  8
0
 10
123.9999999999998
 20
76.200000000000045
 30
0.0
 11
115.9999999999997
 21
76.200000000000102
 31
0.0
  0
LINE
  5
C9
  8
0
 10
124.9999999999998
 20
110.3000000000001
 30
0.0
 11
124.9999999999998
 21
110.0000000000001
 31
0.0
  0
LINE
  5
CA
  8
0
 10
114.9999999999998
 20
110.3000000000001
 30
0.0
 11
114.9999999999998
 21
110.0000000000001
 31
0.0
  0
LINE
  5
CB
  8
0
 10
124.9999999999998
 20
110.0000000000001
 30
0.0
 11
114.9999999999998
 21
110.0000000000001
 31
0.0
  0
TEXT
  5
21A
  8
0
 62
     3
 10
0.0
 20
0.0
 30
0.0
 40
10.0
  1
BTK40X35
  7
STANDARD1
  0
ENDSEC
  0
EOF
