  0
SECTION
  2
HEADER
  9
$ACADVER
  1
AC1009
  9
$INSBASE
 10
0.0
 20
0.0
 30
0.0
  9
$EXTMIN
 10
0.0
 20
-1.4802182810368341
 30
0.0
  9
$EXTMAX
 10
177.40040767397659
 20
100.94012043805741
 30
0.0
  9
$LIMMIN
 10
0.0
 20
0.0
  9
$LIMMAX
 10
187.5
 20
135.0
  9
$ORTHOMODE
 70
     0
  9
$REGENMODE
 70
     1
  9
$FILLMODE
 70
     1
  9
$QTEXTMODE
 70
     0
  9
$MIRRTEXT
 70
     0
  9
$DRAGMODE
 70
     2
  9
$LTSCALE
 40
5.0
  9
$OSMODE
 70
  3071
  9
$ATTMODE
 70
     1
  9
$TEXTSIZE
 40
0.2
  9
$TRACEWID
 40
0.05
  9
$TEXTSTYLE
  7
STANDARD
  9
$CLAYER
  8
0
  9
$CELTYPE
  6
BYLAYER
  9
$CECOLOR
 62
   256
  9
$DIMSCALE
 40
0.5
  9
$DIMASZ
 40
3.0
  9
$DIMEXO
 40
2.0
  9
$DIMDLI
 40
10.0
  9
$DIMRND
 40
0.0
  9
$DIMDLE
 40
0.0
  9
$DIMEXE
 40
2.0
  9
$DIMTP
 40
0.0
  9
$DIMTM
 40
0.0
  9
$DIMTXT
 40
3.2000000000000002
  9
$DIMCEN
 40
0.09
  9
$DIMTSZ
 40
0.0
  9
$DIMTOL
 70
     0
  9
$DIMLIM
 70
     0
  9
$DIMTIH
 70
     0
  9
$DIMTOH
 70
     0
  9
$DIMSE1
 70
     0
  9
$DIMSE2
 70
     0
  9
$DIMTAD
 70
     1
  9
$DIMZIN
 70
     0
  9
$DIMBLK
  1

  9
$DIMASO
 70
     1
  9
$DIMSHO
 70
     0
  9
$DIMPOST
  1

  9
$DIMAPOST
  1

  9
$DIMALT
 70
     0
  9
$DIMALTD
 70
     2
  9
$DIMALTF
 40
25.399999999999999
  9
$DIMLFAC
 40
1.0
  9
$DIMTOFL
 70
     1
  9
$DIMTVP
 40
1.6000000000000001
  9
$DIMTIX
 70
     1
  9
$DIMSOXD
 70
     0
  9
$DIMSAH
 70
     0
  9
$DIMBLK1
  1

  9
$DIMBLK2
  1

  9
$DIMSTYLE
  2
STANDARD
  9
$DIMCLRD
 70
     0
  9
$DIMCLRE
 70
     0
  9
$DIMCLRT
 70
     0
  9
$DIMTFAC
 40
1.0
  9
$DIMGAP
 40
0.09
  9
$LUNITS
 70
     2
  9
$LUPREC
 70
     4
  9
$SKETCHINC
 40
0.1
  9
$FILLETRAD
 40
0.0
  9
$AUNITS
 70
     0
  9
$AUPREC
 70
     0
  9
$MENU
  1
E:\r13\win\SUPPORT\ACAD
  9
$ELEVATION
 40
0.0
  9
$PELEVATION
 40
0.0
  9
$THICKNESS
 40
0.0
  9
$LIMCHECK
 70
     0
  9
$BLIPMODE
 70
     0
  9
$CHAMFERA
 40
0.0
  9
$CHAMFERB
 40
0.0
  9
$SKPOLY
 70
     0
  9
$TDCREATE
 40
2449840.618969908
  9
$TDUPDATE
 40
2456598.404795255
  9
$TDINDWG
 40
0.0013485069
  9
$TDUSRTIMER
 40
0.0013485069
  9
$USRTIMER
 70
     1
  9
$ANGBASE
 50
0.0
  9
$ANGDIR
 70
     0
  9
$PDMODE
 70
     0
  9
$PDSIZE
 40
0.0
  9
$PLINEWID
 40
0.0
  9
$COORDS
 70
     1
  9
$SPLFRAME
 70
     0
  9
$SPLINETYPE
 70
     6
  9
$SPLINESEGS
 70
     8
  9
$ATTDIA
 70
     0
  9
$ATTREQ
 70
     1
  9
$HANDLING
 70
     1
  9
$HANDSEED
  5
2E2
  9
$SURFTAB1
 70
     6
  9
$SURFTAB2
 70
     6
  9
$SURFTYPE
 70
     6
  9
$SURFU
 70
     6
  9
$SURFV
 70
     6
  9
$UCSNAME
  2

  9
$UCSORG
 10
0.0
 20
0.0
 30
0.0
  9
$UCSXDIR
 10
1.0
 20
0.0
 30
0.0
  9
$UCSYDIR
 10
0.0
 20
1.0
 30
0.0
  9
$PUCSNAME
  2

  9
$PUCSORG
 10
0.0
 20
0.0
 30
0.0
  9
$PUCSXDIR
 10
1.0
 20
0.0
 30
0.0
  9
$PUCSYDIR
 10
0.0
 20
1.0
 30
0.0
  9
$USERI1
 70
     0
  9
$USERI2
 70
     1
  9
$USERI3
 70
     1
  9
$USERI4
 70
     0
  9
$USERI5
 70
     0
  9
$USERR1
 40
0.0
  9
$USERR2
 40
0.0
  9
$USERR3
 40
0.0
  9
$USERR4
 40
0.0
  9
$USERR5
 40
0.0
  9
$WORLDVIEW
 70
     1
  9
$SHADEDGE
 70
     3
  9
$SHADEDIF
 70
    70
  9
$TILEMODE
 70
     1
  9
$MAXACTVP
 70
    16
  9
$PLIMCHECK
 70
     0
  9
$PEXTMIN
 10
1.0000000000000000E+020
 20
1.0000000000000000E+020
 30
1.0000000000000000E+020
  9
$PEXTMAX
 10
-1.0000000000000000E+020
 20
-1.0000000000000000E+020
 30
-1.0000000000000000E+020
  9
$PLIMMIN
 10
0.0
 20
0.0
  9
$PLIMMAX
 10
12.0
 20
9.0
  9
$UNITMODE
 70
     0
  9
$VISRETAIN
 70
     0
  9
$PLINEGEN
 70
     0
  9
$PSLTSCALE
 70
     0
  0
ENDSEC
  0
SECTION
  2
TABLES
  0
TABLE
  2
VPORT
 70
     1
  0
VPORT
  2
*ACTIVE
 70
     0
 10
0.0
 20
0.0
 11
1.0
 21
1.0
 12
97.52905416604365
 22
66.75636307133405
 13
0.0
 23
0.0
 14
5.0
 24
5.0
 15
5.0
 25
5.0
 16
0.0
 26
0.0
 36
1.0
 17
0.0
 27
0.0
 37
0.0
 40
137.71137496815999
 41
1.831871345029239
 42
50.0
 43
0.0
 44
0.0
 50
0.0
 51
0.0
 71
     0
 72
   100
 73
     1
 74
     0
 75
     0
 76
     0
 77
     0
 78
     2
  0
ENDTAB
  0
TABLE
  2
LTYPE
 70
     4
  0
LTYPE
  2
CONTINUOUS
 70
     0
  3
Solid Line
 72
    65
 73
     0
 40
0.0
  0
LTYPE
  2
CENTER
 70
     0
  3
____ _ ____ _ ____ _ ____ _ ____ _ ____ _ ____
 72
    65
 73
     4
 40
2.0
 49
1.25
 49
-0.25
 49
0.25
 49
-0.25
  0
LTYPE
  2
HIDDEN
 70
     0
  3
_ _ _ _ _ _ _ _ _ _ _ _ _ _ _ _ _ _ _ _ _ _ _
 72
    65
 73
     2
 40
0.375
 49
0.25
 49
-0.125
  0
LTYPE
  2
PHANTOM2
 70
     0
  3
___ _ _ ___ _ _ ___ _ _ ___ _ _
 72
    65
 73
     6
 40
1.25
 49
0.625
 49
-0.125
 49
0.125
 49
-0.125
 49
0.125
 49
-0.125
  0
ENDTAB
  0
TABLE
  2
LAYER
 70
     4
  0
LAYER
  2
0
 70
     0
 62
     7
  6
CONTINUOUS
  0
LAYER
  2
1
 70
     0
 62
     1
  6
CENTER
  0
LAYER
  2
2
 70
     0
 62
     2
  6
HIDDEN
  0
LAYER
  2
3
 70
     0
 62
     3
  6
CONTINUOUS
  0
ENDTAB
  0
TABLE
  2
STYLE
 70
     2
  0
STYLE
  2
STANDARD
 70
     0
 40
0.0
 41
1.0
 50
0.0
 71
     0
 42
0.2
  3
TXT
  4
BIGFONT
  0
STYLE
  2
STANDARD1
 70
     0
 40
0.0
 41
1.0
 50
0.0
 71
     0
 42
3.0
  3
txt
  4

  0
ENDTAB
  0
TABLE
  2
VIEW
 70
     1
  0
VIEW
  2
ALL
 70
     0
 40
135.0
 10
110.49579799999999
 20
67.5
 41
0.0
 11
0.0
 21
0.0
 31
1.0
 12
0.0
 22
0.0
 32
0.0
 42
0.0
 43
0.0
 44
0.0
 50
0.0
 71
     0
  0
ENDTAB
  0
TABLE
  2
UCS
 70
     0
  0
ENDTAB
  0
TABLE
  2
APPID
 70
     3
  0
APPID
  2
ACAD
 70
     0
  0
APPID
  2
ACAD_MLEADERVER
 70
     0
  0
APPID
  2
ACAD_NAV_VCDISPLAY
 70
     0
  0
ENDTAB
  0
TABLE
  2
DIMSTYLE
 70
     1
  0
DIMSTYLE
  2
STANDARD
 70
     0
  3

  4

  5

  6

  7

 40
1.0
 41
0.18
 42
0.0625
 43
0.38
 44
0.18
 45
0.0
 46
0.0
 47
0.0
 48
0.0
140
0.18
141
0.09
142
0.0
143
25.399999999999999
144
1.0
145
0.0
146
1.0
147
0.09
 71
     0
 72
     0
 73
     1
 74
     1
 75
     0
 76
     0
 77
     0
 78
     0
170
     0
171
     2
172
     0
173
     0
174
     0
175
     0
176
     0
177
     0
178
     0
  0
ENDTAB
  0
ENDSEC
  0
SECTION
  2
BLOCKS
  0
BLOCK
  8
0
  2
$MODEL_SPACE
 70
     0
 10
0.0
 20
0.0
 30
0.0
  3
$MODEL_SPACE
  1

  0
ENDBLK
  5
C0
  8
0
  0
BLOCK
 67
     1
  8
0
  2
$PAPER_SPACE
 70
     0
 10
0.0
 20
0.0
 30
0.0
  3
$PAPER_SPACE
  1

  0
ENDBLK
  5
BE
 67
     1
  8
0
  0
ENDSEC
  0
SECTION
  2
ENTITIES
  0
LINE
  5
152
  8
0
 10
77.890407673976597
 20
83.767120438057475
 30
0.0
 11
79.217407673976595
 21
82.440120438057477
 31
0.0
  0
LINE
  5
153
  8
0
 10
79.217407673976595
 20
98.440120438057477
 30
0.0
 11
77.890407673976597
 21
97.113120438057464
 31
0.0
  0
LINE
  5
154
  8
0
 10
79.217407673976595
 20
82.440120438057477
 30
0.0
 11
119.44040767397659
 21
82.44012043805742
 31
0.0
  0
LINE
  5
155
  8
0
 10
119.44040767397649
 20
98.440120438057477
 30
0.0
 11
79.217407673976595
 21
98.440120438057477
 31
0.0
  0
LINE
  5
156
  8
0
 10
77.890407673976597
 20
89.190120438057477
 30
0.0
 11
77.890407673976597
 21
83.767120438057475
 31
0.0
  0
LINE
  5
157
  8
0
 10
77.890407673976597
 20
97.113120438057464
 30
0.0
 11
77.890407673976597
 21
91.690120438057477
 31
0.0
  0
LINE
  5
158
  8
0
 10
79.217407673976595
 20
89.190120438057477
 30
0.0
 11
79.217407673976595
 21
82.440120438057477
 31
0.0
  0
LINE
  5
159
  8
0
 10
79.217407673976595
 20
98.440120438057477
 30
0.0
 11
79.217407673976595
 21
91.690120438057477
 31
0.0
  0
POLYLINE
  5
15A
  8
0
 66
     1
 10
0.0
 20
0.0
 30
0.0
  0
VERTEX
  5
29E
  8
0
 10
77.890407673976597
 20
91.690120438057477
 30
0.0
  0
VERTEX
  5
29F
  8
0
 10
78.094871174184618
 20
91.690120438057477
 30
0.0
  0
VERTEX
  5
2A0
  8
0
 10
78.522934547604336
 20
91.690120438057477
 30
0.0
  0
VERTEX
  5
2A1
  8
0
 10
78.978497203279744
 20
91.690120438057477
 30
0.0
  0
VERTEX
  5
2A2
  8
0
 10
79.217407673976595
 20
91.690120438057477
 30
0.0
  0
SEQEND
  5
2A3
  8
0
  0
LINE
  5
15B
  8
0
 10
79.217407673976595
 20
91.690120438057477
 30
0.0
 11
80.390407673976597
 21
91.690120438057477
 31
0.0
  0
LINE
  5
15C
  8
0
 10
80.390407673976597
 20
91.690120438057477
 30
0.0
 11
80.390407673976597
 21
89.190120438057477
 31
0.0
  0
POLYLINE
  5
15D
  8
0
 66
     1
 10
0.0
 20
0.0
 30
0.0
  0
VERTEX
  5
2A4
  8
0
 10
79.217407673976595
 20
89.190120438057477
 30
0.0
  0
VERTEX
  5
2A5
  8
0
 10
78.978497203279744
 20
89.190120438057477
 30
0.0
  0
VERTEX
  5
2A6
  8
0
 10
78.522934547604336
 20
89.190120438057477
 30
0.0
  0
VERTEX
  5
2A7
  8
0
 10
78.094871174184618
 20
89.190120438057477
 30
0.0
  0
VERTEX
  5
2A8
  8
0
 10
77.890407673976597
 20
89.190120438057477
 30
0.0
  0
SEQEND
  5
2A9
  8
0
  0
LINE
  5
15E
  8
0
 10
80.390407673976597
 20
89.190120438057477
 30
0.0
 11
79.217407673976595
 21
89.190120438057477
 31
0.0
  0
LINE
  5
15F
  8
1
 10
131.40040767397659
 20
90.440120438057406
 30
0.0
 11
72.890407673976597
 21
90.440120438057477
 31
0.0
  0
LINE
  5
160
  8
1
 10
26.8904076739766
 20
90.440120438057477
 30
0.0
 11
47.890407673976597
 21
90.440120438057477
 31
0.0
  0
LINE
  5
161
  8
1
 10
156.40040767397659
 20
90.440120438057406
 30
0.0
 11
177.40040767397659
 21
90.440120438057406
 31
0.0
  0
LINE
  5
162
  8
1
 10
37.390407673976597
 20
100.94012043805741
 30
0.0
 11
37.390407673976597
 21
79.940120438057477
 31
0.0
  0
LINE
  5
163
  8
1
 10
166.9004076739765
 20
100.94012043805741
 30
0.0
 11
166.9004076739765
 21
79.94012043805742
 31
0.0
  0
CIRCLE
  5
164
  8
0
 10
37.390407673976597
 20
90.440120438057477
 30
0.0
 40
8.0
  0
CIRCLE
  5
165
  8
3
 10
37.390407673976597
 20
90.440120438057477
 30
0.0
 40
6.9175000000000004
  0
CIRCLE
  5
166
  8
0
 10
166.9004076739765
 20
90.440120438057406
 30
0.0
 40
8.0
  0
CIRCLE
  5
167
  8
3
 10
166.9004076739765
 20
90.440120438057406
 30
0.0
 40
6.9175000000000004
  0
LINE
  5
168
  8
0
 10
29.488666673976581
 20
91.690120438057477
 30
0.0
 11
45.292147673976608
 21
91.690120438057477
 31
0.0
  0
LINE
  5
169
  8
0
 10
29.488666673976581
 20
89.190120438057477
 30
0.0
 11
45.292147673976608
 21
89.190120438057477
 31
0.0
  0
CIRCLE
  5
16A
  8
0
 10
166.9004076739765
 20
90.440120438057406
 30
0.0
 40
5.0
  0
CIRCLE
  5
16B
  8
0
 10
166.9004076739765
 20
90.440120438057406
 30
0.0
 40
5.5499999999999989
  0
LINE
  5
16C
  8
3
 10
120.5229076739766
 20
83.522620438057459
 30
0.0
 11
78.1349076739765
 21
83.522620438057402
 31
0.0
  0
LINE
  5
16D
  8
3
 10
120.5229076739765
 20
97.357620438057381
 30
0.0
 11
78.134907673976613
 21
97.357620438057495
 31
0.0
  0
ARC
  5
16E
  8
0
 10
121.3904076739766
 20
90.440120438057363
 30
0.0
 40
5.0
 50
287.45760312372158
 51
72.542396876278289
  0
ARC
  5
170
  8
2
 10
117.8904076739766
 20
90.440120438057363
 30
0.0
 40
5.0
 50
287.45760312372158
 51
72.542396876278289
  0
LINE
  5
171
  8
0
 10
119.44040767397669
 20
82.44012043805742
 30
0.0
 11
119.44040767397669
 21
98.44012043805742
 31
0.0
  0
LINE
  5
172
  8
0
 10
121.8904076739766
 20
95.990120438057374
 30
0.0
 11
119.44040767397669
 21
98.44012043805742
 31
0.0
  0
LINE
  5
173
  8
0
 10
121.8904076739766
 20
95.990120438057374
 30
0.0
 11
122.8904076739766
 21
95.990120438057374
 31
0.0
  0
LINE
  5
174
  8
0
 10
121.8904076739766
 20
84.890120438057409
 30
0.0
 11
119.44040767397669
 21
82.44012043805742
 31
0.0
  0
LINE
  5
175
  8
0
 10
121.8904076739766
 20
84.890120438057409
 30
0.0
 11
122.8904076739766
 21
84.890120438057409
 31
0.0
  0
LINE
  5
176
  8
0
 10
122.8904076739766
 20
95.990120438057374
 30
0.0
 11
122.8904076739766
 21
84.890120438057409
 31
0.0
  0
LINE
  5
177
  8
0
 10
121.8904076739766
 20
95.990120438057374
 30
0.0
 11
121.8904076739766
 21
84.890120438057409
 31
0.0
  0
LINE
  5
178
  8
0
 10
121.8904076739766
 20
51.662628642970049
 30
0.0
 11
121.8904076739766
 21
40.562628642970083
 31
0.0
  0
LINE
  5
179
  8
0
 10
122.8904076739766
 20
51.662628642970049
 30
0.0
 11
122.8904076739766
 21
40.562628642970083
 31
0.0
  0
LINE
  5
17A
  8
0
 10
121.8904076739766
 20
40.562628642970083
 30
0.0
 11
122.8904076739766
 21
40.562628642970083
 31
0.0
  0
LINE
  5
17B
  8
0
 10
121.8904076739766
 20
40.562628642970083
 30
0.0
 11
119.44040767397669
 21
38.112628642970101
 31
0.0
  0
LINE
  5
17C
  8
0
 10
121.8904076739766
 20
51.662628642970049
 30
0.0
 11
122.8904076739766
 21
51.662628642970049
 31
0.0
  0
LINE
  5
17D
  8
0
 10
121.8904076739766
 20
51.662628642970049
 30
0.0
 11
119.44040767397669
 21
54.112628642970087
 31
0.0
  0
LINE
  5
17E
  8
0
 10
119.44040767397669
 20
38.112628642970101
 30
0.0
 11
119.44040767397669
 21
54.112628642970087
 31
0.0
  0
ARC
  5
17F
  8
2
 10
117.8904076739766
 20
46.11262864297003
 30
0.0
 40
5.0
 50
287.45760312372158
 51
72.542396876278289
  0
ARC
  5
180
  8
0
 10
121.3904076739766
 20
46.11262864297003
 30
0.0
 40
5.0
 50
287.45760312372158
 51
72.542396876278289
  0
LINE
  5
181
  8
3
 10
120.5229076739765
 20
53.030128642970062
 30
0.0
 11
78.134907673976613
 21
53.030128642970162
 31
0.0
  0
LINE
  5
182
  8
3
 10
120.5229076739766
 20
39.195128642970133
 30
0.0
 11
78.1349076739765
 21
39.195128642970083
 31
0.0
  0
LINE
  5
183
  8
1
 10
131.40040767397659
 20
46.112628642970087
 30
0.0
 11
72.890407673976597
 21
46.112628642970151
 31
0.0
  0
LINE
  5
184
  8
0
 10
79.217407673976595
 20
54.112628642970151
 30
0.0
 11
79.217407673976595
 21
38.112628642970151
 31
0.0
  0
LINE
  5
185
  8
0
 10
77.890407673976654
 20
52.785628642970153
 30
0.0
 11
77.890407673976597
 21
39.439628642970149
 31
0.0
  0
LINE
  5
186
  8
0
 10
119.44040767397649
 20
54.112628642970151
 30
0.0
 11
79.217407673976595
 21
54.112628642970151
 31
0.0
  0
LINE
  5
187
  8
0
 10
79.217407673976595
 20
38.112628642970151
 30
0.0
 11
119.44040767397659
 21
38.112628642970101
 31
0.0
  0
LINE
  5
188
  8
0
 10
79.217407673976595
 20
54.112628642970151
 30
0.0
 11
77.890407673976597
 21
52.785628642970153
 31
0.0
  0
LINE
  5
189
  8
0
 10
77.890407673976597
 20
39.439628642970149
 30
0.0
 11
79.217407673976595
 21
38.112628642970151
 31
0.0
  0
TEXT
  5
247
  8
0
 62
     3
 10
0.0
 20
0.0
 30
0.0
 40
5.0
  1
BSU16L
  7
STANDARD1
  0
ENDSEC
  0
EOF
