  0
SECTION
  2
HEADER
  9
$ACADVER
  1
AC1009
  9
$INSBASE
 10
0.0
 20
0.0
 30
0.0
  9
$EXTMIN
 10
0.0
 20
-1.4802182810368341
 30
0.0
  9
$EXTMAX
 10
82.650000000000006
 20
36.25
 30
0.0
  9
$LIMMIN
 10
0.0
 20
0.0
  9
$LIMMAX
 10
187.5
 20
135.0
  9
$ORTHOMODE
 70
     1
  9
$REGENMODE
 70
     1
  9
$FILLMODE
 70
     1
  9
$QTEXTMODE
 70
     0
  9
$MIRRTEXT
 70
     0
  9
$DRAGMODE
 70
     2
  9
$LTSCALE
 40
1.0
  9
$OSMODE
 70
    37
  9
$ATTMODE
 70
     1
  9
$TEXTSIZE
 40
4.0
  9
$TRACEWID
 40
0.05
  9
$TEXTSTYLE
  7
STANDARD
  9
$CLAYER
  8
0
  9
$CELTYPE
  6
BYLAYER
  9
$CECOLOR
 62
   256
  9
$DIMSCALE
 40
0.5
  9
$DIMASZ
 40
3.0
  9
$DIMEXO
 40
2.0
  9
$DIMDLI
 40
0.38
  9
$DIMRND
 40
0.0
  9
$DIMDLE
 40
0.0
  9
$DIMEXE
 40
2.0
  9
$DIMTP
 40
0.0
  9
$DIMTM
 40
0.0
  9
$DIMTXT
 40
3.0
  9
$DIMCEN
 40
0.0
  9
$DIMTSZ
 40
0.0
  9
$DIMTOL
 70
     0
  9
$DIMLIM
 70
     0
  9
$DIMTIH
 70
     0
  9
$DIMTOH
 70
     0
  9
$DIMSE1
 70
     0
  9
$DIMSE2
 70
     0
  9
$DIMTAD
 70
     1
  9
$DIMZIN
 70
     8
  9
$DIMBLK
  1

  9
$DIMASO
 70
     0
  9
$DIMSHO
 70
     0
  9
$DIMPOST
  1

  9
$DIMAPOST
  1

  9
$DIMALT
 70
     0
  9
$DIMALTD
 70
     2
  9
$DIMALTF
 40
25.399999999999999
  9
$DIMLFAC
 40
1.0
  9
$DIMTOFL
 70
     1
  9
$DIMTVP
 40
1.6000000000000001
  9
$DIMTIX
 70
     1
  9
$DIMSOXD
 70
     0
  9
$DIMSAH
 70
     0
  9
$DIMBLK1
  1

  9
$DIMBLK2
  1

  9
$DIMSTYLE
  2
STANDARD
  9
$DIMCLRD
 70
   256
  9
$DIMCLRE
 70
   256
  9
$DIMCLRT
 70
   256
  9
$DIMTFAC
 40
1.0
  9
$DIMGAP
 40
1.0
  9
$LUNITS
 70
     2
  9
$LUPREC
 70
     1
  9
$SKETCHINC
 40
0.1
  9
$FILLETRAD
 40
1.0
  9
$AUNITS
 70
     0
  9
$AUPREC
 70
     0
  9
$MENU
  1
E:\r13\win\SUPPORT\ACAD
  9
$ELEVATION
 40
0.0
  9
$PELEVATION
 40
0.0
  9
$THICKNESS
 40
0.0
  9
$LIMCHECK
 70
     0
  9
$BLIPMODE
 70
     0
  9
$CHAMFERA
 40
0.0
  9
$CHAMFERB
 40
0.0
  9
$SKPOLY
 70
     0
  9
$TDCREATE
 40
2449840.6143865739
  9
$TDUPDATE
 40
2459230.4107964821
  9
$TDINDWG
 40
0.4118723727
  9
$TDUSRTIMER
 40
0.4118723727
  9
$USRTIMER
 70
     1
  9
$ANGBASE
 50
0.0
  9
$ANGDIR
 70
     0
  9
$PDMODE
 70
     0
  9
$PDSIZE
 40
0.0
  9
$PLINEWID
 40
0.0
  9
$COORDS
 70
     1
  9
$SPLFRAME
 70
     0
  9
$SPLINETYPE
 70
     6
  9
$SPLINESEGS
 70
     8
  9
$ATTDIA
 70
     0
  9
$ATTREQ
 70
     1
  9
$HANDLING
 70
     1
  9
$HANDSEED
  5
2580
  9
$SURFTAB1
 70
     6
  9
$SURFTAB2
 70
     6
  9
$SURFTYPE
 70
     6
  9
$SURFU
 70
     6
  9
$SURFV
 70
     6
  9
$UCSNAME
  2

  9
$UCSORG
 10
0.0
 20
0.0
 30
0.0
  9
$UCSXDIR
 10
1.0
 20
0.0
 30
0.0
  9
$UCSYDIR
 10
0.0
 20
1.0
 30
0.0
  9
$PUCSNAME
  2

  9
$PUCSORG
 10
0.0
 20
0.0
 30
0.0
  9
$PUCSXDIR
 10
1.0
 20
0.0
 30
0.0
  9
$PUCSYDIR
 10
0.0
 20
1.0
 30
0.0
  9
$USERI1
 70
     0
  9
$USERI2
 70
     1
  9
$USERI3
 70
     1
  9
$USERI4
 70
     0
  9
$USERI5
 70
     0
  9
$USERR1
 40
0.0
  9
$USERR2
 40
0.0
  9
$USERR3
 40
0.0
  9
$USERR4
 40
0.0
  9
$USERR5
 40
0.0
  9
$WORLDVIEW
 70
     1
  9
$SHADEDGE
 70
     3
  9
$SHADEDIF
 70
    70
  9
$TILEMODE
 70
     1
  9
$MAXACTVP
 70
    16
  9
$PLIMCHECK
 70
     0
  9
$PEXTMIN
 10
1.0000000000000000E+020
 20
1.0000000000000000E+020
 30
1.0000000000000000E+020
  9
$PEXTMAX
 10
-1.0000000000000000E+020
 20
-1.0000000000000000E+020
 30
-1.0000000000000000E+020
  9
$PLIMMIN
 10
0.0
 20
0.0
  9
$PLIMMAX
 10
12.0
 20
9.0
  9
$UNITMODE
 70
     0
  9
$VISRETAIN
 70
     0
  9
$PLINEGEN
 70
     0
  9
$PSLTSCALE
 70
     0
  0
ENDSEC
  0
SECTION
  2
TABLES
  0
TABLE
  2
VPORT
 70
     1
  0
VPORT
  2
*ACTIVE
 70
     0
 10
0.0
 20
0.0
 11
1.0
 21
1.0
 12
132.35294117647061
 22
50.0
 13
0.0
 23
0.0
 14
5.0
 24
5.0
 15
5.0
 25
5.0
 16
0.0
 26
0.0
 36
1.0
 17
0.0
 27
0.0
 37
0.0
 40
100.0
 41
2.6470588235294108
 42
50.0
 43
0.0
 44
0.0
 50
0.0
 51
0.0
 71
     0
 72
   100
 73
     1
 74
     0
 75
     0
 76
     0
 77
     0
 78
     0
  0
ENDTAB
  0
TABLE
  2
LTYPE
 70
     5
  0
LTYPE
  2
CONTINUOUS
 70
     0
  3
Solid Line
 72
    65
 73
     0
 40
0.0
  0
LTYPE
  2
CENTER
 70
     0
  3
____ _ ____ _ ____ _ ____ _ ____ _ ____ _ ____
 72
    65
 73
     4
 40
2.0
 49
1.25
 49
-0.25
 49
0.25
 49
-0.25
  0
LTYPE
  2
HIDDEN
 70
     0
  3
_ _ _ _ _ _ _ _ _ _ _ _ _ _ _ _ _ _ _ _ _ _ _
 72
    65
 73
     2
 40
0.375
 49
0.25
 49
-0.125
  0
LTYPE
  2
PHANTOM2
 70
     0
  3
___ _ _ ___ _ _ ___ _ _ ___ _ _
 72
    65
 73
     6
 40
1.25
 49
0.625
 49
-0.125
 49
0.125
 49
-0.125
 49
0.125
 49
-0.125
  0
LTYPE
  2
PHANTOM
 70
     0
  3
_____ _ _ _____ _ _ _____ _ _ _____ _ _ ____
 72
    65
 73
     6
 40
2.5
 49
1.25
 49
-0.25
 49
0.25
 49
-0.25
 49
0.25
 49
-0.25
  0
ENDTAB
  0
TABLE
  2
LAYER
 70
     6
  0
LAYER
  2
0
 70
     0
 62
     7
  6
CONTINUOUS
  0
LAYER
  2
1
 70
     0
 62
     1
  6
CENTER
  0
LAYER
  2
3
 70
     0
 62
     3
  6
CONTINUOUS
  0
LAYER
  2
2
 70
     0
 62
     2
  6
HIDDEN
  0
LAYER
  2
DEFPOINTS
 70
     0
 62
     7
  6
CONTINUOUS
  0
LAYER
  2
5
 70
     0
 62
     3
  6
PHANTOM
  0
ENDTAB
  0
TABLE
  2
STYLE
 70
     2
  0
STYLE
  2
STANDARD
 70
     0
 40
0.0
 41
1.0
 50
0.0
 71
     0
 42
4.0
  3
TXT
  4
BIGFONT
  0
STYLE
  2
STANDARD1
 70
     0
 40
0.0
 41
1.0
 50
0.0
 71
     0
 42
3.0
  3
txt
  4

  0
ENDTAB
  0
TABLE
  2
VIEW
 70
     1
  0
VIEW
  2
ALL
 70
     0
 40
179.66152299999999
 10
141.903918
 20
89.830760999999995
 41
0.0
 11
0.0
 21
0.0
 31
1.0
 12
0.0
 22
0.0
 32
0.0
 42
0.0
 43
0.0
 44
0.0
 50
0.0
 71
     0
  0
ENDTAB
  0
TABLE
  2
UCS
 70
     0
  0
ENDTAB
  0
TABLE
  2
APPID
 70
    40
  0
APPID
  2
ACAD
 70
     0
  0
APPID
  2
DCO15
 70
     0
  0
APPID
  2
ACAD_MLEADERVER
 70
     0
  0
APPID
  2
ACAD_EXEMPT_FROM_CAD_STANDARDS
 70
     0
  0
APPID
  2
ACAD_NAV_VCDISPLAY
 70
     0
  0
APPID
  2
ACAD_DSTYLE_DIMRADIAL_EXTENSION
 70
     0
  0
APPID
  2
ACAD_DSTYLE_DIMJAG
 70
     0
  0
APPID
  2
ACAD_DSTYLE_DIMTALN
 70
     0
  0
APPID
  2
ACAECLAYERSTANDARD
 70
     0
  0
APPID
  2
ACCMTRANSPARENCY
 70
     0
  0
APPID
  2
ACADANNOTATIVE
 70
     0
  0
APPID
  2
GENIUS_GENOREF_13
 70
     0
  0
APPID
  2
GENIUS_GENOENT_13
 70
     0
  0
APPID
  2
GENIUS_GENBH_13
 70
     0
  0
APPID
  2
GENIUS_GENOBJ_13
 70
     0
  0
APPID
  2
GENIUS_GENODEF_13
 70
     0
  0
APPID
  2
GENIUS_GENOLIS_13
 70
     0
  0
APPID
  2
GENIUS_GENOBJ-NBEHI-BHF_13
 70
     0
  0
APPID
  2
GENIUS_GENOBJ-NBEHI-BHB_13
 70
     0
  0
APPID
  2
GENIUS_GENOBJ-F-PART_13
 70
     0
  0
APPID
  2
GENIUS_GEFSTDP_13
 70
     0
  0
APPID
  2
GENIUS_GENOBJ-N-RSSYM_13
 70
     0
  0
APPID
  2
GENIUS_GENSYMENT_13
 70
     0
  0
APPID
  2
GENIUS_GENOBJ-N-TIT_13
 70
     0
  0
APPID
  2
GENIUS_GENTITLE_13
 70
     0
  0
APPID
  2
GENIUS_GENZVEED_13
 70
     0
  0
APPID
  2
GENIUS_GENOBJ-N-LEADER_13
 70
     0
  0
APPID
  2
GENIUS_GENOBJ-N-FIL_13
 70
     0
  0
APPID
  2
GENIUS_GENOBJ-N-SEC_13
 70
     0
  0
APPID
  2
GENIUS_GENOBJ-N-CRS_13
 70
     0
  0
APPID
  2
GENIUS_GENOBJ-N-ZOO_13
 70
     0
  0
APPID
  2
GENIUS_GENZOO_13
 70
     0
  0
APPID
  2
GENIUS_GENOBJ-F-TOL_13
 70
     0
  0
APPID
  2
GENIUS_GENFIL_13
 70
     0
  0
APPID
  2
GENIUS_GENOBJ-N-CHA_13
 70
     0
  0
APPID
  2
_CALL_MAC$
 70
     0
  0
APPID
  2
ACAD_PSEXT
 70
     0
  0
APPID
  2
ACAD_DSTYLE_DIMBREAK
 70
     0
  0
APPID
  2
GRADIENTCOLOR1ACI
 70
     0
  0
APPID
  2
GRADIENTCOLOR2ACI
 70
     0
  0
ENDTAB
  0
TABLE
  2
DIMSTYLE
 70
     1
  0
DIMSTYLE
  2
STANDARD
 70
     0
  3

  4

  5

  6

  7

 40
1.0
 41
0.18
 42
0.0625
 43
0.38
 44
0.18
 45
0.0
 46
0.0
 47
0.0
 48
0.0
140
0.18
141
0.09
142
0.0
143
25.399999999999999
144
1.0
145
0.0
146
1.0
147
0.09
 71
     0
 72
     0
 73
     1
 74
     1
 75
     0
 76
     0
 77
     0
 78
     0
170
     0
171
     2
172
     0
173
     0
174
     0
175
     0
176
     0
177
     0
178
     0
  0
ENDTAB
  0
ENDSEC
  0
SECTION
  2
BLOCKS
  0
BLOCK
  8
0
  2
$MODEL_SPACE
 70
     0
 10
0.0
 20
0.0
 30
0.0
  3
$MODEL_SPACE
  1

  0
ENDBLK
  5
1BD
  8
0
  0
BLOCK
 67
     1
  8
0
  2
$PAPER_SPACE
 70
     0
 10
0.0
 20
0.0
 30
0.0
  3
$PAPER_SPACE
  1

  0
ENDBLK
  5
1BB
 67
     1
  8
0
  0
ENDSEC
  0
SECTION
  2
ENTITIES
  0
TEXT
  5
147E
  8
0
 62
     3
 10
0.0
 20
0.0
 30
0.0
 40
5.0
  1
BSTCA5
  7
STANDARD1
  0
LINE
  5
2190
  8
2
 10
47.25
 20
31.44337567297406
 30
0.0
 11
44.249999999999993
 21
31.44337567297406
 31
0.0
  0
LINE
  5
2191
  8
2
 10
47.25
 20
28.556624327025911
 30
0.0
 11
44.249999999999993
 21
28.556624327025911
 31
0.0
  0
LINE
  5
2192
  8
2
 10
47.25
 20
30.721687836487028
 30
0.0
 11
44.249999999999993
 21
30.721687836487028
 31
0.0
  0
LINE
  5
2193
  8
2
 10
47.25
 20
29.278312163512972
 30
0.0
 11
44.249999999999993
 21
29.278312163512972
 31
0.0
  0
LINE
  5
2194
  8
2
 10
47.25
 20
28.556624327025919
 30
0.0
 11
47.25
 21
31.44337567297406
 31
0.0
  0
LINE
  5
219E
  8
0
 10
48.650000000000013
 20
28.149999999999999
 30
0.0
 11
49.016987298107779
 21
28.149999999999999
 31
0.0
  0
LINE
  5
219F
  8
0
 10
49.016987298107779
 20
31.850000000000001
 30
0.0
 11
48.650000000000013
 21
31.850000000000001
 31
0.0
  0
ARC
  5
21A1
  8
0
 10
49.016987298107779
 20
27.75
 30
0.0
 40
0.3999999999999989
 50
60.0
 51
90.0
  0
ARC
  5
21A2
  8
0
 10
49.016987298107779
 20
32.25
 30
0.0
 40
0.3999999999999946
 50
270.0
 51
300.0
  0
LINE
  5
21A3
  8
0
 10
61.25
 20
32.0
 30
0.0
 11
61.25
 21
28.0
 31
0.0
  0
LINE
  5
21A4
  8
0
 10
60.25
 20
28.0
 30
0.0
 11
61.25
 21
28.0
 31
0.0
  0
LINE
  5
21A5
  8
0
 10
61.25
 20
32.0
 30
0.0
 11
60.25
 21
32.0
 31
0.0
  0
ARC
  5
21A7
  8
0
 10
48.650000000000013
 20
27.75
 30
0.0
 40
0.4000000000000008
 50
90.0
 51
180.0
  0
ARC
  5
21A8
  8
0
 10
48.650000000000013
 20
32.25
 30
0.0
 40
0.4000000000000007
 50
180.0
 51
270.0
  0
LINE
  5
21A9
  8
0
 10
60.25
 20
32.0
 30
0.0
 11
60.25
 21
28.0
 31
0.0
  0
LINE
  5
21AA
  8
0
 10
60.25
 20
32.0
 30
0.0
 11
59.75000000000005
 21
32.5
 31
0.0
  0
LINE
  5
21AB
  8
0
 10
59.75000000000005
 20
27.5
 30
0.0
 11
60.25
 21
28.0
 31
0.0
  0
LINE
  5
21AC
  8
0
 10
59.75000000000005
 20
32.5
 30
0.0
 11
59.75000000000005
 21
27.5
 31
0.0
  0
LINE
  5
21AD
  8
0
 10
50.25
 20
27.5
 30
0.0
 11
59.75000000000005
 21
27.5
 31
0.0
  0
LINE
  5
21AE
  8
0
 10
59.75000000000005
 20
32.5
 30
0.0
 11
50.25
 21
32.5
 31
0.0
  0
LINE
  5
21AF
  8
0
 10
50.25
 20
32.5
 30
0.0
 11
50.25
 21
27.5
 31
0.0
  0
LINE
  5
21B1
  8
0
 10
49.216987298107767
 20
28.096410161513781
 30
0.0
 11
50.25
 21
27.5
 31
0.0
  0
LINE
  5
21B2
  8
0
 10
50.25
 20
32.5
 30
0.0
 11
49.216987298107767
 21
31.90358983848623
 31
0.0
  0
LINE
  5
21B3
  8
0
 10
44.249999999999993
 20
33.68431457505077
 30
0.0
 11
44.249999999999993
 21
26.31568542494924
 31
0.0
  0
LINE
  5
21B4
  8
0
 10
44.249999999999993
 20
26.31568542494924
 30
0.0
 11
44.81568542494923
 21
25.75
 31
0.0
  0
LINE
  5
21B5
  8
0
 10
44.81568542494923
 20
34.25
 30
0.0
 11
44.249999999999993
 21
33.68431457505077
 31
0.0
  0
LINE
  5
21B6
  8
0
 10
48.25
 20
33.68431457505077
 30
0.0
 11
48.25
 21
26.31568542494924
 31
0.0
  0
LINE
  5
21B7
  8
0
 10
48.25
 20
33.68431457505077
 30
0.0
 11
47.684314575050763
 21
34.25
 31
0.0
  0
LINE
  5
21B8
  8
0
 10
47.684314575050763
 20
25.75
 30
0.0
 11
48.25
 21
26.31568542494924
 31
0.0
  0
LINE
  5
21B9
  8
0
 10
47.684314575050763
 20
34.25
 30
0.0
 11
47.684314575050763
 21
25.75
 31
0.0
  0
LINE
  5
21BA
  8
0
 10
44.81568542494923
 20
34.25
 30
0.0
 11
44.81568542494923
 21
25.75
 31
0.0
  0
LINE
  5
21BB
  8
0
 10
44.81568542494923
 20
25.75
 30
0.0
 11
47.684314575050763
 21
25.75
 31
0.0
  0
LINE
  5
21BC
  8
0
 10
47.684314575050763
 20
34.25
 30
0.0
 11
44.81568542494923
 21
34.25
 31
0.0
  0
LINE
  5
21BD
  8
3
 10
60.24049999999999
 20
27.990500000000001
 30
0.0
 11
49.400429078887441
 21
27.990500000000001
 31
0.0
  0
LINE
  5
21BF
  8
3
 10
60.24049999999999
 20
32.00950000000001
 30
0.0
 11
49.40042907888747
 21
32.00950000000001
 31
0.0
  0
CIRCLE
  5
21CC
  8
0
 10
76.400000000000006
 20
30.0
 30
0.0
 40
2.5
  0
CIRCLE
  5
21CD
  8
0
 10
76.400000000000006
 20
30.0
 30
0.0
 40
1.4990000000000001
  0
CIRCLE
  5
21CE
  8
0
 10
76.400000000000006
 20
30.0
 30
0.0
 40
2.0
  0
LINE
  5
228F
  8
0
 10
49.124166975080207
 20
31.850000000000001
 30
0.0
 11
49.124166975080207
 21
28.149999999999999
 31
0.0
  0
ARC
  5
2292
  8
0
 10
60.650000000000013
 20
30.0
 30
0.0
 40
1.4999999999999989
 50
293.57817847820138
 51
66.421821521798663
  0
ARC
  5
2293
  8
5
 10
59.75
 20
30.0
 30
0.0
 40
1.4999999999999989
 50
293.57817847820138
 51
66.421821521798663
  0
LINE
  5
2294
  8
2
 10
47.25
 20
28.556624327025919
 30
0.0
 11
48.083333333333371
 21
30.0
 31
0.0
  0
LINE
  5
2295
  8
2
 10
48.08333333333335
 20
30.0
 30
0.0
 11
47.25
 21
31.443375672974049
 31
0.0
  0
LINE
  5
2298
  8
1
 10
42.25
 20
30.0
 30
0.0
 11
64.150000000000006
 21
30.0
 31
0.0
  0
LINE
  5
22A3
  8
1
 10
30.0
 20
36.25
 30
0.0
 11
30.0
 21
23.75
 31
0.0
  0
LINE
  5
22A4
  8
1
 10
36.25
 20
30.0
 30
0.0
 11
23.75
 21
30.0
 31
0.0
  0
CIRCLE
  5
22CD
  8
3
 10
76.400000000000006
 20
30.0
 30
0.0
 40
2.0094999999999992
  0
LINE
  5
22CE
  8
1
 10
76.400000000000006
 20
36.25
 30
0.0
 11
76.400000000000006
 21
23.75
 31
0.0
  0
LINE
  5
22CF
  8
1
 10
82.650000000000006
 20
30.0
 30
0.0
 11
70.150000000000006
 21
30.0
 31
0.0
  0
CIRCLE
  5
2504
  8
0
 10
30.0
 20
30.0
 30
0.0
 40
4.25
  0
CIRCLE
  5
2505
  8
0
 10
30.0
 20
30.0
 30
0.0
 40
3.6843145750507622
  0
CIRCLE
  5
2511
  8
0
 10
76.400000000000006
 20
30.0
 30
0.0
 40
4.25
  0
CIRCLE
  5
2513
  8
0
 10
76.400000000000006
 20
30.0
 30
0.0
 40
3.6843145750507622
  0
LINE
  5
2516
  8
0
 10
30.0
 20
31.44337567297406
 30
0.0
 11
31.25
 21
30.721687836487028
 31
0.0
  0
LINE
  5
2517
  8
0
 10
31.25
 20
30.721687836487028
 30
0.0
 11
31.25
 21
29.278312163512972
 31
0.0
  0
LINE
  5
2518
  8
0
 10
28.75
 20
30.721687836487028
 30
0.0
 11
30.0
 21
31.44337567297406
 31
0.0
  0
LINE
  5
2519
  8
0
 10
28.75
 20
29.278312163512972
 30
0.0
 11
28.75
 21
30.721687836487028
 31
0.0
  0
LINE
  5
251A
  8
0
 10
30.0
 20
28.556624327025911
 30
0.0
 11
28.75
 21
29.278312163512972
 31
0.0
  0
LINE
  5
251B
  8
0
 10
31.25
 20
29.278312163512972
 30
0.0
 11
30.0
 21
28.556624327025911
 31
0.0
  0
ENDSEC
  0
EOF
