  0
SECTION
  2
HEADER
  9
$ACADVER
  1
AC1009
  9
$INSBASE
 10
0.0
 20
0.0
 30
0.0
  9
$EXTMIN
 10
0.0
 20
-1.4802182810368341
 30
0.0
  9
$EXTMAX
 10
76.300000000000011
 20
35.5
 30
0.0
  9
$LIMMIN
 10
0.0
 20
0.0
  9
$LIMMAX
 10
187.5
 20
135.0
  9
$ORTHOMODE
 70
     1
  9
$REGENMODE
 70
     1
  9
$FILLMODE
 70
     1
  9
$QTEXTMODE
 70
     0
  9
$MIRRTEXT
 70
     0
  9
$DRAGMODE
 70
     2
  9
$LTSCALE
 40
1.0
  9
$OSMODE
 70
    37
  9
$ATTMODE
 70
     1
  9
$TEXTSIZE
 40
4.0
  9
$TRACEWID
 40
0.05
  9
$TEXTSTYLE
  7
STANDARD
  9
$CLAYER
  8
0
  9
$CELTYPE
  6
BYLAYER
  9
$CECOLOR
 62
   256
  9
$DIMSCALE
 40
0.5
  9
$DIMASZ
 40
3.0
  9
$DIMEXO
 40
2.0
  9
$DIMDLI
 40
0.38
  9
$DIMRND
 40
0.0
  9
$DIMDLE
 40
0.0
  9
$DIMEXE
 40
2.0
  9
$DIMTP
 40
0.0
  9
$DIMTM
 40
0.0
  9
$DIMTXT
 40
3.0
  9
$DIMCEN
 40
0.0
  9
$DIMTSZ
 40
0.0
  9
$DIMTOL
 70
     0
  9
$DIMLIM
 70
     0
  9
$DIMTIH
 70
     0
  9
$DIMTOH
 70
     0
  9
$DIMSE1
 70
     0
  9
$DIMSE2
 70
     0
  9
$DIMTAD
 70
     1
  9
$DIMZIN
 70
     8
  9
$DIMBLK
  1

  9
$DIMASO
 70
     0
  9
$DIMSHO
 70
     0
  9
$DIMPOST
  1

  9
$DIMAPOST
  1

  9
$DIMALT
 70
     0
  9
$DIMALTD
 70
     2
  9
$DIMALTF
 40
25.399999999999999
  9
$DIMLFAC
 40
1.0
  9
$DIMTOFL
 70
     1
  9
$DIMTVP
 40
1.6000000000000001
  9
$DIMTIX
 70
     1
  9
$DIMSOXD
 70
     0
  9
$DIMSAH
 70
     0
  9
$DIMBLK1
  1

  9
$DIMBLK2
  1

  9
$DIMSTYLE
  2
STANDARD
  9
$DIMCLRD
 70
   256
  9
$DIMCLRE
 70
   256
  9
$DIMCLRT
 70
   256
  9
$DIMTFAC
 40
1.0
  9
$DIMGAP
 40
1.0
  9
$LUNITS
 70
     2
  9
$LUPREC
 70
     1
  9
$SKETCHINC
 40
0.1
  9
$FILLETRAD
 40
1.0
  9
$AUNITS
 70
     0
  9
$AUPREC
 70
     0
  9
$MENU
  1
E:\r13\win\SUPPORT\ACAD
  9
$ELEVATION
 40
0.0
  9
$PELEVATION
 40
0.0
  9
$THICKNESS
 40
0.0
  9
$LIMCHECK
 70
     0
  9
$BLIPMODE
 70
     0
  9
$CHAMFERA
 40
0.0
  9
$CHAMFERB
 40
0.0
  9
$SKPOLY
 70
     0
  9
$TDCREATE
 40
2449840.6143865739
  9
$TDUPDATE
 40
2459230.4107928588
  9
$TDINDWG
 40
0.3019588889
  9
$TDUSRTIMER
 40
0.3019588889
  9
$USRTIMER
 70
     1
  9
$ANGBASE
 50
0.0
  9
$ANGDIR
 70
     0
  9
$PDMODE
 70
     0
  9
$PDSIZE
 40
0.0
  9
$PLINEWID
 40
0.0
  9
$COORDS
 70
     1
  9
$SPLFRAME
 70
     0
  9
$SPLINETYPE
 70
     6
  9
$SPLINESEGS
 70
     8
  9
$ATTDIA
 70
     0
  9
$ATTREQ
 70
     1
  9
$HANDLING
 70
     1
  9
$HANDSEED
  5
206F
  9
$SURFTAB1
 70
     6
  9
$SURFTAB2
 70
     6
  9
$SURFTYPE
 70
     6
  9
$SURFU
 70
     6
  9
$SURFV
 70
     6
  9
$UCSNAME
  2

  9
$UCSORG
 10
0.0
 20
0.0
 30
0.0
  9
$UCSXDIR
 10
1.0
 20
0.0
 30
0.0
  9
$UCSYDIR
 10
0.0
 20
1.0
 30
0.0
  9
$PUCSNAME
  2

  9
$PUCSORG
 10
0.0
 20
0.0
 30
0.0
  9
$PUCSXDIR
 10
1.0
 20
0.0
 30
0.0
  9
$PUCSYDIR
 10
0.0
 20
1.0
 30
0.0
  9
$USERI1
 70
     0
  9
$USERI2
 70
     1
  9
$USERI3
 70
     1
  9
$USERI4
 70
     0
  9
$USERI5
 70
     0
  9
$USERR1
 40
0.0
  9
$USERR2
 40
0.0
  9
$USERR3
 40
0.0
  9
$USERR4
 40
0.0
  9
$USERR5
 40
0.0
  9
$WORLDVIEW
 70
     1
  9
$SHADEDGE
 70
     3
  9
$SHADEDIF
 70
    70
  9
$TILEMODE
 70
     1
  9
$MAXACTVP
 70
    16
  9
$PLIMCHECK
 70
     0
  9
$PEXTMIN
 10
1.0000000000000000E+020
 20
1.0000000000000000E+020
 30
1.0000000000000000E+020
  9
$PEXTMAX
 10
-1.0000000000000000E+020
 20
-1.0000000000000000E+020
 30
-1.0000000000000000E+020
  9
$PLIMMIN
 10
0.0
 20
0.0
  9
$PLIMMAX
 10
12.0
 20
9.0
  9
$UNITMODE
 70
     0
  9
$VISRETAIN
 70
     0
  9
$PLINEGEN
 70
     0
  9
$PSLTSCALE
 70
     0
  0
ENDSEC
  0
SECTION
  2
TABLES
  0
TABLE
  2
VPORT
 70
     1
  0
VPORT
  2
*ACTIVE
 70
     0
 10
0.0
 20
0.0
 11
1.0
 21
1.0
 12
132.35294117647061
 22
50.0
 13
0.0
 23
0.0
 14
5.0
 24
5.0
 15
5.0
 25
5.0
 16
0.0
 26
0.0
 36
1.0
 17
0.0
 27
0.0
 37
0.0
 40
100.0
 41
2.6470588235294108
 42
50.0
 43
0.0
 44
0.0
 50
0.0
 51
0.0
 71
     0
 72
   100
 73
     1
 74
     0
 75
     0
 76
     0
 77
     0
 78
     0
  0
ENDTAB
  0
TABLE
  2
LTYPE
 70
     5
  0
LTYPE
  2
CONTINUOUS
 70
     0
  3
Solid Line
 72
    65
 73
     0
 40
0.0
  0
LTYPE
  2
CENTER
 70
     0
  3
____ _ ____ _ ____ _ ____ _ ____ _ ____ _ ____
 72
    65
 73
     4
 40
2.0
 49
1.25
 49
-0.25
 49
0.25
 49
-0.25
  0
LTYPE
  2
HIDDEN
 70
     0
  3
_ _ _ _ _ _ _ _ _ _ _ _ _ _ _ _ _ _ _ _ _ _ _
 72
    65
 73
     2
 40
0.375
 49
0.25
 49
-0.125
  0
LTYPE
  2
PHANTOM2
 70
     0
  3
___ _ _ ___ _ _ ___ _ _ ___ _ _
 72
    65
 73
     6
 40
1.25
 49
0.625
 49
-0.125
 49
0.125
 49
-0.125
 49
0.125
 49
-0.125
  0
LTYPE
  2
PHANTOM
 70
     0
  3
_____ _ _ _____ _ _ _____ _ _ _____ _ _ ____
 72
    65
 73
     6
 40
2.5
 49
1.25
 49
-0.25
 49
0.25
 49
-0.25
 49
0.25
 49
-0.25
  0
ENDTAB
  0
TABLE
  2
LAYER
 70
     6
  0
LAYER
  2
0
 70
     0
 62
     7
  6
CONTINUOUS
  0
LAYER
  2
1
 70
     0
 62
     1
  6
CENTER
  0
LAYER
  2
3
 70
     0
 62
     3
  6
CONTINUOUS
  0
LAYER
  2
2
 70
     0
 62
     2
  6
HIDDEN
  0
LAYER
  2
DEFPOINTS
 70
     0
 62
     7
  6
CONTINUOUS
  0
LAYER
  2
5
 70
     0
 62
     3
  6
PHANTOM
  0
ENDTAB
  0
TABLE
  2
STYLE
 70
     2
  0
STYLE
  2
STANDARD
 70
     0
 40
0.0
 41
1.0
 50
0.0
 71
     0
 42
4.0
  3
TXT
  4
BIGFONT
  0
STYLE
  2
STANDARD1
 70
     0
 40
0.0
 41
1.0
 50
0.0
 71
     0
 42
3.0
  3
txt
  4

  0
ENDTAB
  0
TABLE
  2
VIEW
 70
     1
  0
VIEW
  2
ALL
 70
     0
 40
179.66152299999999
 10
141.903918
 20
89.830760999999995
 41
0.0
 11
0.0
 21
0.0
 31
1.0
 12
0.0
 22
0.0
 32
0.0
 42
0.0
 43
0.0
 44
0.0
 50
0.0
 71
     0
  0
ENDTAB
  0
TABLE
  2
UCS
 70
     0
  0
ENDTAB
  0
TABLE
  2
APPID
 70
    40
  0
APPID
  2
ACAD
 70
     0
  0
APPID
  2
DCO15
 70
     0
  0
APPID
  2
ACAD_MLEADERVER
 70
     0
  0
APPID
  2
ACAD_EXEMPT_FROM_CAD_STANDARDS
 70
     0
  0
APPID
  2
ACAD_NAV_VCDISPLAY
 70
     0
  0
APPID
  2
ACAD_DSTYLE_DIMRADIAL_EXTENSION
 70
     0
  0
APPID
  2
ACAD_DSTYLE_DIMJAG
 70
     0
  0
APPID
  2
ACAD_DSTYLE_DIMTALN
 70
     0
  0
APPID
  2
ACAECLAYERSTANDARD
 70
     0
  0
APPID
  2
ACCMTRANSPARENCY
 70
     0
  0
APPID
  2
ACADANNOTATIVE
 70
     0
  0
APPID
  2
GENIUS_GENOREF_13
 70
     0
  0
APPID
  2
GENIUS_GENOENT_13
 70
     0
  0
APPID
  2
GENIUS_GENBH_13
 70
     0
  0
APPID
  2
GENIUS_GENOBJ_13
 70
     0
  0
APPID
  2
GENIUS_GENODEF_13
 70
     0
  0
APPID
  2
GENIUS_GENOLIS_13
 70
     0
  0
APPID
  2
GENIUS_GENOBJ-NBEHI-BHF_13
 70
     0
  0
APPID
  2
GENIUS_GENOBJ-NBEHI-BHB_13
 70
     0
  0
APPID
  2
GENIUS_GENOBJ-F-PART_13
 70
     0
  0
APPID
  2
GENIUS_GEFSTDP_13
 70
     0
  0
APPID
  2
GENIUS_GENOBJ-N-RSSYM_13
 70
     0
  0
APPID
  2
GENIUS_GENSYMENT_13
 70
     0
  0
APPID
  2
GENIUS_GENOBJ-N-TIT_13
 70
     0
  0
APPID
  2
GENIUS_GENTITLE_13
 70
     0
  0
APPID
  2
GENIUS_GENZVEED_13
 70
     0
  0
APPID
  2
GENIUS_GENOBJ-N-LEADER_13
 70
     0
  0
APPID
  2
GENIUS_GENOBJ-N-FIL_13
 70
     0
  0
APPID
  2
GENIUS_GENOBJ-N-SEC_13
 70
     0
  0
APPID
  2
GENIUS_GENOBJ-N-CRS_13
 70
     0
  0
APPID
  2
GENIUS_GENOBJ-N-ZOO_13
 70
     0
  0
APPID
  2
GENIUS_GENZOO_13
 70
     0
  0
APPID
  2
GENIUS_GENOBJ-F-TOL_13
 70
     0
  0
APPID
  2
GENIUS_GENFIL_13
 70
     0
  0
APPID
  2
GENIUS_GENOBJ-N-CHA_13
 70
     0
  0
APPID
  2
_CALL_MAC$
 70
     0
  0
APPID
  2
ACAD_PSEXT
 70
     0
  0
APPID
  2
ACAD_DSTYLE_DIMBREAK
 70
     0
  0
APPID
  2
GRADIENTCOLOR1ACI
 70
     0
  0
APPID
  2
GRADIENTCOLOR2ACI
 70
     0
  0
ENDTAB
  0
TABLE
  2
DIMSTYLE
 70
     1
  0
DIMSTYLE
  2
STANDARD
 70
     0
  3

  4

  5

  6

  7

 40
1.0
 41
0.18
 42
0.0625
 43
0.38
 44
0.18
 45
0.0
 46
0.0
 47
0.0
 48
0.0
140
0.18
141
0.09
142
0.0
143
25.399999999999999
144
1.0
145
0.0
146
1.0
147
0.09
 71
     0
 72
     0
 73
     1
 74
     1
 75
     0
 76
     0
 77
     0
 78
     0
170
     0
171
     2
172
     0
173
     0
174
     0
175
     0
176
     0
177
     0
178
     0
  0
ENDTAB
  0
ENDSEC
  0
SECTION
  2
BLOCKS
  0
BLOCK
  8
0
  2
$MODEL_SPACE
 70
     0
 10
0.0
 20
0.0
 30
0.0
  3
$MODEL_SPACE
  1

  0
ENDBLK
  5
1BD
  8
0
  0
BLOCK
 67
     1
  8
0
  2
$PAPER_SPACE
 70
     0
 10
0.0
 20
0.0
 30
0.0
  3
$PAPER_SPACE
  1

  0
ENDBLK
  5
1BB
 67
     1
  8
0
  0
ENDSEC
  0
SECTION
  2
ENTITIES
  0
TEXT
  5
147E
  8
0
 62
     3
 10
0.0
 20
0.0
 30
0.0
 40
5.0
  1
BSTCA4
  7
STANDARD1
  0
LINE
  5
1668
  8
2
 10
45.499999999999993
 20
31.154700538379249
 30
0.0
 11
43.5
 21
31.154700538379249
 31
0.0
  0
LINE
  5
1669
  8
2
 10
45.499999999999993
 20
28.845299461620751
 30
0.0
 11
43.5
 21
28.845299461620751
 31
0.0
  0
LINE
  5
166A
  8
2
 10
45.499999999999993
 20
30.577350269189619
 30
0.0
 11
43.5
 21
30.577350269189619
 31
0.0
  0
LINE
  5
166B
  8
2
 10
45.499999999999993
 20
29.422649730810381
 30
0.0
 11
43.5
 21
29.422649730810381
 31
0.0
  0
LINE
  5
166C
  8
2
 10
45.499999999999993
 20
28.845299461620751
 30
0.0
 11
45.499999999999993
 21
31.154700538379249
 31
0.0
  0
LINE
  5
1676
  8
0
 10
46.899999999999999
 20
28.550000000000001
 30
0.0
 11
47.19019237886468
 21
28.550000000000001
 31
0.0
  0
LINE
  5
1677
  8
0
 10
47.19019237886468
 20
31.449999999999999
 30
0.0
 11
46.899999999999999
 21
31.449999999999999
 31
0.0
  0
ARC
  5
1679
  8
0
 10
47.19019237886468
 20
28.149999999999999
 30
0.0
 40
0.3999999999999966
 50
59.999999999999972
 51
90.0
  0
ARC
  5
167A
  8
0
 10
47.19019237886468
 20
31.849999999999991
 30
0.0
 40
0.3999999999999984
 50
270.0
 51
300.0
  0
LINE
  5
167B
  8
0
 10
56.5
 20
31.749999999999989
 30
0.0
 11
56.5
 21
28.250000000000011
 31
0.0
  0
LINE
  5
167C
  8
0
 10
55.5
 20
28.250000000000011
 30
0.0
 11
56.5
 21
28.250000000000011
 31
0.0
  0
LINE
  5
167D
  8
0
 10
56.5
 20
31.749999999999989
 30
0.0
 11
55.5
 21
31.749999999999989
 31
0.0
  0
ARC
  5
167F
  8
0
 10
46.899999999999999
 20
28.149999999999991
 30
0.0
 40
0.4000000000000002
 50
90.0
 51
180.0
  0
ARC
  5
1680
  8
0
 10
46.899999999999999
 20
31.850000000000001
 30
0.0
 40
0.3999999999999999
 50
180.0
 51
270.0
  0
LINE
  5
1681
  8
0
 10
55.5
 20
31.749999999999989
 30
0.0
 11
55.5
 21
28.250000000000011
 31
0.0
  0
LINE
  5
1682
  8
0
 10
55.5
 20
31.749999999999989
 30
0.0
 11
55.25
 21
32.0
 31
0.0
  0
LINE
  5
1683
  8
0
 10
55.25
 20
28.0
 30
0.0
 11
55.5
 21
28.250000000000011
 31
0.0
  0
LINE
  5
1684
  8
0
 10
55.25
 20
32.0
 30
0.0
 11
55.25
 21
28.0
 31
0.0
  0
LINE
  5
1685
  8
0
 10
48.25
 20
28.0
 30
0.0
 11
55.25
 21
28.0
 31
0.0
  0
LINE
  5
1686
  8
0
 10
55.25
 20
32.0
 30
0.0
 11
48.25
 21
32.0
 31
0.0
  0
LINE
  5
1687
  8
0
 10
48.25
 20
32.0
 30
0.0
 11
48.25
 21
28.0
 31
0.0
  0
LINE
  5
1689
  8
0
 10
47.390192378864661
 20
28.496410161513779
 30
0.0
 11
48.25
 21
28.0
 31
0.0
  0
LINE
  5
168A
  8
0
 10
48.25
 20
32.0
 30
0.0
 11
47.390192378864661
 21
31.503589838486221
 31
0.0
  0
LINE
  5
168B
  8
0
 10
43.5
 20
32.934314575050763
 30
0.0
 11
43.5
 21
27.06568542494923
 31
0.0
  0
LINE
  5
168C
  8
0
 10
43.5
 20
27.06568542494923
 30
0.0
 11
44.06568542494923
 21
26.5
 31
0.0
  0
LINE
  5
168D
  8
0
 10
44.06568542494923
 20
33.5
 30
0.0
 11
43.5
 21
32.934314575050763
 31
0.0
  0
LINE
  5
168E
  8
0
 10
46.5
 20
32.934314575050763
 30
0.0
 11
46.5
 21
27.06568542494923
 31
0.0
  0
LINE
  5
168F
  8
0
 10
46.5
 20
32.934314575050763
 30
0.0
 11
45.934314575050763
 21
33.5
 31
0.0
  0
LINE
  5
1690
  8
0
 10
45.934314575050763
 20
26.5
 30
0.0
 11
46.5
 21
27.06568542494923
 31
0.0
  0
LINE
  5
1691
  8
0
 10
45.934314575050763
 20
33.5
 30
0.0
 11
45.934314575050763
 21
26.5
 31
0.0
  0
LINE
  5
1692
  8
0
 10
44.06568542494923
 20
33.5
 30
0.0
 11
44.06568542494923
 21
26.5
 31
0.0
  0
LINE
  5
1693
  8
0
 10
44.06568542494923
 20
26.5
 30
0.0
 11
45.934314575050763
 21
26.5
 31
0.0
  0
LINE
  5
1694
  8
0
 10
45.934314575050763
 20
33.5
 30
0.0
 11
44.06568542494923
 21
33.5
 31
0.0
  0
LINE
  5
1695
  8
3
 10
55.5
 20
28.429500000000001
 30
0.0
 11
47.506084178149159
 21
28.429500000000012
 31
0.0
  0
LINE
  5
1697
  8
3
 10
55.5
 20
31.570499999999999
 30
0.0
 11
47.506084178149159
 21
31.570499999999988
 31
0.0
  0
CIRCLE
  5
16A0
  8
0
 10
70.800000000000011
 20
30.0
 30
0.0
 40
2.9343145750507622
  0
CIRCLE
  5
16A1
  8
0
 10
70.800000000000011
 20
30.0
 30
0.0
 40
3.5
  0
CIRCLE
  5
16A4
  8
0
 10
70.800000000000011
 20
30.0
 30
0.0
 40
2.0
  0
CIRCLE
  5
16A5
  8
0
 10
70.800000000000011
 20
30.0
 30
0.0
 40
1.2490000000000001
  0
CIRCLE
  5
16A6
  8
0
 10
70.800000000000011
 20
30.0
 30
0.0
 40
1.749999999999992
  0
LINE
  5
1723
  8
0
 10
29.0
 20
30.577350269189619
 30
0.0
 11
30.0
 21
31.154700538379242
 31
0.0
  0
LINE
  5
1724
  8
0
 10
31.0
 20
29.422649730810381
 30
0.0
 11
30.0
 21
28.845299461620751
 31
0.0
  0
LINE
  5
1725
  8
0
 10
29.0
 20
29.422649730810381
 30
0.0
 11
29.0
 21
30.577350269189619
 31
0.0
  0
LINE
  5
1726
  8
0
 10
30.0
 20
28.845299461620751
 30
0.0
 11
29.0
 21
29.422649730810381
 31
0.0
  0
LINE
  5
1727
  8
0
 10
31.0
 20
30.577350269189619
 30
0.0
 11
31.0
 21
29.422649730810381
 31
0.0
  0
LINE
  5
1728
  8
0
 10
30.0
 20
31.154700538379242
 30
0.0
 11
31.0
 21
30.577350269189619
 31
0.0
  0
CIRCLE
  5
1729
  8
0
 10
30.0
 20
30.0
 30
0.0
 40
2.9343145750507622
  0
CIRCLE
  5
172A
  8
0
 10
30.0
 20
30.0
 30
0.0
 40
3.5
  0
ARC
  5
1771
  8
0
 10
56.050000000000011
 20
30.0
 30
0.0
 40
1.2500000000000011
 50
291.10019602409221
 51
68.899803975907858
  0
ARC
  5
1772
  8
5
 10
55.25
 20
30.0
 30
0.0
 40
1.2500000000000011
 50
291.10019602409221
 51
68.899803975907858
  0
LINE
  5
1773
  8
2
 10
45.499999999999993
 20
28.845299461620751
 30
0.0
 11
46.166666666666679
 21
30.000000000000028
 31
0.0
  0
LINE
  5
1774
  8
2
 10
45.499999999999993
 20
31.154700538379249
 30
0.0
 11
46.166666666666679
 21
30.0
 31
0.0
  0
LINE
  5
1797
  8
0
 10
47.29737205583703
 20
28.550000000000001
 30
0.0
 11
47.29737205583703
 21
31.449999999999999
 31
0.0
  0
LINE
  5
1799
  8
1
 10
59.300000000000011
 20
30.0
 30
0.0
 11
41.5
 21
30.0
 31
0.0
  0
CIRCLE
  5
17BD
  8
3
 10
70.800000000000011
 20
30.0
 30
0.0
 40
1.5704999999999949
  0
LINE
  5
17BE
  8
1
 10
70.800000000000011
 20
35.5
 30
0.0
 11
70.800000000000011
 21
24.5
 31
0.0
  0
LINE
  5
17BF
  8
1
 10
76.300000000000011
 20
30.0
 30
0.0
 11
65.300000000000011
 21
30.0
 31
0.0
  0
LINE
  5
17D0
  8
1
 10
30.0
 20
35.5
 30
0.0
 11
30.0
 21
24.5
 31
0.0
  0
LINE
  5
17D1
  8
1
 10
24.5
 20
30.0
 30
0.0
 11
35.5
 21
30.0
 31
0.0
  0
ENDSEC
  0
EOF
