  0
SECTION
  2
HEADER
  9
$ACADVER
  1
AC1009
  9
$INSBASE
 10
0.0
 20
0.0
 30
0.0
  9
$EXTMIN
 10
0.0
 20
-2.960436562073669
 30
0.0
  9
$EXTMAX
 10
256.741086
 20
148.47617
 30
0.0
  9
$LIMMIN
 10
0.0
 20
0.0
  9
$LIMMAX
 10
275.0
 20
175.0
  9
$ORTHOMODE
 70
     1
  9
$REGENMODE
 70
     1
  9
$FILLMODE
 70
     1
  9
$QTEXTMODE
 70
     0
  9
$MIRRTEXT
 70
     0
  9
$DRAGMODE
 70
     2
  9
$LTSCALE
 40
10.0
  9
$OSMODE
 70
  3071
  9
$ATTMODE
 70
     1
  9
$TEXTSIZE
 40
0.2
  9
$TRACEWID
 40
0.05
  9
$TEXTSTYLE
  7
STANDARD
  9
$CLAYER
  8
0
  9
$CELTYPE
  6
BYLAYER
  9
$CECOLOR
 62
   256
  9
$DIMSCALE
 40
1.0
  9
$DIMASZ
 40
3.0
  9
$DIMEXO
 40
2.0
  9
$DIMDLI
 40
10.0
  9
$DIMRND
 40
0.0
  9
$DIMDLE
 40
0.0
  9
$DIMEXE
 40
2.0
  9
$DIMTP
 40
0.0
  9
$DIMTM
 40
0.0
  9
$DIMTXT
 40
3.2000000000000002
  9
$DIMCEN
 40
0.0
  9
$DIMTSZ
 40
0.0
  9
$DIMTOL
 70
     0
  9
$DIMLIM
 70
     0
  9
$DIMTIH
 70
     0
  9
$DIMTOH
 70
     0
  9
$DIMSE1
 70
     0
  9
$DIMSE2
 70
     0
  9
$DIMTAD
 70
     1
  9
$DIMZIN
 70
     0
  9
$DIMBLK
  1

  9
$DIMASO
 70
     0
  9
$DIMSHO
 70
     0
  9
$DIMPOST
  1

  9
$DIMAPOST
  1

  9
$DIMALT
 70
     0
  9
$DIMALTD
 70
     2
  9
$DIMALTF
 40
25.399999999999999
  9
$DIMLFAC
 40
1.0
  9
$DIMTOFL
 70
     1
  9
$DIMTVP
 40
1.6000000000000001
  9
$DIMTIX
 70
     1
  9
$DIMSOXD
 70
     0
  9
$DIMSAH
 70
     0
  9
$DIMBLK1
  1

  9
$DIMBLK2
  1

  9
$DIMSTYLE
  2
STANDARD
  9
$DIMCLRD
 70
     0
  9
$DIMCLRE
 70
     0
  9
$DIMCLRT
 70
     0
  9
$DIMTFAC
 40
1.0
  9
$DIMGAP
 40
0.09
  9
$LUNITS
 70
     2
  9
$LUPREC
 70
     4
  9
$SKETCHINC
 40
0.1
  9
$FILLETRAD
 40
0.0
  9
$AUNITS
 70
     0
  9
$AUPREC
 70
     4
  9
$MENU
  1
E:\r13\win\SUPPORT\ACAD
  9
$ELEVATION
 40
0.0
  9
$PELEVATION
 40
0.0
  9
$THICKNESS
 40
0.0
  9
$LIMCHECK
 70
     0
  9
$BLIPMODE
 70
     0
  9
$CHAMFERA
 40
0.0
  9
$CHAMFERB
 40
0.0
  9
$SKPOLY
 70
     0
  9
$TDCREATE
 40
2449840.6265509259
  9
$TDUPDATE
 40
2456598.4017852088
  9
$TDINDWG
 40
0.0000820949
  9
$TDUSRTIMER
 40
0.0000820949
  9
$USRTIMER
 70
     1
  9
$ANGBASE
 50
0.0
  9
$ANGDIR
 70
     0
  9
$PDMODE
 70
    35
  9
$PDSIZE
 40
0.0
  9
$PLINEWID
 40
0.0
  9
$COORDS
 70
     1
  9
$SPLFRAME
 70
     0
  9
$SPLINETYPE
 70
     6
  9
$SPLINESEGS
 70
     8
  9
$ATTDIA
 70
     0
  9
$ATTREQ
 70
     1
  9
$HANDLING
 70
     1
  9
$HANDSEED
  5
24D
  9
$SURFTAB1
 70
     6
  9
$SURFTAB2
 70
     6
  9
$SURFTYPE
 70
     6
  9
$SURFU
 70
     6
  9
$SURFV
 70
     6
  9
$UCSNAME
  2

  9
$UCSORG
 10
0.0
 20
0.0
 30
0.0
  9
$UCSXDIR
 10
1.0
 20
0.0
 30
0.0
  9
$UCSYDIR
 10
0.0
 20
1.0
 30
0.0
  9
$PUCSNAME
  2

  9
$PUCSORG
 10
0.0
 20
0.0
 30
0.0
  9
$PUCSXDIR
 10
1.0
 20
0.0
 30
0.0
  9
$PUCSYDIR
 10
0.0
 20
1.0
 30
0.0
  9
$USERI1
 70
     0
  9
$USERI2
 70
     1
  9
$USERI3
 70
     0
  9
$USERI4
 70
     0
  9
$USERI5
 70
     0
  9
$USERR1
 40
0.0
  9
$USERR2
 40
0.0
  9
$USERR3
 40
0.0
  9
$USERR4
 40
0.0
  9
$USERR5
 40
0.0
  9
$WORLDVIEW
 70
     1
  9
$SHADEDGE
 70
     3
  9
$SHADEDIF
 70
    70
  9
$TILEMODE
 70
     1
  9
$MAXACTVP
 70
    16
  9
$PLIMCHECK
 70
     0
  9
$PEXTMIN
 10
1.0000000000000000E+020
 20
1.0000000000000000E+020
 30
1.0000000000000000E+020
  9
$PEXTMAX
 10
-1.0000000000000000E+020
 20
-1.0000000000000000E+020
 30
-1.0000000000000000E+020
  9
$PLIMMIN
 10
0.0
 20
0.0
  9
$PLIMMAX
 10
12.0
 20
9.0
  9
$UNITMODE
 70
     0
  9
$VISRETAIN
 70
     0
  9
$PLINEGEN
 70
     0
  9
$PSLTSCALE
 70
     0
  0
ENDSEC
  0
SECTION
  2
TABLES
  0
TABLE
  2
VPORT
 70
     1
  0
VPORT
  2
*ACTIVE
 70
     0
 10
0.0
 20
0.0
 11
1.0
 21
1.0
 12
142.4271429343581
 22
86.015320026217182
 13
0.0
 23
0.0
 14
10.0
 24
10.0
 15
10.0
 25
10.0
 16
0.0
 26
0.0
 36
1.0
 17
0.0
 27
0.0
 37
0.0
 40
179.56549770494291
 41
1.831871345029239
 42
50.0
 43
0.0
 44
0.0
 50
0.0
 51
0.0
 71
     0
 72
   500
 73
     1
 74
     0
 75
     0
 76
     0
 77
     0
 78
     2
  0
ENDTAB
  0
TABLE
  2
LTYPE
 70
     3
  0
LTYPE
  2
CONTINUOUS
 70
     0
  3
Solid Line
 72
    65
 73
     0
 40
0.0
  0
LTYPE
  2
CENTER
 70
     0
  3
____ _ ____ _ ____ _ ____ _ ____ _ ____ _ ____
 72
    65
 73
     4
 40
2.0
 49
1.25
 49
-0.25
 49
0.25
 49
-0.25
  0
LTYPE
  2
PHANTOM2
 70
     0
  3
___ _ _ ___ _ _ ___ _ _ ___ _ _
 72
    65
 73
     6
 40
1.25
 49
0.625
 49
-0.125
 49
0.125
 49
-0.125
 49
0.125
 49
-0.125
  0
ENDTAB
  0
TABLE
  2
LAYER
 70
     4
  0
LAYER
  2
0
 70
     0
 62
     7
  6
CONTINUOUS
  0
LAYER
  2
1
 70
     0
 62
     1
  6
CENTER
  0
LAYER
  2
3
 70
     0
 62
     3
  6
CONTINUOUS
  0
LAYER
  2
4
 70
     0
 62
     4
  6
CONTINUOUS
  0
ENDTAB
  0
TABLE
  2
STYLE
 70
     2
  0
STYLE
  2
STANDARD
 70
     0
 40
0.0
 41
1.0
 50
0.0
 71
     0
 42
0.2
  3
ROMANS
  4
BIGFONT
  0
STYLE
  2
STANDARD1
 70
     0
 40
0.0
 41
1.0
 50
0.0
 71
     0
 42
3.0
  3
txt
  4

  0
ENDTAB
  0
TABLE
  2
VIEW
 70
     1
  0
VIEW
  2
ALL
 70
     0
 40
175.0
 10
143.23529411764699
 20
87.5
 41
0.0
 11
0.0
 21
0.0
 31
1.0
 12
0.0
 22
0.0
 32
0.0
 42
0.0
 43
0.0
 44
0.0
 50
0.0
 71
     0
  0
ENDTAB
  0
TABLE
  2
UCS
 70
     0
  0
ENDTAB
  0
TABLE
  2
APPID
 70
     3
  0
APPID
  2
ACAD
 70
     0
  0
APPID
  2
ACAD_MLEADERVER
 70
     0
  0
APPID
  2
ACAD_NAV_VCDISPLAY
 70
     0
  0
ENDTAB
  0
TABLE
  2
DIMSTYLE
 70
     1
  0
DIMSTYLE
  2
STANDARD
 70
     0
  3

  4

  5

  6

  7

 40
1.0
 41
0.18
 42
0.0625
 43
0.38
 44
0.18
 45
0.0
 46
0.0
 47
0.0
 48
0.0
140
0.18
141
0.09
142
0.0
143
25.399999999999999
144
1.0
145
0.0
146
1.0
147
0.09
 71
     0
 72
     0
 73
     1
 74
     1
 75
     0
 76
     0
 77
     0
 78
     0
170
     0
171
     2
172
     0
173
     0
174
     0
175
     0
176
     0
177
     0
178
     0
  0
ENDTAB
  0
ENDSEC
  0
SECTION
  2
BLOCKS
  0
BLOCK
  8
0
  2
$MODEL_SPACE
 70
     0
 10
0.0
 20
0.0
 30
0.0
  3
$MODEL_SPACE
  1

  0
ENDBLK
  5
101
  8
0
  0
BLOCK
 67
     1
  8
0
  2
$PAPER_SPACE
 70
     0
 10
0.0
 20
0.0
 30
0.0
  3
$PAPER_SPACE
  1

  0
ENDBLK
  5
FF
 67
     1
  8
0
  0
BLOCK
  8
0
  2
STDGX5
 70
     0
 10
0.0
 20
0.0
 30
0.0
  3
STDGX5
  1

  0
ENDBLK
  5
83
  8
0
  0
ENDSEC
  0
SECTION
  2
ENTITIES
  0
INSERT
  5
8D
  8
0
  2
STDGX5
 10
0.0
 20
0.0
 30
0.0
  0
INSERT
  5
8E
  8
4
  2
STDGX5
 10
0.0
 20
0.0
 30
0.0
  0
CIRCLE
  5
8F
  8
0
 10
147.2773
 20
123.47617
 30
0.0
 40
6.0
  0
CIRCLE
  5
90
  8
0
 10
147.2773
 20
123.47617
 30
0.0
 40
14.0
  0
LINE
  5
91
  8
0
 10
157.09240800000001
 20
130.348782
 30
0.0
 11
158.41439099999999
 21
131.27444499999999
 31
0.0
  0
LINE
  5
93
  8
0
 10
158.851056
 20
126.577349
 30
0.0
 11
160.800262
 21
127.099637
 31
0.0
  0
ARC
  5
95
  8
0
 10
158.35534999999999
 20
128.64195000000001
 30
0.0
 40
2.1232759999999988
 50
126.498983
 51
283.50101699999999
  0
ARC
  5
96
  8
0
 10
148.32730000000001
 20
123.47617
 30
0.0
 40
12.75
 50
37.707414
 51
322.29258599999997
  0
ARC
  5
97
  8
0
 10
158.35534999999999
 20
118.31039
 30
0.0
 40
2.1232759999999988
 50
76.498982999999996
 51
233.50101699999999
  0
LINE
  5
99
  8
0
 10
158.851056
 20
120.37499099999999
 30
0.0
 11
160.800262
 21
119.85270300000001
 31
0.0
  0
LINE
  5
9B
  8
0
 10
157.09240800000001
 20
116.60355800000001
 30
0.0
 11
158.41439099999999
 21
115.67789500000001
 31
0.0
  0
CIRCLE
  5
9C
  8
0
 10
157.971732
 20
128.463065
 30
0.0
 40
1.0
  0
CIRCLE
  5
9D
  8
0
 10
157.971732
 20
118.48927500000001
 30
0.0
 40
1.0
  0
ARC
  5
9F
  8
0
 10
147.2773
 20
123.47617
 30
0.0
 40
27.5
 50
310.21417100000002
 51
319.78582899999998
  0
ARC
  5
A0
  8
0
 10
147.2773
 20
123.47617
 30
0.0
 40
27.5
 50
220.21417099999999
 51
229.78582900000001
  0
ARC
  5
A1
  8
0
 10
147.2773
 20
123.47617
 30
0.0
 40
27.5
 50
40.214170999999993
 51
49.785829
  0
ARC
  5
A2
  8
0
 10
147.2773
 20
123.47617
 30
0.0
 40
27.5
 50
130.21417099999999
 51
139.78582900000001
  0
LINE
  5
A3
  8
0
 10
129.522019
 20
102.47617
 30
0.0
 11
165.03258099999999
 21
102.47617
 31
0.0
  0
LINE
  5
A4
  8
0
 10
126.2773
 20
141.23145099999999
 30
0.0
 11
126.2773
 21
105.720889
 31
0.0
  0
LINE
  5
A5
  8
0
 10
129.522019
 20
144.47617
 30
0.0
 11
165.03258099999999
 21
144.47617
 31
0.0
  0
LINE
  5
A6
  8
0
 10
168.2773
 20
141.23145099999999
 30
0.0
 11
168.2773
 21
105.720889
 31
0.0
  0
LINE
  5
A7
  8
1
 10
126.064097
 20
102.262967
 30
0.0
 11
138.7920189999999
 21
114.990889
 31
0.0
  0
CIRCLE
  5
A8
  8
0
 10
132.42805799999999
 20
108.62692800000001
 30
0.0
 40
4.0
  0
CIRCLE
  5
A9
  8
0
 10
132.42805799999999
 20
108.62692800000001
 30
0.0
 40
2.125
  0
CIRCLE
  5
AA
  8
3
 10
132.42805799999999
 20
108.62692800000001
 30
0.0
 40
2.5
  0
CIRCLE
  5
AB
  8
3
 10
162.126542
 20
108.62692800000001
 30
0.0
 40
2.5
  0
CIRCLE
  5
AC
  8
0
 10
162.126542
 20
108.62692800000001
 30
0.0
 40
2.125
  0
CIRCLE
  5
AD
  8
0
 10
162.126542
 20
108.62692800000001
 30
0.0
 40
4.0
  0
LINE
  5
AE
  8
1
 10
168.49050299999999
 20
102.262967
 30
0.0
 11
155.76258100000001
 21
114.990889
 31
0.0
  0
LINE
  5
AF
  8
1
 10
168.49050299999999
 20
144.68937299999999
 30
0.0
 11
155.76258100000001
 21
131.96145100000001
 31
0.0
  0
CIRCLE
  5
B0
  8
0
 10
162.126542
 20
138.325412
 30
0.0
 40
4.0
  0
CIRCLE
  5
B1
  8
0
 10
162.126542
 20
138.325412
 30
0.0
 40
2.125
  0
CIRCLE
  5
B2
  8
3
 10
162.126542
 20
138.325412
 30
0.0
 40
2.5
  0
CIRCLE
  5
B3
  8
3
 10
132.42805799999999
 20
138.325412
 30
0.0
 40
2.5
  0
CIRCLE
  5
B4
  8
0
 10
132.42805799999999
 20
138.325412
 30
0.0
 40
2.125
  0
CIRCLE
  5
B5
  8
0
 10
132.42805799999999
 20
138.325412
 30
0.0
 40
4.0
  0
LINE
  5
B6
  8
1
 10
126.064097
 20
144.68937299999999
 30
0.0
 11
138.7920189999999
 21
131.96145100000001
 31
0.0
  0
LINE
  5
B7
  8
1
 10
122.2773
 20
123.47617
 30
0.0
 11
172.2773
 21
123.47617
 31
0.0
  0
LINE
  5
B8
  8
1
 10
147.2773
 20
148.47617
 30
0.0
 11
147.2773
 21
96.97617000000001
 31
0.0
  0
CIRCLE
  5
B9
  8
1
 10
147.2773
 20
123.47617
 30
0.0
 40
21.0
  0
LINE
  5
BB
  8
0
 10
253.741086
 20
140.47617
 30
0.0
 11
253.741086
 21
106.47617
 31
0.0
  0
LINE
  5
BC
  8
0
 10
237.741086
 20
144.47617
 30
0.0
 11
237.741086
 21
102.47617
 31
0.0
  0
LINE
  5
BD
  8
0
 10
237.741086
 20
102.47617
 30
0.0
 11
248.741086
 21
102.47617
 31
0.0
  0
LINE
  5
BE
  8
1
 10
256.741086
 20
123.47617
 30
0.0
 11
232.741086
 21
123.47617
 31
0.0
  0
LINE
  5
BF
  8
0
 10
253.741086
 20
106.47617
 30
0.0
 11
248.94108600000001
 21
106.47617
 31
0.0
  0
LINE
  5
C0
  8
0
 10
248.741086
 20
106.27616999999999
 30
0.0
 11
248.741086
 21
102.47617
 31
0.0
  0
LINE
  5
C1
  8
0
 10
248.741086
 20
140.67617000000001
 30
0.0
 11
248.741086
 21
144.47617
 31
0.0
  0
LINE
  5
C2
  8
0
 10
253.741086
 20
140.47617
 30
0.0
 11
248.94108600000001
 21
140.47617
 31
0.0
  0
ARC
  5
C3
  8
0
 10
248.94108600000001
 20
140.67617000000001
 30
0.0
 40
0.2
 50
180.0
 51
270.0
  0
ARC
  5
C4
  8
0
 10
248.94108600000001
 20
106.27616999999999
 30
0.0
 40
0.2
 50
90.0
 51
180.0
  0
LINE
  5
C5
  8
0
 10
237.741086
 20
144.47617
 30
0.0
 11
248.741086
 21
144.47617
 31
0.0
  0
LINE
  5
C6
  8
0
 10
237.741086
 20
141.23145099999999
 30
0.0
 11
248.741086
 21
141.23145099999999
 31
0.0
  0
LINE
  5
C7
  8
0
 10
237.741086
 20
105.720889
 30
0.0
 11
248.741086
 21
105.720889
 31
0.0
  0
LINE
  5
C8
  8
0
 10
248.741086
 20
141.23145099999999
 30
0.0
 11
248.741086
 21
105.720889
 31
0.0
  0
TEXT
  5
1BC
  8
0
 62
     3
 10
0.0
 20
0.0
 30
0.0
 40
10.0
  1
BSRN2812
  7
STANDARD1
  0
ENDSEC
  0
EOF
