  0
SECTION
  2
HEADER
  9
$ACADVER
  1
AC1009
  9
$INSBASE
 10
0.0
 20
0.0
 30
0.0
  9
$EXTMIN
 10
0.0
 20
-1.4802182810368341
 30
0.0
  9
$EXTMAX
 10
82.148546641670436
 20
53.943176118504311
 30
0.0
  9
$LIMMIN
 10
0.0
 20
0.0
  9
$LIMMAX
 10
187.5
 20
135.0
  9
$ORTHOMODE
 70
     0
  9
$REGENMODE
 70
     1
  9
$FILLMODE
 70
     1
  9
$QTEXTMODE
 70
     0
  9
$MIRRTEXT
 70
     0
  9
$DRAGMODE
 70
     2
  9
$LTSCALE
 40
2.0
  9
$OSMODE
 70
  3071
  9
$ATTMODE
 70
     1
  9
$TEXTSIZE
 40
4.0
  9
$TRACEWID
 40
0.05
  9
$TEXTSTYLE
  7
STANDARD
  9
$CLAYER
  8
0
  9
$CELTYPE
  6
BYLAYER
  9
$CECOLOR
 62
   256
  9
$DIMSCALE
 40
0.5
  9
$DIMASZ
 40
3.0
  9
$DIMEXO
 40
2.0
  9
$DIMDLI
 40
0.38
  9
$DIMRND
 40
0.0
  9
$DIMDLE
 40
0.0
  9
$DIMEXE
 40
2.0
  9
$DIMTP
 40
0.0
  9
$DIMTM
 40
0.0
  9
$DIMTXT
 40
3.0
  9
$DIMCEN
 40
0.0
  9
$DIMTSZ
 40
0.0
  9
$DIMTOL
 70
     0
  9
$DIMLIM
 70
     0
  9
$DIMTIH
 70
     0
  9
$DIMTOH
 70
     0
  9
$DIMSE1
 70
     0
  9
$DIMSE2
 70
     0
  9
$DIMTAD
 70
     1
  9
$DIMZIN
 70
     0
  9
$DIMBLK
  1

  9
$DIMASO
 70
     0
  9
$DIMSHO
 70
     0
  9
$DIMPOST
  1

  9
$DIMAPOST
  1

  9
$DIMALT
 70
     0
  9
$DIMALTD
 70
     2
  9
$DIMALTF
 40
25.399999999999999
  9
$DIMLFAC
 40
1.0
  9
$DIMTOFL
 70
     0
  9
$DIMTVP
 40
1.6000000000000001
  9
$DIMTIX
 70
     1
  9
$DIMSOXD
 70
     0
  9
$DIMSAH
 70
     0
  9
$DIMBLK1
  1

  9
$DIMBLK2
  1

  9
$DIMSTYLE
  2
STANDARD
  9
$DIMCLRD
 70
     0
  9
$DIMCLRE
 70
     0
  9
$DIMCLRT
 70
     0
  9
$DIMTFAC
 40
1.0
  9
$DIMGAP
 40
0.09
  9
$LUNITS
 70
     2
  9
$LUPREC
 70
     4
  9
$SKETCHINC
 40
0.1
  9
$FILLETRAD
 40
1.0
  9
$AUNITS
 70
     0
  9
$AUPREC
 70
     0
  9
$MENU
  1
E:\r13\win\SUPPORT\ACAD
  9
$ELEVATION
 40
0.0
  9
$PELEVATION
 40
0.0
  9
$THICKNESS
 40
0.0
  9
$LIMCHECK
 70
     0
  9
$BLIPMODE
 70
     0
  9
$CHAMFERA
 40
0.0
  9
$CHAMFERB
 40
0.0
  9
$SKPOLY
 70
     0
  9
$TDCREATE
 40
2449840.6143865739
  9
$TDUPDATE
 40
2456598.4016295602
  9
$TDINDWG
 40
0.2563656366
  9
$TDUSRTIMER
 40
0.2563656366
  9
$USRTIMER
 70
     1
  9
$ANGBASE
 50
0.0
  9
$ANGDIR
 70
     0
  9
$PDMODE
 70
     0
  9
$PDSIZE
 40
0.0
  9
$PLINEWID
 40
0.0
  9
$COORDS
 70
     1
  9
$SPLFRAME
 70
     0
  9
$SPLINETYPE
 70
     6
  9
$SPLINESEGS
 70
     8
  9
$ATTDIA
 70
     0
  9
$ATTREQ
 70
     1
  9
$HANDLING
 70
     1
  9
$HANDSEED
  5
153D
  9
$SURFTAB1
 70
     6
  9
$SURFTAB2
 70
     6
  9
$SURFTYPE
 70
     6
  9
$SURFU
 70
     6
  9
$SURFV
 70
     6
  9
$UCSNAME
  2

  9
$UCSORG
 10
0.0
 20
0.0
 30
0.0
  9
$UCSXDIR
 10
1.0
 20
0.0
 30
0.0
  9
$UCSYDIR
 10
0.0
 20
1.0
 30
0.0
  9
$PUCSNAME
  2

  9
$PUCSORG
 10
0.0
 20
0.0
 30
0.0
  9
$PUCSXDIR
 10
1.0
 20
0.0
 30
0.0
  9
$PUCSYDIR
 10
0.0
 20
1.0
 30
0.0
  9
$USERI1
 70
     0
  9
$USERI2
 70
     1
  9
$USERI3
 70
     1
  9
$USERI4
 70
     0
  9
$USERI5
 70
     0
  9
$USERR1
 40
0.0
  9
$USERR2
 40
0.0
  9
$USERR3
 40
0.0
  9
$USERR4
 40
0.0
  9
$USERR5
 40
0.0
  9
$WORLDVIEW
 70
     1
  9
$SHADEDGE
 70
     3
  9
$SHADEDIF
 70
    70
  9
$TILEMODE
 70
     1
  9
$MAXACTVP
 70
    16
  9
$PLIMCHECK
 70
     0
  9
$PEXTMIN
 10
1.0000000000000000E+020
 20
1.0000000000000000E+020
 30
1.0000000000000000E+020
  9
$PEXTMAX
 10
-1.0000000000000000E+020
 20
-1.0000000000000000E+020
 30
-1.0000000000000000E+020
  9
$PLIMMIN
 10
0.0
 20
0.0
  9
$PLIMMAX
 10
12.0
 20
9.0
  9
$UNITMODE
 70
     0
  9
$VISRETAIN
 70
     0
  9
$PLINEGEN
 70
     0
  9
$PSLTSCALE
 70
     0
  0
ENDSEC
  0
SECTION
  2
TABLES
  0
TABLE
  2
VPORT
 70
     1
  0
VPORT
  2
*ACTIVE
 70
     0
 10
0.0
 20
0.0
 11
1.0
 21
1.0
 12
97.52905416604365
 22
66.75636307133405
 13
0.0
 23
0.0
 14
5.0
 24
5.0
 15
5.0
 25
5.0
 16
0.0
 26
0.0
 36
1.0
 17
0.0
 27
0.0
 37
0.0
 40
137.71137496815999
 41
1.831871345029239
 42
50.0
 43
0.0
 44
0.0
 50
0.0
 51
0.0
 71
     0
 72
   100
 73
     1
 74
     0
 75
     0
 76
     0
 77
     0
 78
     0
  0
ENDTAB
  0
TABLE
  2
LTYPE
 70
     4
  0
LTYPE
  2
CONTINUOUS
 70
     0
  3
Solid Line
 72
    65
 73
     0
 40
0.0
  0
LTYPE
  2
CENTER
 70
     0
  3
____ _ ____ _ ____ _ ____ _ ____ _ ____ _ ____
 72
    65
 73
     4
 40
2.0
 49
1.25
 49
-0.25
 49
0.25
 49
-0.25
  0
LTYPE
  2
HIDDEN
 70
     0
  3
_ _ _ _ _ _ _ _ _ _ _ _ _ _ _ _ _ _ _ _ _ _ _
 72
    65
 73
     2
 40
0.375
 49
0.25
 49
-0.125
  0
LTYPE
  2
PHANTOM2
 70
     0
  3
___ _ _ ___ _ _ ___ _ _ ___ _ _
 72
    65
 73
     6
 40
1.25
 49
0.625
 49
-0.125
 49
0.125
 49
-0.125
 49
0.125
 49
-0.125
  0
ENDTAB
  0
TABLE
  2
LAYER
 70
     4
  0
LAYER
  2
0
 70
     0
 62
     7
  6
CONTINUOUS
  0
LAYER
  2
1
 70
     0
 62
     1
  6
CENTER
  0
LAYER
  2
3
 70
     0
 62
     3
  6
CONTINUOUS
  0
LAYER
  2
2
 70
     0
 62
     2
  6
HIDDEN
  0
ENDTAB
  0
TABLE
  2
STYLE
 70
     2
  0
STYLE
  2
STANDARD
 70
     0
 40
0.0
 41
1.0
 50
0.0
 71
     0
 42
4.0
  3
TXT
  4
BIGFONT
  0
STYLE
  2
STANDARD1
 70
     0
 40
0.0
 41
1.0
 50
0.0
 71
     0
 42
3.0
  3
txt
  4

  0
ENDTAB
  0
TABLE
  2
VIEW
 70
     1
  0
VIEW
  2
ALL
 70
     0
 40
179.66152299999999
 10
141.903918
 20
89.830760999999995
 41
0.0
 11
0.0
 21
0.0
 31
1.0
 12
0.0
 22
0.0
 32
0.0
 42
0.0
 43
0.0
 44
0.0
 50
0.0
 71
     0
  0
ENDTAB
  0
TABLE
  2
UCS
 70
     0
  0
ENDTAB
  0
TABLE
  2
APPID
 70
     4
  0
APPID
  2
ACAD
 70
     0
  0
APPID
  2
DCO15
 70
     0
  0
APPID
  2
ACAD_MLEADERVER
 70
     0
  0
APPID
  2
ACAD_NAV_VCDISPLAY
 70
     0
  0
ENDTAB
  0
TABLE
  2
DIMSTYLE
 70
     1
  0
DIMSTYLE
  2
STANDARD
 70
     0
  3

  4

  5

  6

  7

 40
1.0
 41
0.18
 42
0.0625
 43
0.38
 44
0.18
 45
0.0
 46
0.0
 47
0.0
 48
0.0
140
0.18
141
0.09
142
0.0
143
25.399999999999999
144
1.0
145
0.0
146
1.0
147
0.09
 71
     0
 72
     0
 73
     1
 74
     1
 75
     0
 76
     0
 77
     0
 78
     0
170
     0
171
     2
172
     0
173
     0
174
     0
175
     0
176
     0
177
     0
178
     0
  0
ENDTAB
  0
ENDSEC
  0
SECTION
  2
BLOCKS
  0
BLOCK
  8
0
  2
$MODEL_SPACE
 70
     0
 10
0.0
 20
0.0
 30
0.0
  3
$MODEL_SPACE
  1

  0
ENDBLK
  5
1BD
  8
0
  0
BLOCK
 67
     1
  8
0
  2
$PAPER_SPACE
 70
     0
 10
0.0
 20
0.0
 30
0.0
  3
$PAPER_SPACE
  1

  0
ENDBLK
  5
1BB
 67
     1
  8
0
  0
ENDSEC
  0
SECTION
  2
ENTITIES
  0
LINE
  5
13B7
  8
2
 10
47.78187997391867
 20
25.4980614035305
 30
0.0
 11
46.448546641670433
 21
27.49806140353056
 31
0.0
  0
LINE
  5
13B8
  8
2
 10
46.44854664167044
 20
23.49806140353056
 30
0.0
 11
47.78187997391867
 21
25.4980614035305
 31
0.0
  0
LINE
  5
13B9
  8
0
 10
51.698546641670418
 20
28.598061403530561
 30
0.0
 11
50.798546641670413
 21
29.49806140353056
 31
0.0
  0
LINE
  5
13BA
  8
0
 10
50.798546641670399
 20
21.49806140353056
 30
0.0
 11
51.698546641670418
 21
22.398061403530559
 31
0.0
  0
ARC
  5
13BB
  8
0
 10
50.898546641670428
 20
25.49806140353056
 30
0.0
 40
2.7500000000000009
 50
299.40035101021181
 51
60.599648989788122
  0
LINE
  5
13BC
  8
0
 10
50.798546641670413
 20
21.49806140353056
 30
0.0
 11
50.798546641670413
 21
29.49806140353056
 31
0.0
  0
LINE
  5
13BD
  8
0
 10
51.698546641670418
 20
22.398061403530559
 30
0.0
 11
51.698546641670433
 21
28.598061403530551
 31
0.0
  0
LINE
  5
13BE
  8
0
 10
52.24854664167043
 20
22.398061403530559
 30
0.0
 11
52.248546641670409
 21
28.598061403530551
 31
0.0
  0
LINE
  5
13BF
  8
1
 10
39.948546641670433
 20
25.49806140353056
 30
0.0
 11
56.148546641670443
 21
25.49806140353056
 31
0.0
  0
LINE
  5
13C0
  8
2
 10
42.448546641670433
 20
27.49806140353056
 30
0.0
 11
46.448546641670433
 21
27.49806140353056
 31
0.0
  0
LINE
  5
13C1
  8
2
 10
42.448546641670418
 20
25.49806140353056
 30
0.0
 11
46.448546641670411
 21
25.49806140353056
 31
0.0
  0
LINE
  5
13C2
  8
2
 10
42.448546641670383
 20
23.49806140353056
 30
0.0
 11
46.44854664167044
 21
23.49806140353056
 31
0.0
  0
LINE
  5
13C3
  8
0
 10
42.448546641670418
 20
22.537291888071909
 30
0.0
 11
43.048546641670491
 21
21.49806140353056
 31
0.0
  0
LINE
  5
13C4
  8
0
 10
42.448546641670447
 20
28.458830918989211
 30
0.0
 11
43.048546641670413
 21
29.49806140353056
 31
0.0
  0
LINE
  5
13C5
  8
2
 10
46.448546641670411
 20
23.49806140353051
 30
0.0
 11
46.448546641670411
 21
27.498061403530571
 31
0.0
  0
LINE
  5
13C6
  8
0
 10
42.448546641670418
 20
22.537291888071909
 30
0.0
 11
42.448546641670447
 21
28.458830918989211
 31
0.0
  0
LINE
  5
13C7
  8
0
 10
43.048546641670413
 20
21.4980614035305
 30
0.0
 11
43.048546641670413
 21
29.4980614035305
 31
0.0
  0
LINE
  5
13C8
  8
3
 10
42.657969184563818
 20
22.174561403530362
 30
0.0
 11
51.475046641670218
 21
22.174561403530362
 31
0.0
  0
LINE
  5
13C9
  8
3
 10
42.657969184563711
 20
28.821561403530641
 30
0.0
 11
51.475046641670339
 21
28.821561403530641
 31
0.0
  0
LINE
  5
13CA
  8
0
 10
43.048546641670413
 20
29.4980614035305
 30
0.0
 11
50.798546641670448
 21
29.498061403530532
 31
0.0
  0
LINE
  5
13CB
  8
0
 10
43.048546641670413
 20
21.4980614035305
 30
0.0
 11
50.798546641670342
 21
21.498061403530489
 31
0.0
  0
LINE
  5
13CC
  8
0
 10
51.698546641670418
 20
28.598061403530551
 30
0.0
 11
52.248546641670409
 21
28.598061403530561
 31
0.0
  0
LINE
  5
13CD
  8
0
 10
51.698546641670418
 20
22.398061403530551
 30
0.0
 11
52.248546641670409
 21
22.398061403530559
 31
0.0
  0
ARC
  5
13CE
  8
2
 10
50.898546641670428
 20
25.49806140353056
 30
0.0
 40
2.7500000000000009
 50
60.599648989788122
 51
299.40035101021181
  0
LINE
  5
13CF
  8
1
 10
50.898546641670428
 20
30.74806140353056
 30
0.0
 11
50.898546641670428
 21
20.24806140353056
 31
0.0
  0
CIRCLE
  5
13D0
  8
0
 10
75.648546641670436
 20
47.443176118504311
 30
0.0
 40
3.100000000000001
  0
CIRCLE
  5
13D1
  8
0
 10
75.648546641670436
 20
47.443176118504311
 30
0.0
 40
2.395829710142209
  0
CIRCLE
  5
13D2
  8
0
 10
75.648546641670436
 20
47.443176118504311
 30
0.0
 40
4.0
  0
LINE
  5
13D3
  8
1
 10
69.148546641670436
 20
47.443176118504311
 30
0.0
 11
82.148546641670436
 21
47.443176118504311
 31
0.0
  0
LINE
  5
13D4
  8
1
 10
75.648546641670436
 20
40.943176118504297
 30
0.0
 11
75.648546641670436
 21
53.943176118504311
 31
0.0
  0
CIRCLE
  5
13D5
  8
3
 10
75.648546641670436
 20
47.443176118504311
 30
0.0
 40
3.3235000000000801
  0
CIRCLE
  5
13D6
  8
3
 10
20.448546641670429
 20
47.443176118504311
 30
0.0
 40
3.3235000000000801
  0
LINE
  5
13D7
  8
1
 10
50.898546641670428
 20
52.693176118504311
 30
0.0
 11
50.898546641670428
 21
42.193176118504297
 31
0.0
  0
ARC
  5
13D8
  8
2
 10
50.898546641670428
 20
47.443176118504311
 30
0.0
 40
2.7500000000000009
 50
60.599648989788122
 51
299.40035101021181
  0
LINE
  5
13D9
  8
0
 10
51.698546641670418
 20
44.343176118504303
 30
0.0
 11
52.248546641670409
 21
44.343176118504303
 31
0.0
  0
LINE
  5
13DA
  8
0
 10
51.698546641670418
 20
50.543176118504299
 30
0.0
 11
52.248546641670409
 21
50.543176118504313
 31
0.0
  0
LINE
  5
13DB
  8
2
 10
46.448546641670411
 20
49.752577193383217
 30
0.0
 11
47.78187997391867
 21
47.443176118504248
 31
0.0
  0
LINE
  5
13DC
  8
2
 10
46.448546641670411
 20
45.133775043625292
 30
0.0
 11
47.78187997391862
 21
47.443176118504248
 31
0.0
  0
LINE
  5
13DD
  8
0
 10
43.048546641670413
 20
43.443176118504248
 30
0.0
 11
50.798546641670342
 21
43.44317611850424
 31
0.0
  0
LINE
  5
13DE
  8
0
 10
43.048546641670413
 20
51.443176118504248
 30
0.0
 11
50.798546641670448
 21
51.44317611850429
 31
0.0
  0
LINE
  5
13DF
  8
3
 10
42.657969184563711
 20
50.766676118504392
 30
0.0
 11
51.475046641670339
 21
50.766676118504392
 31
0.0
  0
LINE
  5
13E0
  8
3
 10
42.657969184563818
 20
44.11967611850411
 30
0.0
 11
51.475046641670218
 21
44.11967611850411
 31
0.0
  0
LINE
  5
13E1
  8
0
 10
43.048546641670413
 20
43.443176118504248
 30
0.0
 11
43.048546641670413
 21
51.443176118504248
 31
0.0
  0
LINE
  5
13E2
  8
0
 10
42.448546641670418
 20
44.482406603045654
 30
0.0
 11
42.448546641670447
 21
50.403945633962962
 31
0.0
  0
LINE
  5
13E3
  8
2
 10
46.448546641670411
 20
45.133775043625349
 30
0.0
 11
46.448546641670411
 21
49.752577193383161
 31
0.0
  0
LINE
  5
13E4
  8
0
 10
42.448546641670447
 20
50.403945633962962
 30
0.0
 11
43.048546641670413
 21
51.443176118504311
 31
0.0
  0
LINE
  5
13E5
  8
0
 10
42.448546641670418
 20
44.482406603045654
 30
0.0
 11
43.048546641670491
 21
43.443176118504297
 31
0.0
  0
LINE
  5
13E6
  8
2
 10
42.448546641670383
 20
45.133775043625349
 30
0.0
 11
46.44854664167044
 21
45.133775043625349
 31
0.0
  0
LINE
  5
13E7
  8
2
 10
42.448546641670418
 20
46.288475581065541
 30
0.0
 11
46.448546641670411
 21
46.288475581065541
 31
0.0
  0
LINE
  5
13E8
  8
2
 10
42.448546641670418
 20
48.597876655942912
 30
0.0
 11
46.448546641670411
 21
48.597876655942912
 31
0.0
  0
LINE
  5
13E9
  8
2
 10
42.448546641670383
 20
49.752577193383161
 30
0.0
 11
46.44854664167044
 21
49.752577193383161
 31
0.0
  0
LINE
  5
13EA
  8
1
 10
20.448546641670429
 20
40.943176118504297
 30
0.0
 11
20.448546641670429
 21
53.943176118504311
 31
0.0
  0
LINE
  5
13EB
  8
1
 10
13.948546641670429
 20
47.443176118504311
 30
0.0
 11
26.948546641670429
 21
47.443176118504311
 31
0.0
  0
LINE
  5
13EC
  8
0
 10
18.448546641670429
 20
48.597876656883571
 30
0.0
 11
20.448546641670429
 21
49.752577195262823
 31
0.0
  0
LINE
  5
13ED
  8
0
 10
20.448546641670429
 20
49.752577195262823
 30
0.0
 11
22.448546641670429
 21
48.597876656883571
 31
0.0
  0
LINE
  5
13EE
  8
0
 10
22.448546641670429
 20
48.597876656883571
 30
0.0
 11
22.448546641670429
 21
46.288475580125052
 31
0.0
  0
LINE
  5
13EF
  8
0
 10
22.448546641670429
 20
46.288475580125052
 30
0.0
 11
20.448546641670429
 21
45.1337750417458
 31
0.0
  0
LINE
  5
13F0
  8
0
 10
20.448546641670429
 20
45.1337750417458
 30
0.0
 11
18.448546641670429
 21
46.288475580125052
 31
0.0
  0
LINE
  5
13F1
  8
0
 10
18.448546641670429
 20
46.288475580125052
 30
0.0
 11
18.448546641670429
 21
48.597876656883571
 31
0.0
  0
CIRCLE
  5
13F2
  8
0
 10
20.448546641670429
 20
47.443176118504311
 30
0.0
 40
4.0
  0
LINE
  5
13F3
  8
1
 10
39.948546641670433
 20
47.443176118504311
 30
0.0
 11
56.148546641670443
 21
47.443176118504311
 31
0.0
  0
LINE
  5
13F4
  8
0
 10
52.24854664167043
 20
44.343176118504303
 30
0.0
 11
52.248546641670409
 21
50.543176118504299
 31
0.0
  0
LINE
  5
13F5
  8
0
 10
51.698546641670418
 20
44.343176118504303
 30
0.0
 11
51.698546641670433
 21
50.543176118504299
 31
0.0
  0
LINE
  5
13F6
  8
0
 10
50.798546641670413
 20
43.443176118504297
 30
0.0
 11
50.798546641670413
 21
51.443176118504311
 31
0.0
  0
ARC
  5
13F7
  8
0
 10
50.898546641670428
 20
47.443176118504311
 30
0.0
 40
2.7500000000000009
 50
299.40035101021181
 51
60.599648989788122
  0
LINE
  5
13F8
  8
0
 10
50.798546641670399
 20
43.443176118504297
 30
0.0
 11
51.698546641670418
 21
44.343176118504303
 31
0.0
  0
LINE
  5
13F9
  8
0
 10
51.698546641670418
 20
50.543176118504313
 30
0.0
 11
50.798546641670413
 21
51.443176118504311
 31
0.0
  0
TEXT
  5
14AC
  8
0
 62
     3
 10
0.0
 20
0.0
 30
0.0
 40
5.0
  1
BSRJ8X10-SUS
  7
STANDARD1
  0
ENDSEC
  0
EOF
