  0
SECTION
  2
HEADER
  9
$ACADVER
  1
AC1009
  9
$INSBASE
 10
0.0
 20
0.0
 30
0.0
  9
$EXTMIN
 10
0.0
 20
-1.4802182810368341
 30
0.0
  9
$EXTMAX
 10
50.438915605936089
 20
33.91408666208207
 30
0.0
  9
$LIMMIN
 10
0.0
 20
0.0
  9
$LIMMAX
 10
187.5
 20
135.0
  9
$ORTHOMODE
 70
     1
  9
$REGENMODE
 70
     1
  9
$FILLMODE
 70
     1
  9
$QTEXTMODE
 70
     0
  9
$MIRRTEXT
 70
     0
  9
$DRAGMODE
 70
     2
  9
$LTSCALE
 40
2.0
  9
$OSMODE
 70
  3071
  9
$ATTMODE
 70
     1
  9
$TEXTSIZE
 40
4.0
  9
$TRACEWID
 40
0.05
  9
$TEXTSTYLE
  7
STANDARD
  9
$CLAYER
  8
0
  9
$CELTYPE
  6
BYLAYER
  9
$CECOLOR
 62
   256
  9
$DIMSCALE
 40
0.5
  9
$DIMASZ
 40
3.0
  9
$DIMEXO
 40
2.0
  9
$DIMDLI
 40
0.38
  9
$DIMRND
 40
0.0
  9
$DIMDLE
 40
0.0
  9
$DIMEXE
 40
2.0
  9
$DIMTP
 40
0.0
  9
$DIMTM
 40
0.0
  9
$DIMTXT
 40
3.0
  9
$DIMCEN
 40
0.0
  9
$DIMTSZ
 40
0.0
  9
$DIMTOL
 70
     0
  9
$DIMLIM
 70
     0
  9
$DIMTIH
 70
     0
  9
$DIMTOH
 70
     0
  9
$DIMSE1
 70
     0
  9
$DIMSE2
 70
     0
  9
$DIMTAD
 70
     1
  9
$DIMZIN
 70
     0
  9
$DIMBLK
  1

  9
$DIMASO
 70
     0
  9
$DIMSHO
 70
     0
  9
$DIMPOST
  1

  9
$DIMAPOST
  1

  9
$DIMALT
 70
     0
  9
$DIMALTD
 70
     2
  9
$DIMALTF
 40
25.399999999999999
  9
$DIMLFAC
 40
1.0
  9
$DIMTOFL
 70
     0
  9
$DIMTVP
 40
1.6000000000000001
  9
$DIMTIX
 70
     1
  9
$DIMSOXD
 70
     0
  9
$DIMSAH
 70
     0
  9
$DIMBLK1
  1

  9
$DIMBLK2
  1

  9
$DIMSTYLE
  2
STANDARD
  9
$DIMCLRD
 70
     0
  9
$DIMCLRE
 70
     0
  9
$DIMCLRT
 70
     0
  9
$DIMTFAC
 40
1.0
  9
$DIMGAP
 40
0.09
  9
$LUNITS
 70
     2
  9
$LUPREC
 70
     4
  9
$SKETCHINC
 40
0.1
  9
$FILLETRAD
 40
1.0
  9
$AUNITS
 70
     0
  9
$AUPREC
 70
     0
  9
$MENU
  1
E:\r13\win\SUPPORT\ACAD
  9
$ELEVATION
 40
0.0
  9
$PELEVATION
 40
0.0
  9
$THICKNESS
 40
0.0
  9
$LIMCHECK
 70
     0
  9
$BLIPMODE
 70
     0
  9
$CHAMFERA
 40
0.0
  9
$CHAMFERB
 40
0.0
  9
$SKPOLY
 70
     0
  9
$TDCREATE
 40
2449840.6143865739
  9
$TDUPDATE
 40
2456598.4015073269
  9
$TDINDWG
 40
0.2509290625
  9
$TDUSRTIMER
 40
0.2509290625
  9
$USRTIMER
 70
     1
  9
$ANGBASE
 50
0.0
  9
$ANGDIR
 70
     0
  9
$PDMODE
 70
     0
  9
$PDSIZE
 40
0.0
  9
$PLINEWID
 40
0.0
  9
$COORDS
 70
     1
  9
$SPLFRAME
 70
     0
  9
$SPLINETYPE
 70
     6
  9
$SPLINESEGS
 70
     8
  9
$ATTDIA
 70
     0
  9
$ATTREQ
 70
     1
  9
$HANDLING
 70
     1
  9
$HANDSEED
  5
14A8
  9
$SURFTAB1
 70
     6
  9
$SURFTAB2
 70
     6
  9
$SURFTYPE
 70
     6
  9
$SURFU
 70
     6
  9
$SURFV
 70
     6
  9
$UCSNAME
  2

  9
$UCSORG
 10
0.0
 20
0.0
 30
0.0
  9
$UCSXDIR
 10
1.0
 20
0.0
 30
0.0
  9
$UCSYDIR
 10
0.0
 20
1.0
 30
0.0
  9
$PUCSNAME
  2

  9
$PUCSORG
 10
0.0
 20
0.0
 30
0.0
  9
$PUCSXDIR
 10
1.0
 20
0.0
 30
0.0
  9
$PUCSYDIR
 10
0.0
 20
1.0
 30
0.0
  9
$USERI1
 70
     0
  9
$USERI2
 70
     1
  9
$USERI3
 70
     1
  9
$USERI4
 70
     0
  9
$USERI5
 70
     0
  9
$USERR1
 40
0.0
  9
$USERR2
 40
0.0
  9
$USERR3
 40
0.0
  9
$USERR4
 40
0.0
  9
$USERR5
 40
0.0
  9
$WORLDVIEW
 70
     1
  9
$SHADEDGE
 70
     3
  9
$SHADEDIF
 70
    70
  9
$TILEMODE
 70
     1
  9
$MAXACTVP
 70
    16
  9
$PLIMCHECK
 70
     0
  9
$PEXTMIN
 10
1.0000000000000000E+020
 20
1.0000000000000000E+020
 30
1.0000000000000000E+020
  9
$PEXTMAX
 10
-1.0000000000000000E+020
 20
-1.0000000000000000E+020
 30
-1.0000000000000000E+020
  9
$PLIMMIN
 10
0.0
 20
0.0
  9
$PLIMMAX
 10
12.0
 20
9.0
  9
$UNITMODE
 70
     0
  9
$VISRETAIN
 70
     0
  9
$PLINEGEN
 70
     0
  9
$PSLTSCALE
 70
     0
  0
ENDSEC
  0
SECTION
  2
TABLES
  0
TABLE
  2
VPORT
 70
     1
  0
VPORT
  2
*ACTIVE
 70
     0
 10
0.0
 20
0.0
 11
1.0
 21
1.0
 12
97.52905416604365
 22
66.75636307133405
 13
0.0
 23
0.0
 14
5.0
 24
5.0
 15
5.0
 25
5.0
 16
0.0
 26
0.0
 36
1.0
 17
0.0
 27
0.0
 37
0.0
 40
137.71137496815999
 41
1.831871345029239
 42
50.0
 43
0.0
 44
0.0
 50
0.0
 51
0.0
 71
     0
 72
   100
 73
     1
 74
     0
 75
     0
 76
     0
 77
     0
 78
     0
  0
ENDTAB
  0
TABLE
  2
LTYPE
 70
     4
  0
LTYPE
  2
CONTINUOUS
 70
     0
  3
Solid Line
 72
    65
 73
     0
 40
0.0
  0
LTYPE
  2
CENTER
 70
     0
  3
____ _ ____ _ ____ _ ____ _ ____ _ ____ _ ____
 72
    65
 73
     4
 40
2.0
 49
1.25
 49
-0.25
 49
0.25
 49
-0.25
  0
LTYPE
  2
HIDDEN
 70
     0
  3
_ _ _ _ _ _ _ _ _ _ _ _ _ _ _ _ _ _ _ _ _ _ _
 72
    65
 73
     2
 40
0.375
 49
0.25
 49
-0.125
  0
LTYPE
  2
PHANTOM2
 70
     0
  3
___ _ _ ___ _ _ ___ _ _ ___ _ _
 72
    65
 73
     6
 40
1.25
 49
0.625
 49
-0.125
 49
0.125
 49
-0.125
 49
0.125
 49
-0.125
  0
ENDTAB
  0
TABLE
  2
LAYER
 70
     4
  0
LAYER
  2
0
 70
     0
 62
     7
  6
CONTINUOUS
  0
LAYER
  2
1
 70
     0
 62
     1
  6
CENTER
  0
LAYER
  2
3
 70
     0
 62
     3
  6
CONTINUOUS
  0
LAYER
  2
2
 70
     0
 62
     2
  6
HIDDEN
  0
ENDTAB
  0
TABLE
  2
STYLE
 70
     2
  0
STYLE
  2
STANDARD
 70
     0
 40
0.0
 41
1.0
 50
0.0
 71
     0
 42
4.0
  3
TXT
  4
BIGFONT
  0
STYLE
  2
STANDARD1
 70
     0
 40
0.0
 41
1.0
 50
0.0
 71
     0
 42
3.0
  3
txt
  4

  0
ENDTAB
  0
TABLE
  2
VIEW
 70
     1
  0
VIEW
  2
ALL
 70
     0
 40
179.66152299999999
 10
141.903918
 20
89.830760999999995
 41
0.0
 11
0.0
 21
0.0
 31
1.0
 12
0.0
 22
0.0
 32
0.0
 42
0.0
 43
0.0
 44
0.0
 50
0.0
 71
     0
  0
ENDTAB
  0
TABLE
  2
UCS
 70
     0
  0
ENDTAB
  0
TABLE
  2
APPID
 70
     4
  0
APPID
  2
ACAD
 70
     0
  0
APPID
  2
DCO15
 70
     0
  0
APPID
  2
ACAD_MLEADERVER
 70
     0
  0
APPID
  2
ACAD_NAV_VCDISPLAY
 70
     0
  0
ENDTAB
  0
TABLE
  2
DIMSTYLE
 70
     1
  0
DIMSTYLE
  2
STANDARD
 70
     0
  3

  4

  5

  6

  7

 40
1.0
 41
0.18
 42
0.0625
 43
0.38
 44
0.18
 45
0.0
 46
0.0
 47
0.0
 48
0.0
140
0.18
141
0.09
142
0.0
143
25.399999999999999
144
1.0
145
0.0
146
1.0
147
0.09
 71
     0
 72
     0
 73
     1
 74
     1
 75
     0
 76
     0
 77
     0
 78
     0
170
     0
171
     2
172
     0
173
     0
174
     0
175
     0
176
     0
177
     0
178
     0
  0
ENDTAB
  0
ENDSEC
  0
SECTION
  2
BLOCKS
  0
BLOCK
  8
0
  2
$MODEL_SPACE
 70
     0
 10
0.0
 20
0.0
 30
0.0
  3
$MODEL_SPACE
  1

  0
ENDBLK
  5
1BD
  8
0
  0
BLOCK
 67
     1
  8
0
  2
$PAPER_SPACE
 70
     0
 10
0.0
 20
0.0
 30
0.0
  3
$PAPER_SPACE
  1

  0
ENDBLK
  5
1BB
 67
     1
  8
0
  0
ENDSEC
  0
SECTION
  2
ENTITIES
  0
LINE
  5
1321
  8
2
 10
27.27224893859098
 20
15.890438971402499
 30
0.0
 11
26.438915605936089
 21
14.640438971402469
 31
0.0
  0
LINE
  5
1322
  8
2
 10
26.438915605936089
 20
17.140438971402471
 30
0.0
 11
27.27224893859098
 21
15.890438971402499
 31
0.0
  0
LINE
  5
1323
  8
1
 10
21.438915605936089
 20
15.890438971402469
 30
0.0
 11
33.438915605936089
 21
15.890438971402469
 31
0.0
  0
LINE
  5
1324
  8
0
 10
30.438915605936071
 20
17.740438971402469
 30
0.0
 11
29.788915605936101
 21
18.39043897140246
 31
0.0
  0
LINE
  5
1325
  8
0
 10
29.788915605935731
 20
13.3904389714021
 30
0.0
 11
30.438915605936121
 21
14.04043897140247
 31
0.0
  0
ARC
  5
1326
  8
0
 10
29.938915605936089
 20
15.890438971402469
 30
0.0
 40
1.4999999999999989
 50
302.23095263550152
 51
57.769047364498611
  0
LINE
  5
1327
  8
0
 10
29.788915605936101
 20
13.39043897140246
 30
0.0
 11
29.788915605936101
 21
18.39043897140246
 31
0.0
  0
LINE
  5
1328
  8
0
 10
30.438915605936071
 20
14.04043897140242
 30
0.0
 11
30.438915605936071
 21
17.740438971402479
 31
0.0
  0
LINE
  5
1329
  8
0
 10
30.738915605936072
 20
14.040438971402461
 30
0.0
 11
30.738915605936089
 21
17.740438971402479
 31
0.0
  0
LINE
  5
132A
  8
3
 10
30.22191560593636
 20
13.823438971402719
 30
0.0
 11
23.68892293937704
 21
13.823438971402719
 31
0.0
  0
LINE
  5
132B
  8
0
 10
29.788915605936481
 20
13.39043897140284
 30
0.0
 11
23.93891560593606
 21
13.39043897140284
 31
0.0
  0
LINE
  5
132C
  8
3
 10
30.221915605936321
 20
17.957438971402251
 30
0.0
 11
23.68892293937704
 21
17.957438971402279
 31
0.0
  0
LINE
  5
132D
  8
0
 10
29.788915605936449
 20
18.390438971402101
 30
0.0
 11
23.938915605936089
 21
18.390438971402101
 31
0.0
  0
LINE
  5
132E
  8
0
 10
23.438915605936089
 20
14.25646437518726
 30
0.0
 11
23.438915605936089
 21
17.524413567617682
 31
0.0
  0
LINE
  5
132F
  8
0
 10
23.938915605936089
 20
13.39043897140284
 30
0.0
 11
23.938915605936089
 21
18.390438971402101
 31
0.0
  0
LINE
  5
1330
  8
0
 10
23.938915605936089
 20
13.39043897140284
 30
0.0
 11
23.438915605936089
 21
14.25646437518726
 31
0.0
  0
LINE
  5
1331
  8
0
 10
23.938915605936089
 20
18.390438971402101
 30
0.0
 11
23.438915605936089
 21
17.524413567617682
 31
0.0
  0
LINE
  5
1332
  8
2
 10
23.438915605936089
 20
14.640438971402469
 30
0.0
 11
26.438915605936089
 21
14.640438971402469
 31
0.0
  0
LINE
  5
1333
  8
2
 10
23.438915605936089
 20
15.890438971402469
 30
0.0
 11
26.438915605936089
 21
15.890438971402469
 31
0.0
  0
LINE
  5
1334
  8
2
 10
23.438915605936089
 20
17.140438971402471
 30
0.0
 11
26.438915605936089
 21
17.140438971402471
 31
0.0
  0
LINE
  5
1335
  8
2
 10
26.43891560593611
 20
14.640438971402469
 30
0.0
 11
26.438915605936089
 21
17.140438971402471
 31
0.0
  0
ARC
  5
1336
  8
2
 10
29.938915605936089
 20
15.890438971402469
 30
0.0
 40
1.4999999999999989
 50
57.769047364498611
 51
302.23095263550152
  0
LINE
  5
1337
  8
0
 10
30.438915605936071
 20
17.740438971402469
 30
0.0
 11
30.738915605936089
 21
17.740438971402479
 31
0.0
  0
LINE
  5
1338
  8
0
 10
30.438915605936071
 20
14.040438971402461
 30
0.0
 11
30.738915605936072
 21
14.040438971402461
 31
0.0
  0
LINE
  5
1339
  8
1
 10
29.938915605936089
 20
19.390438971402471
 30
0.0
 11
29.938915605936089
 21
12.390438971402469
 31
0.0
  0
CIRCLE
  5
133A
  8
0
 10
45.938915605936089
 20
29.41408666208207
 30
0.0
 40
1.8500000000000081
  0
CIRCLE
  5
133B
  8
0
 10
45.938915605936089
 20
29.41408666208207
 30
0.0
 40
1.2688577540449439
  0
CIRCLE
  5
133C
  8
0
 10
45.938915605936089
 20
29.41408666208207
 30
0.0
 40
2.5
  0
LINE
  5
133D
  8
1
 10
41.438915605936081
 20
29.41408666208207
 30
0.0
 11
50.438915605936089
 21
29.41408666208207
 31
0.0
  0
LINE
  5
133E
  8
1
 10
45.938915605936089
 20
24.91408666208207
 30
0.0
 11
45.938915605936089
 21
33.91408666208207
 31
0.0
  0
CIRCLE
  5
133F
  8
3
 10
45.938915605936089
 20
29.41408666208207
 30
0.0
 40
2.0669999999998079
  0
CIRCLE
  5
1340
  8
3
 10
8.9389156059360886
 20
29.41408666208207
 30
0.0
 40
2.0669999999998079
  0
LINE
  5
1341
  8
1
 10
29.938915605936089
 20
32.91408666208207
 30
0.0
 11
29.938915605936089
 21
25.91408666208207
 31
0.0
  0
LINE
  5
1342
  8
0
 10
30.438915605936071
 20
27.564086662082062
 30
0.0
 11
30.738915605936072
 21
27.564086662082062
 31
0.0
  0
LINE
  5
1343
  8
0
 10
30.438915605936071
 20
31.264086662082072
 30
0.0
 11
30.738915605936089
 21
31.264086662082079
 31
0.0
  0
ARC
  5
1344
  8
2
 10
29.938915605936089
 20
29.41408666208207
 30
0.0
 40
1.4999999999999989
 50
57.769047364498611
 51
302.23095263550152
  0
LINE
  5
1345
  8
2
 10
26.438915605936089
 20
30.857462333881049
 30
0.0
 11
27.27224893859098
 21
29.414086662082099
 31
0.0
  0
LINE
  5
1346
  8
2
 10
26.438915605936089
 20
27.970710990283099
 30
0.0
 11
27.27224893859098
 21
29.414086662082099
 31
0.0
  0
LINE
  5
1347
  8
2
 10
26.438915605936089
 20
27.970710990283099
 30
0.0
 11
26.438915605936089
 21
30.857462333881099
 31
0.0
  0
LINE
  5
1348
  8
2
 10
23.438915605936089
 20
30.857462333881099
 30
0.0
 11
26.438915605936089
 21
30.857462333881099
 31
0.0
  0
LINE
  5
1349
  8
2
 10
23.438915605936089
 20
30.135774497981028
 30
0.0
 11
26.438915605936089
 21
30.135774497981028
 31
0.0
  0
LINE
  5
134A
  8
2
 10
23.438915605936089
 20
28.692398826182028
 30
0.0
 11
26.438915605936089
 21
28.692398826182028
 31
0.0
  0
LINE
  5
134B
  8
2
 10
23.438915605936089
 20
27.970710990283099
 30
0.0
 11
26.438915605936089
 21
27.970710990283099
 31
0.0
  0
LINE
  5
134C
  8
0
 10
23.938915605936089
 20
31.914086662081701
 30
0.0
 11
23.438915605936089
 21
31.048061258297281
 31
0.0
  0
LINE
  5
134D
  8
0
 10
23.938915605936089
 20
26.91408666208244
 30
0.0
 11
23.438915605936089
 21
27.780112065866859
 31
0.0
  0
LINE
  5
134E
  8
0
 10
23.938915605936089
 20
26.91408666208244
 30
0.0
 11
23.938915605936089
 21
31.914086662081701
 31
0.0
  0
LINE
  5
134F
  8
0
 10
23.438915605936089
 20
27.780112065866859
 30
0.0
 11
23.438915605936089
 21
31.048061258297281
 31
0.0
  0
LINE
  5
1350
  8
0
 10
29.788915605936449
 20
31.914086662081701
 30
0.0
 11
23.938915605936089
 21
31.914086662081701
 31
0.0
  0
LINE
  5
1351
  8
3
 10
30.221915605936321
 20
31.48108666208185
 30
0.0
 11
23.68892293937704
 21
31.481086662081879
 31
0.0
  0
LINE
  5
1352
  8
0
 10
29.788915605936481
 20
26.91408666208244
 30
0.0
 11
23.93891560593606
 21
26.91408666208244
 31
0.0
  0
LINE
  5
1353
  8
3
 10
30.22191560593636
 20
27.347086662082319
 30
0.0
 11
23.68892293937704
 21
27.347086662082319
 31
0.0
  0
LINE
  5
1354
  8
1
 10
8.9389156059360886
 20
24.91408666208207
 30
0.0
 11
8.9389156059360886
 21
33.91408666208207
 31
0.0
  0
LINE
  5
1355
  8
1
 10
4.4389156059360877
 20
29.41408666208207
 30
0.0
 11
13.43891560593609
 21
29.41408666208207
 31
0.0
  0
LINE
  5
1356
  8
0
 10
7.6889156059360877
 20
30.135774498569109
 30
0.0
 11
8.9389156059360886
 21
30.857462335056141
 31
0.0
  0
LINE
  5
1357
  8
0
 10
8.9389156059360886
 20
30.857462335056141
 30
0.0
 11
10.18891560593609
 21
30.135774498569109
 31
0.0
  0
LINE
  5
1358
  8
0
 10
10.18891560593609
 20
30.135774498569109
 30
0.0
 11
10.18891560593609
 21
28.692398825595038
 31
0.0
  0
LINE
  5
1359
  8
0
 10
10.18891560593609
 20
28.692398825595038
 30
0.0
 11
8.9389156059360886
 21
27.970710989107999
 31
0.0
  0
LINE
  5
135A
  8
0
 10
8.9389156059360886
 20
27.970710989107999
 30
0.0
 11
7.6889156059360877
 21
28.692398825595038
 31
0.0
  0
LINE
  5
135B
  8
0
 10
7.6889156059360877
 20
28.692398825595038
 30
0.0
 11
7.6889156059360877
 21
30.135774498569109
 31
0.0
  0
CIRCLE
  5
135C
  8
0
 10
8.9389156059360886
 20
29.41408666208207
 30
0.0
 40
2.5
  0
LINE
  5
135D
  8
1
 10
21.438915605936089
 20
29.41408666208207
 30
0.0
 11
33.438915605936089
 21
29.41408666208207
 31
0.0
  0
LINE
  5
135E
  8
0
 10
30.738915605936072
 20
27.564086662082062
 30
0.0
 11
30.738915605936089
 21
31.264086662082079
 31
0.0
  0
LINE
  5
135F
  8
0
 10
30.438915605936071
 20
27.564086662082019
 30
0.0
 11
30.438915605936071
 21
31.264086662082079
 31
0.0
  0
LINE
  5
1360
  8
0
 10
29.788915605936101
 20
26.91408666208206
 30
0.0
 11
29.788915605936101
 21
31.91408666208206
 31
0.0
  0
ARC
  5
1361
  8
0
 10
29.938915605936089
 20
29.41408666208207
 30
0.0
 40
1.4999999999999989
 50
302.23095263550152
 51
57.769047364498611
  0
LINE
  5
1362
  8
0
 10
29.788915605935731
 20
26.91408666208169
 30
0.0
 11
30.438915605936121
 21
27.564086662082069
 31
0.0
  0
LINE
  5
1363
  8
0
 10
30.438915605936071
 20
31.264086662082072
 30
0.0
 11
29.788915605936101
 21
31.91408666208206
 31
0.0
  0
TEXT
  5
1417
  8
0
 62
     3
 10
0.0
 20
0.0
 30
0.0
 40
5.0
  1
BSRJ5X8-SUS
  7
STANDARD1
  0
ENDSEC
  0
EOF
