  0
SECTION
  2
HEADER
  9
$ACADVER
  1
AC1009
  9
$INSBASE
 10
0.0
 20
0.0
 30
0.0
  9
$EXTMIN
 10
0.0
 20
-1.4802182810368341
 30
0.0
  9
$EXTMAX
 10
51.306648409188973
 20
32.408486391093753
 30
0.0
  9
$LIMMIN
 10
0.0
 20
0.0
  9
$LIMMAX
 10
187.5
 20
135.0
  9
$ORTHOMODE
 70
     1
  9
$REGENMODE
 70
     1
  9
$FILLMODE
 70
     1
  9
$QTEXTMODE
 70
     0
  9
$MIRRTEXT
 70
     0
  9
$DRAGMODE
 70
     2
  9
$LTSCALE
 40
1.0
  9
$OSMODE
 70
  3071
  9
$ATTMODE
 70
     1
  9
$TEXTSIZE
 40
4.0
  9
$TRACEWID
 40
0.05
  9
$TEXTSTYLE
  7
STANDARD
  9
$CLAYER
  8
0
  9
$CELTYPE
  6
BYLAYER
  9
$CECOLOR
 62
   256
  9
$DIMSCALE
 40
0.5
  9
$DIMASZ
 40
3.0
  9
$DIMEXO
 40
2.0
  9
$DIMDLI
 40
0.38
  9
$DIMRND
 40
0.0
  9
$DIMDLE
 40
0.0
  9
$DIMEXE
 40
2.0
  9
$DIMTP
 40
0.0
  9
$DIMTM
 40
0.0
  9
$DIMTXT
 40
3.0
  9
$DIMCEN
 40
0.0
  9
$DIMTSZ
 40
0.0
  9
$DIMTOL
 70
     0
  9
$DIMLIM
 70
     0
  9
$DIMTIH
 70
     0
  9
$DIMTOH
 70
     0
  9
$DIMSE1
 70
     0
  9
$DIMSE2
 70
     0
  9
$DIMTAD
 70
     1
  9
$DIMZIN
 70
     0
  9
$DIMBLK
  1

  9
$DIMASO
 70
     0
  9
$DIMSHO
 70
     0
  9
$DIMPOST
  1

  9
$DIMAPOST
  1

  9
$DIMALT
 70
     0
  9
$DIMALTD
 70
     2
  9
$DIMALTF
 40
25.399999999999999
  9
$DIMLFAC
 40
1.0
  9
$DIMTOFL
 70
     0
  9
$DIMTVP
 40
1.6000000000000001
  9
$DIMTIX
 70
     1
  9
$DIMSOXD
 70
     0
  9
$DIMSAH
 70
     0
  9
$DIMBLK1
  1

  9
$DIMBLK2
  1

  9
$DIMSTYLE
  2
STANDARD
  9
$DIMCLRD
 70
     0
  9
$DIMCLRE
 70
     0
  9
$DIMCLRT
 70
     0
  9
$DIMTFAC
 40
1.0
  9
$DIMGAP
 40
0.09
  9
$LUNITS
 70
     2
  9
$LUPREC
 70
     4
  9
$SKETCHINC
 40
0.1
  9
$FILLETRAD
 40
1.0
  9
$AUNITS
 70
     0
  9
$AUPREC
 70
     0
  9
$MENU
  1
E:\r13\win\SUPPORT\ACAD
  9
$ELEVATION
 40
0.0
  9
$PELEVATION
 40
0.0
  9
$THICKNESS
 40
0.0
  9
$LIMCHECK
 70
     0
  9
$BLIPMODE
 70
     0
  9
$CHAMFERA
 40
0.0
  9
$CHAMFERB
 40
0.0
  9
$SKPOLY
 70
     0
  9
$TDCREATE
 40
2449840.6143865739
  9
$TDUPDATE
 40
2456598.4013832868
  9
$TDINDWG
 40
0.2401358796
  9
$TDUSRTIMER
 40
0.2401358796
  9
$USRTIMER
 70
     1
  9
$ANGBASE
 50
0.0
  9
$ANGDIR
 70
     0
  9
$PDMODE
 70
     0
  9
$PDSIZE
 40
0.0
  9
$PLINEWID
 40
0.0
  9
$COORDS
 70
     1
  9
$SPLFRAME
 70
     0
  9
$SPLINETYPE
 70
     6
  9
$SPLINESEGS
 70
     8
  9
$ATTDIA
 70
     0
  9
$ATTREQ
 70
     1
  9
$HANDLING
 70
     1
  9
$HANDSEED
  5
145F
  9
$SURFTAB1
 70
     6
  9
$SURFTAB2
 70
     6
  9
$SURFTYPE
 70
     6
  9
$SURFU
 70
     6
  9
$SURFV
 70
     6
  9
$UCSNAME
  2

  9
$UCSORG
 10
0.0
 20
0.0
 30
0.0
  9
$UCSXDIR
 10
1.0
 20
0.0
 30
0.0
  9
$UCSYDIR
 10
0.0
 20
1.0
 30
0.0
  9
$PUCSNAME
  2

  9
$PUCSORG
 10
0.0
 20
0.0
 30
0.0
  9
$PUCSXDIR
 10
1.0
 20
0.0
 30
0.0
  9
$PUCSYDIR
 10
0.0
 20
1.0
 30
0.0
  9
$USERI1
 70
     0
  9
$USERI2
 70
     1
  9
$USERI3
 70
     1
  9
$USERI4
 70
     0
  9
$USERI5
 70
     0
  9
$USERR1
 40
0.0
  9
$USERR2
 40
0.0
  9
$USERR3
 40
0.0
  9
$USERR4
 40
0.0
  9
$USERR5
 40
0.0
  9
$WORLDVIEW
 70
     1
  9
$SHADEDGE
 70
     3
  9
$SHADEDIF
 70
    70
  9
$TILEMODE
 70
     1
  9
$MAXACTVP
 70
    16
  9
$PLIMCHECK
 70
     0
  9
$PEXTMIN
 10
1.0000000000000000E+020
 20
1.0000000000000000E+020
 30
1.0000000000000000E+020
  9
$PEXTMAX
 10
-1.0000000000000000E+020
 20
-1.0000000000000000E+020
 30
-1.0000000000000000E+020
  9
$PLIMMIN
 10
0.0
 20
0.0
  9
$PLIMMAX
 10
12.0
 20
9.0
  9
$UNITMODE
 70
     0
  9
$VISRETAIN
 70
     0
  9
$PLINEGEN
 70
     0
  9
$PSLTSCALE
 70
     0
  0
ENDSEC
  0
SECTION
  2
TABLES
  0
TABLE
  2
VPORT
 70
     1
  0
VPORT
  2
*ACTIVE
 70
     0
 10
0.0
 20
0.0
 11
1.0
 21
1.0
 12
97.52905416604365
 22
66.75636307133405
 13
0.0
 23
0.0
 14
5.0
 24
5.0
 15
5.0
 25
5.0
 16
0.0
 26
0.0
 36
1.0
 17
0.0
 27
0.0
 37
0.0
 40
137.71137496815999
 41
1.831871345029239
 42
50.0
 43
0.0
 44
0.0
 50
0.0
 51
0.0
 71
     0
 72
   100
 73
     1
 74
     0
 75
     0
 76
     0
 77
     0
 78
     0
  0
ENDTAB
  0
TABLE
  2
LTYPE
 70
     4
  0
LTYPE
  2
CONTINUOUS
 70
     0
  3
Solid Line
 72
    65
 73
     0
 40
0.0
  0
LTYPE
  2
CENTER
 70
     0
  3
____ _ ____ _ ____ _ ____ _ ____ _ ____ _ ____
 72
    65
 73
     4
 40
2.0
 49
1.25
 49
-0.25
 49
0.25
 49
-0.25
  0
LTYPE
  2
HIDDEN
 70
     0
  3
_ _ _ _ _ _ _ _ _ _ _ _ _ _ _ _ _ _ _ _ _ _ _
 72
    65
 73
     2
 40
0.375
 49
0.25
 49
-0.125
  0
LTYPE
  2
PHANTOM2
 70
     0
  3
___ _ _ ___ _ _ ___ _ _ ___ _ _
 72
    65
 73
     6
 40
1.25
 49
0.625
 49
-0.125
 49
0.125
 49
-0.125
 49
0.125
 49
-0.125
  0
ENDTAB
  0
TABLE
  2
LAYER
 70
     4
  0
LAYER
  2
0
 70
     0
 62
     7
  6
CONTINUOUS
  0
LAYER
  2
1
 70
     0
 62
     1
  6
CENTER
  0
LAYER
  2
3
 70
     0
 62
     3
  6
CONTINUOUS
  0
LAYER
  2
2
 70
     0
 62
     2
  6
HIDDEN
  0
ENDTAB
  0
TABLE
  2
STYLE
 70
     2
  0
STYLE
  2
STANDARD
 70
     0
 40
0.0
 41
1.0
 50
0.0
 71
     0
 42
4.0
  3
TXT
  4
BIGFONT
  0
STYLE
  2
STANDARD1
 70
     0
 40
0.0
 41
1.0
 50
0.0
 71
     0
 42
3.0
  3
txt
  4

  0
ENDTAB
  0
TABLE
  2
VIEW
 70
     1
  0
VIEW
  2
ALL
 70
     0
 40
179.66152299999999
 10
141.903918
 20
89.830760999999995
 41
0.0
 11
0.0
 21
0.0
 31
1.0
 12
0.0
 22
0.0
 32
0.0
 42
0.0
 43
0.0
 44
0.0
 50
0.0
 71
     0
  0
ENDTAB
  0
TABLE
  2
UCS
 70
     0
  0
ENDTAB
  0
TABLE
  2
APPID
 70
     4
  0
APPID
  2
ACAD
 70
     0
  0
APPID
  2
DCO15
 70
     0
  0
APPID
  2
ACAD_MLEADERVER
 70
     0
  0
APPID
  2
ACAD_NAV_VCDISPLAY
 70
     0
  0
ENDTAB
  0
TABLE
  2
DIMSTYLE
 70
     1
  0
DIMSTYLE
  2
STANDARD
 70
     0
  3

  4

  5

  6

  7

 40
1.0
 41
0.18
 42
0.0625
 43
0.38
 44
0.18
 45
0.0
 46
0.0
 47
0.0
 48
0.0
140
0.18
141
0.09
142
0.0
143
25.399999999999999
144
1.0
145
0.0
146
1.0
147
0.09
 71
     0
 72
     0
 73
     1
 74
     1
 75
     0
 76
     0
 77
     0
 78
     0
170
     0
171
     2
172
     0
173
     0
174
     0
175
     0
176
     0
177
     0
178
     0
  0
ENDTAB
  0
ENDSEC
  0
SECTION
  2
BLOCKS
  0
BLOCK
  8
0
  2
$MODEL_SPACE
 70
     0
 10
0.0
 20
0.0
 30
0.0
  3
$MODEL_SPACE
  1

  0
ENDBLK
  5
1BD
  8
0
  0
BLOCK
 67
     1
  8
0
  2
$PAPER_SPACE
 70
     0
 10
0.0
 20
0.0
 30
0.0
  3
$PAPER_SPACE
  1

  0
ENDBLK
  5
1BB
 67
     1
  8
0
  0
ENDSEC
  0
SECTION
  2
ENTITIES
  0
LINE
  5
12D1
  8
2
 10
24.473315075312751
 20
17.16484552637375
 30
0.0
 11
23.80664840918897
 21
18.164845526373721
 31
0.0
  0
LINE
  5
12D2
  8
2
 10
23.80664840918886
 20
16.164845526373661
 30
0.0
 11
24.473315075312751
 21
17.16484552637375
 31
0.0
  0
LINE
  5
12D3
  8
0
 10
37.156648409188989
 20
18.664845526373721
 30
0.0
 11
36.656648409188989
 21
19.164845526373721
 31
0.0
  0
LINE
  5
12D4
  8
0
 10
36.656648409188989
 20
15.164845526373719
 30
0.0
 11
37.156648409189003
 21
15.664845526373719
 31
0.0
  0
ARC
  5
12D5
  8
0
 10
36.556648409188973
 20
17.164845526373711
 30
0.0
 40
1.25
 50
312.84364304359639
 51
47.156356956403542
  0
LINE
  5
12D6
  8
0
 10
36.656648409188989
 20
15.164845526373719
 30
0.0
 11
36.656648409188989
 21
19.164845526373721
 31
0.0
  0
LINE
  5
12D7
  8
0
 10
37.156648409188968
 20
15.664845526373711
 30
0.0
 11
37.156648409188968
 21
18.664845526373721
 31
0.0
  0
LINE
  5
12D8
  8
0
 10
37.406648409188982
 20
15.664845526373719
 30
0.0
 11
37.406648409188982
 21
18.664845526373721
 31
0.0
  0
LINE
  5
12D9
  8
1
 10
20.30664840918897
 20
17.164845526373721
 30
0.0
 11
39.306648409188973
 21
17.164845526373721
 31
0.0
  0
LINE
  5
12DA
  8
2
 10
21.80664840918902
 20
18.164845526373671
 30
0.0
 11
23.80664840918897
 21
18.164845526373721
 31
0.0
  0
LINE
  5
12DB
  8
2
 10
21.80664840918903
 20
17.164845526373721
 30
0.0
 11
23.80664840918897
 21
17.164845526373721
 31
0.0
  0
LINE
  5
12DC
  8
2
 10
21.80664840918897
 20
16.164845526373661
 30
0.0
 11
23.80664840918886
 21
16.164845526373661
 31
0.0
  0
LINE
  5
12DD
  8
2
 10
23.80664840918897
 20
18.164845526373721
 30
0.0
 11
23.80664840918887
 21
16.164845526373721
 31
0.0
  0
LINE
  5
12DE
  8
3
 10
21.887832657166861
 20
18.785845526381351
 30
0.0
 11
37.035648409181363
 21
18.785845526381351
 31
0.0
  0
LINE
  5
12DF
  8
3
 10
21.887832657166861
 20
15.54384552636615
 30
0.0
 11
37.035648409181441
 21
15.54384552636615
 31
0.0
  0
LINE
  5
12E0
  8
0
 10
22.106648409189042
 20
19.16484552638012
 30
0.0
 11
21.806648409189091
 21
18.645230284109441
 31
0.0
  0
LINE
  5
12E1
  8
0
 10
22.106648409188981
 20
15.164845526367269
 30
0.0
 11
21.806648409189091
 21
15.684460768637891
 31
0.0
  0
LINE
  5
12E2
  8
0
 10
22.106648409189042
 20
19.16484552638012
 30
0.0
 11
22.106648409189098
 21
15.16484552636739
 31
0.0
  0
LINE
  5
12E3
  8
0
 10
22.106648409189042
 20
19.16484552638012
 30
0.0
 11
36.656648409182587
 21
19.16484552638012
 31
0.0
  0
LINE
  5
12E4
  8
0
 10
22.106648409189098
 20
15.16484552636739
 30
0.0
 11
36.65664840918263
 21
15.16484552636736
 31
0.0
  0
LINE
  5
12E5
  8
0
 10
21.80664840918897
 20
18.645230284109331
 30
0.0
 11
21.80664840918897
 21
15.68446076863812
 31
0.0
  0
ARC
  5
12E6
  8
2
 10
36.556648409188973
 20
17.164845526373711
 30
0.0
 40
1.25
 50
47.156356956403542
 51
312.84364304359639
  0
LINE
  5
12E7
  8
0
 10
37.156648409188968
 20
18.664845526373721
 30
0.0
 11
37.406648409188982
 21
18.664845526373721
 31
0.0
  0
LINE
  5
12E8
  8
0
 10
37.156648409188968
 20
15.664845526373719
 30
0.0
 11
37.406648409188982
 21
15.664845526373719
 31
0.0
  0
LINE
  5
12E9
  8
1
 10
36.556648409188973
 20
19.914845526373721
 30
0.0
 11
36.556648409188973
 21
14.414845526373719
 31
0.0
  0
CIRCLE
  5
12EA
  8
0
 10
47.806648409188973
 20
28.908486391093749
 30
0.0
 40
1.499999999999996
  0
CIRCLE
  5
12EB
  8
0
 10
47.806648409188973
 20
28.908486391093749
 30
0.0
 40
0.9165151389911586
  0
CIRCLE
  5
12EC
  8
0
 10
47.806648409188973
 20
28.908486391093749
 30
0.0
 40
2.0
  0
LINE
  5
12ED
  8
1
 10
44.306648409188973
 20
28.908486391093749
 30
0.0
 11
51.306648409188973
 21
28.908486391093749
 31
0.0
  0
LINE
  5
12EE
  8
1
 10
47.806648409188973
 20
25.408486391093749
 30
0.0
 11
47.806648409188973
 21
32.408486391093753
 31
0.0
  0
CIRCLE
  5
12EF
  8
3
 10
47.806648409188973
 20
28.908486391093749
 30
0.0
 40
1.6210000000076219
  0
CIRCLE
  5
12F0
  8
3
 10
11.806648409188959
 20
28.908486391093749
 30
0.0
 40
1.6210000000076219
  0
LINE
  5
12F1
  8
1
 10
36.556648409188973
 20
31.658486391093739
 30
0.0
 11
36.556648409188973
 21
26.158486391093739
 31
0.0
  0
LINE
  5
12F2
  8
0
 10
37.156648409188968
 20
27.408486391093749
 30
0.0
 11
37.406648409188982
 21
27.408486391093749
 31
0.0
  0
LINE
  5
12F3
  8
0
 10
37.156648409188968
 20
30.408486391093749
 30
0.0
 11
37.406648409188982
 21
30.408486391093749
 31
0.0
  0
ARC
  5
12F4
  8
2
 10
36.556648409188973
 20
28.908486391093739
 30
0.0
 40
1.25
 50
47.156356956403542
 51
312.84364304359639
  0
LINE
  5
12F5
  8
0
 10
21.80664840918897
 20
30.388871148829349
 30
0.0
 11
21.80664840918897
 21
27.428101633358139
 31
0.0
  0
LINE
  5
12F6
  8
0
 10
22.106648409189098
 20
26.908486391087411
 30
0.0
 11
36.65664840918263
 21
26.908486391087379
 31
0.0
  0
LINE
  5
12F7
  8
0
 10
22.106648409189042
 20
30.908486391100141
 30
0.0
 11
36.656648409182587
 21
30.908486391100141
 31
0.0
  0
LINE
  5
12F8
  8
0
 10
22.106648409189042
 20
30.908486391100141
 30
0.0
 11
22.106648409189098
 21
26.908486391087411
 31
0.0
  0
LINE
  5
12F9
  8
0
 10
22.106648409188981
 20
26.90848639108729
 30
0.0
 11
21.806648409189091
 21
27.428101633357912
 31
0.0
  0
LINE
  5
12FA
  8
0
 10
22.106648409189042
 20
30.908486391100141
 30
0.0
 11
21.806648409189091
 21
30.38887114882947
 31
0.0
  0
LINE
  5
12FB
  8
3
 10
21.887832657166861
 20
27.28748639108618
 30
0.0
 11
37.035648409181441
 21
27.28748639108618
 31
0.0
  0
LINE
  5
12FC
  8
3
 10
21.887832657166861
 20
30.529486391101369
 30
0.0
 11
37.035648409181363
 21
30.529486391101369
 31
0.0
  0
LINE
  5
12FD
  8
2
 10
23.80664840918897
 20
30.063186928532659
 30
0.0
 11
23.80664840918886
 21
27.753785853654659
 31
0.0
  0
LINE
  5
12FE
  8
2
 10
21.80664840918897
 20
27.753785853654659
 30
0.0
 11
23.80664840918886
 21
27.753785853654659
 31
0.0
  0
LINE
  5
12FF
  8
2
 10
21.80664840918897
 20
28.331136122374449
 30
0.0
 11
23.80664840918892
 21
28.331136122374449
 31
0.0
  0
LINE
  5
1300
  8
2
 10
21.80664840918903
 20
29.48583665981328
 30
0.0
 11
23.80664840918897
 21
29.48583665981328
 31
0.0
  0
LINE
  5
1301
  8
2
 10
21.80664840918903
 20
30.063186928532598
 30
0.0
 11
23.80664840918897
 21
30.063186928532659
 31
0.0
  0
LINE
  5
1302
  8
2
 10
23.80664840918886
 20
27.753785853654719
 30
0.0
 11
24.473315075312751
 21
28.908486391093771
 31
0.0
  0
LINE
  5
1303
  8
2
 10
23.80664840918897
 20
30.063186928532659
 30
0.0
 11
24.473315075312751
 21
28.908486391093771
 31
0.0
  0
LINE
  5
1304
  8
1
 10
11.806648409188959
 20
25.408486391093749
 30
0.0
 11
11.806648409188959
 21
32.408486391093753
 31
0.0
  0
LINE
  5
1305
  8
1
 10
8.3066484091889663
 20
28.908486391093749
 30
0.0
 11
15.30664840918897
 21
28.908486391093749
 31
0.0
  0
LINE
  5
1306
  8
0
 10
11.806648409188959
 20
30.063186929473009
 30
0.0
 11
12.806648409188959
 21
29.485836660283368
 31
0.0
  0
LINE
  5
1307
  8
0
 10
10.806648409188959
 20
29.485836660283368
 30
0.0
 11
11.806648409188959
 21
30.063186929473009
 31
0.0
  0
LINE
  5
1308
  8
0
 10
10.806648409188959
 20
28.33113612190413
 30
0.0
 11
10.806648409188959
 21
29.485836660283368
 31
0.0
  0
LINE
  5
1309
  8
0
 10
11.806648409188959
 20
27.7537858527145
 30
0.0
 11
10.806648409188959
 21
28.33113612190413
 31
0.0
  0
LINE
  5
130A
  8
0
 10
12.806648409188959
 20
28.33113612190413
 30
0.0
 11
11.806648409188959
 21
27.7537858527145
 31
0.0
  0
LINE
  5
130B
  8
0
 10
12.806648409188959
 20
29.485836660283368
 30
0.0
 11
12.806648409188959
 21
28.33113612190413
 31
0.0
  0
CIRCLE
  5
130C
  8
0
 10
11.806648409188959
 20
28.908486391093749
 30
0.0
 40
2.0
  0
LINE
  5
130D
  8
1
 10
20.30664840918897
 20
28.908486391093749
 30
0.0
 11
39.306648409188973
 21
28.908486391093749
 31
0.0
  0
LINE
  5
130E
  8
0
 10
37.406648409188982
 20
27.408486391093749
 30
0.0
 11
37.406648409188982
 21
30.408486391093739
 31
0.0
  0
LINE
  5
130F
  8
0
 10
37.156648409188968
 20
27.408486391093732
 30
0.0
 11
37.156648409188968
 21
30.408486391093749
 31
0.0
  0
LINE
  5
1310
  8
0
 10
36.656648409188989
 20
26.908486391093749
 30
0.0
 11
36.656648409188989
 21
30.908486391093749
 31
0.0
  0
ARC
  5
1311
  8
0
 10
36.556648409188973
 20
28.908486391093739
 30
0.0
 40
1.25
 50
312.84364304359639
 51
47.156356956403542
  0
LINE
  5
1312
  8
0
 10
36.656648409188989
 20
26.908486391093749
 30
0.0
 11
37.156648409189003
 21
27.408486391093749
 31
0.0
  0
LINE
  5
1313
  8
0
 10
37.156648409188989
 20
30.408486391093749
 30
0.0
 11
36.656648409188989
 21
30.908486391093749
 31
0.0
  0
TEXT
  5
13CE
  8
0
 62
     3
 10
0.0
 20
0.0
 30
0.0
 40
5.0
  1
BSRJ4X16-SUS
  7
STANDARD1
  0
ENDSEC
  0
EOF
