  0
SECTION
  2
HEADER
  9
$ACADVER
  1
AC1009
  9
$INSBASE
 10
0.0
 20
0.0
 30
0.0
  9
$EXTMIN
 10
0.0
 20
-1.4802182810368341
 30
0.0
  9
$EXTMAX
 10
102.14854664167041
 20
55.943176118504311
 30
0.0
  9
$LIMMIN
 10
0.0
 20
0.0
  9
$LIMMAX
 10
187.5
 20
135.0
  9
$ORTHOMODE
 70
     1
  9
$REGENMODE
 70
     1
  9
$FILLMODE
 70
     1
  9
$QTEXTMODE
 70
     0
  9
$MIRRTEXT
 70
     0
  9
$DRAGMODE
 70
     2
  9
$LTSCALE
 40
2.0
  9
$OSMODE
 70
    37
  9
$ATTMODE
 70
     1
  9
$TEXTSIZE
 40
4.0
  9
$TRACEWID
 40
0.05
  9
$TEXTSTYLE
  7
STANDARD
  9
$CLAYER
  8
0
  9
$CELTYPE
  6
BYLAYER
  9
$CECOLOR
 62
   256
  9
$DIMSCALE
 40
0.5
  9
$DIMASZ
 40
3.0
  9
$DIMEXO
 40
2.0
  9
$DIMDLI
 40
0.38
  9
$DIMRND
 40
0.0
  9
$DIMDLE
 40
0.0
  9
$DIMEXE
 40
2.0
  9
$DIMTP
 40
0.0
  9
$DIMTM
 40
0.0
  9
$DIMTXT
 40
3.0
  9
$DIMCEN
 40
0.0
  9
$DIMTSZ
 40
0.0
  9
$DIMTOL
 70
     0
  9
$DIMLIM
 70
     0
  9
$DIMTIH
 70
     0
  9
$DIMTOH
 70
     0
  9
$DIMSE1
 70
     0
  9
$DIMSE2
 70
     0
  9
$DIMTAD
 70
     1
  9
$DIMZIN
 70
     0
  9
$DIMBLK
  1

  9
$DIMASO
 70
     0
  9
$DIMSHO
 70
     0
  9
$DIMPOST
  1

  9
$DIMAPOST
  1

  9
$DIMALT
 70
     0
  9
$DIMALTD
 70
     2
  9
$DIMALTF
 40
25.399999999999999
  9
$DIMLFAC
 40
1.0
  9
$DIMTOFL
 70
     0
  9
$DIMTVP
 40
1.6000000000000001
  9
$DIMTIX
 70
     1
  9
$DIMSOXD
 70
     0
  9
$DIMSAH
 70
     0
  9
$DIMBLK1
  1

  9
$DIMBLK2
  1

  9
$DIMSTYLE
  2
STANDARD
  9
$DIMCLRD
 70
     0
  9
$DIMCLRE
 70
     0
  9
$DIMCLRT
 70
     0
  9
$DIMTFAC
 40
1.0
  9
$DIMGAP
 40
0.09
  9
$LUNITS
 70
     2
  9
$LUPREC
 70
     4
  9
$SKETCHINC
 40
0.1
  9
$FILLETRAD
 40
1.0
  9
$AUNITS
 70
     0
  9
$AUPREC
 70
     0
  9
$MENU
  1
E:\r13\win\SUPPORT\ACAD
  9
$ELEVATION
 40
0.0
  9
$PELEVATION
 40
0.0
  9
$THICKNESS
 40
0.0
  9
$LIMCHECK
 70
     0
  9
$BLIPMODE
 70
     0
  9
$CHAMFERA
 40
0.0
  9
$CHAMFERB
 40
0.0
  9
$SKPOLY
 70
     0
  9
$TDCREATE
 40
2449840.6143865739
  9
$TDUPDATE
 40
2457172.4987911228
  9
$TDINDWG
 40
0.2861921412
  9
$TDUSRTIMER
 40
0.2861921412
  9
$USRTIMER
 70
     1
  9
$ANGBASE
 50
0.0
  9
$ANGDIR
 70
     0
  9
$PDMODE
 70
     0
  9
$PDSIZE
 40
0.0
  9
$PLINEWID
 40
0.0
  9
$COORDS
 70
     1
  9
$SPLFRAME
 70
     0
  9
$SPLINETYPE
 70
     6
  9
$SPLINESEGS
 70
     8
  9
$ATTDIA
 70
     0
  9
$ATTREQ
 70
     1
  9
$HANDLING
 70
     1
  9
$HANDSEED
  5
1F32
  9
$SURFTAB1
 70
     6
  9
$SURFTAB2
 70
     6
  9
$SURFTYPE
 70
     6
  9
$SURFU
 70
     6
  9
$SURFV
 70
     6
  9
$UCSNAME
  2

  9
$UCSORG
 10
0.0
 20
0.0
 30
0.0
  9
$UCSXDIR
 10
1.0
 20
0.0
 30
0.0
  9
$UCSYDIR
 10
0.0
 20
1.0
 30
0.0
  9
$PUCSNAME
  2

  9
$PUCSORG
 10
0.0
 20
0.0
 30
0.0
  9
$PUCSXDIR
 10
1.0
 20
0.0
 30
0.0
  9
$PUCSYDIR
 10
0.0
 20
1.0
 30
0.0
  9
$USERI1
 70
     0
  9
$USERI2
 70
     1
  9
$USERI3
 70
     1
  9
$USERI4
 70
     0
  9
$USERI5
 70
     0
  9
$USERR1
 40
0.0
  9
$USERR2
 40
0.0
  9
$USERR3
 40
0.0
  9
$USERR4
 40
0.0
  9
$USERR5
 40
0.0
  9
$WORLDVIEW
 70
     1
  9
$SHADEDGE
 70
     3
  9
$SHADEDIF
 70
    70
  9
$TILEMODE
 70
     1
  9
$MAXACTVP
 70
    16
  9
$PLIMCHECK
 70
     0
  9
$PEXTMIN
 10
1.0000000000000000E+020
 20
1.0000000000000000E+020
 30
1.0000000000000000E+020
  9
$PEXTMAX
 10
-1.0000000000000000E+020
 20
-1.0000000000000000E+020
 30
-1.0000000000000000E+020
  9
$PLIMMIN
 10
0.0
 20
0.0
  9
$PLIMMAX
 10
12.0
 20
9.0
  9
$UNITMODE
 70
     0
  9
$VISRETAIN
 70
     0
  9
$PLINEGEN
 70
     0
  9
$PSLTSCALE
 70
     0
  0
ENDSEC
  0
SECTION
  2
TABLES
  0
TABLE
  2
VPORT
 70
     1
  0
VPORT
  2
*ACTIVE
 70
     0
 10
0.0
 20
0.0
 11
1.0
 21
1.0
 12
68.898236640956725
 22
27.233607211342129
 13
0.0
 23
0.0
 14
5.0
 24
5.0
 15
5.0
 25
5.0
 16
0.0
 26
0.0
 36
1.0
 17
0.0
 27
0.0
 37
0.0
 40
57.939804830510468
 41
2.6019575856443709
 42
50.0
 43
0.0
 44
0.0
 50
0.0
 51
0.0
 71
     0
 72
   100
 73
     1
 74
     0
 75
     0
 76
     0
 77
     0
 78
     0
  0
ENDTAB
  0
TABLE
  2
LTYPE
 70
     4
  0
LTYPE
  2
CONTINUOUS
 70
     0
  3
Solid Line
 72
    65
 73
     0
 40
0.0
  0
LTYPE
  2
CENTER
 70
     0
  3
____ _ ____ _ ____ _ ____ _ ____ _ ____ _ ____
 72
    65
 73
     4
 40
2.0
 49
1.25
 49
-0.25
 49
0.25
 49
-0.25
  0
LTYPE
  2
HIDDEN
 70
     0
  3
_ _ _ _ _ _ _ _ _ _ _ _ _ _ _ _ _ _ _ _ _ _ _
 72
    65
 73
     2
 40
0.375
 49
0.25
 49
-0.125
  0
LTYPE
  2
PHANTOM2
 70
     0
  3
___ _ _ ___ _ _ ___ _ _ ___ _ _
 72
    65
 73
     6
 40
1.25
 49
0.625
 49
-0.125
 49
0.125
 49
-0.125
 49
0.125
 49
-0.125
  0
ENDTAB
  0
TABLE
  2
LAYER
 70
     4
  0
LAYER
  2
0
 70
     0
 62
     7
  6
CONTINUOUS
  0
LAYER
  2
1
 70
     0
 62
     1
  6
CENTER
  0
LAYER
  2
3
 70
     0
 62
     3
  6
CONTINUOUS
  0
LAYER
  2
2
 70
     0
 62
     2
  6
HIDDEN
  0
ENDTAB
  0
TABLE
  2
STYLE
 70
     2
  0
STYLE
  2
STANDARD
 70
     0
 40
0.0
 41
1.0
 50
0.0
 71
     0
 42
4.0
  3
TXT
  4
BIGFONT
  0
STYLE
  2
STANDARD1
 70
     0
 40
0.0
 41
1.0
 50
0.0
 71
     0
 42
3.0
  3
txt
  4

  0
ENDTAB
  0
TABLE
  2
VIEW
 70
     1
  0
VIEW
  2
ALL
 70
     0
 40
179.66152299999999
 10
141.903918
 20
89.830760999999995
 41
0.0
 11
0.0
 21
0.0
 31
1.0
 12
0.0
 22
0.0
 32
0.0
 42
0.0
 43
0.0
 44
0.0
 50
0.0
 71
     0
  0
ENDTAB
  0
TABLE
  2
UCS
 70
     0
  0
ENDTAB
  0
TABLE
  2
APPID
 70
     5
  0
APPID
  2
ACAD
 70
     0
  0
APPID
  2
DCO15
 70
     0
  0
APPID
  2
ACAD_MLEADERVER
 70
     0
  0
APPID
  2
ACAD_NAV_VCDISPLAY
 70
     0
  0
APPID
  2
ACAD_EXEMPT_FROM_CAD_STANDARDS
 70
     0
  0
ENDTAB
  0
TABLE
  2
DIMSTYLE
 70
     1
  0
DIMSTYLE
  2
STANDARD
 70
     0
  3

  4

  5

  6

  7

 40
1.0
 41
0.18
 42
0.0625
 43
0.38
 44
0.18
 45
0.0
 46
0.0
 47
0.0
 48
0.0
140
0.18
141
0.09
142
0.0
143
25.399999999999999
144
1.0
145
0.0
146
1.0
147
0.09
 71
     0
 72
     0
 73
     1
 74
     1
 75
     0
 76
     0
 77
     0
 78
     0
170
     0
171
     2
172
     0
173
     0
174
     0
175
     0
176
     0
177
     0
178
     0
  0
ENDTAB
  0
ENDSEC
  0
SECTION
  2
BLOCKS
  0
BLOCK
  8
0
  2
$MODEL_SPACE
 70
     0
 10
0.0
 20
0.0
 30
0.0
  3
$MODEL_SPACE
  1

  0
ENDBLK
  5
1BD
  8
0
  0
BLOCK
 67
     1
  8
0
  2
$PAPER_SPACE
 70
     0
 10
0.0
 20
0.0
 30
0.0
  3
$PAPER_SPACE
  1

  0
ENDBLK
  5
1BB
 67
     1
  8
0
  0
ENDSEC
  0
SECTION
  2
ENTITIES
  0
TEXT
  5
14AC
  8
0
 62
     3
 10
0.0
 20
0.0
 30
0.0
 40
5.0
  1
BSRC12X30-SUS
  7
STANDARD1
  0
LINE
  5
1B46
  8
3
 10
41.601546641620473
 20
52.496176118554381
 30
0.0
 11
69.122046641532165
 21
52.496176118554338
 31
0.0
  0
LINE
  5
1B47
  8
3
 10
41.601546641620402
 20
42.390176118554301
 30
0.0
 11
69.122046641532165
 21
42.39017611855428
 31
0.0
  0
LINE
  5
1BE5
  8
0
 10
42.54854664167042
 20
41.443176118504311
 30
0.0
 11
68.175046641670406
 21
41.443176118504311
 31
0.0
  0
LINE
  5
1BE6
  8
0
 10
68.175046641670406
 20
53.443176118504311
 30
0.0
 11
42.54854664167042
 21
53.443176118504311
 31
0.0
  0
LINE
  5
1BE7
  8
0
 10
68.175046641670406
 20
41.44317611860432
 30
0.0
 11
69.248546641570414
 21
42.516676118604323
 31
0.0
  0
LINE
  5
1BE8
  8
0
 10
69.248546641570414
 20
52.369676118504309
 30
0.0
 11
68.175046641670406
 21
53.443176118504311
 31
0.0
  0
LINE
  5
1BE9
  8
0
 10
42.54854664167042
 20
53.44317611860432
 30
0.0
 11
41.048546641670413
 21
51.943176118604327
 31
0.0
  0
LINE
  5
1BEA
  8
0
 10
41.048546641670413
 20
42.943176118504311
 30
0.0
 11
42.54854664167042
 21
41.443176118504311
 31
0.0
  0
LINE
  5
1BEB
  8
0
 10
69.248546641670401
 20
42.643176118504321
 30
0.0
 11
70.248546641670401
 21
42.643176118504321
 31
0.0
  0
LINE
  5
1BEC
  8
0
 10
70.248546641670401
 20
52.243176118504323
 30
0.0
 11
69.248546641670401
 21
52.243176118504323
 31
0.0
  0
ARC
  5
1BED
  8
0
 10
68.798546641670413
 20
47.443176118504311
 30
0.0
 40
4.2500000000000329
 50
289.9485672259998
 51
70.051432774000105
  0
LINE
  5
1BEE
  8
0
 10
68.175046641670406
 20
41.443176118504311
 30
0.0
 11
68.175046641670406
 21
53.443176118504311
 31
0.0
  0
LINE
  5
1BEF
  8
0
 10
42.54854664167042
 20
53.443176118504311
 30
0.0
 11
42.54854664167042
 21
41.443176118504311
 31
0.0
  0
LINE
  5
1BF1
  8
0
 10
69.248546641570414
 20
42.516676118604323
 30
0.0
 11
69.248546641570414
 21
52.369676118504302
 31
0.0
  0
LINE
  5
1BF2
  8
0
 10
41.048546641670413
 20
51.943176118604327
 30
0.0
 11
41.048546641670413
 21
42.943176118504311
 31
0.0
  0
LINE
  5
1BF4
  8
0
 10
70.248546641670401
 20
42.643176118504321
 30
0.0
 11
70.248546641670401
 21
52.243176118504323
 31
0.0
  0
LINE
  5
1BFA
  8
2
 10
49.04854664167042
 20
45.711125311004338
 30
0.0
 11
41.048546641670413
 21
45.711125311004338
 31
0.0
  0
LINE
  5
1BFE
  8
2
 10
49.04854664167042
 20
49.175226926104322
 30
0.0
 11
41.048546641670413
 21
49.175226926104322
 31
0.0
  0
LINE
  5
1C01
  8
2
 10
49.048546640870292
 20
50.907277733704312
 30
0.0
 11
49.04854664167042
 21
43.97907450340432
 31
0.0
  0
LINE
  5
1C06
  8
2
 10
49.04854664167042
 20
43.97907450340432
 30
0.0
 11
41.048546641670413
 21
43.97907450340432
 31
0.0
  0
LINE
  5
1C07
  8
2
 10
49.04854664167042
 20
50.907277733704312
 30
0.0
 11
41.048546641670413
 21
50.907277733704312
 31
0.0
  0
LINE
  5
1C12
  8
2
 10
49.048546641570397
 20
44.443176118604327
 30
0.0
 11
51.565845535111052
 21
47.443176118554327
 31
0.0
  0
LINE
  5
1C13
  8
2
 10
51.565845535161714
 20
47.44317611849393
 30
0.0
 11
49.048546641570397
 21
50.443176118504311
 31
0.0
  0
LINE
  5
1C1A
  8
0
 10
42.548546641670413
 20
19.497833563621239
 30
0.0
 11
68.175046641670406
 21
19.497833563621239
 31
0.0
  0
LINE
  5
1C1B
  8
0
 10
68.175046641670406
 20
31.497833563621239
 30
0.0
 11
42.548546641670413
 21
31.497833563621239
 31
0.0
  0
LINE
  5
1C1C
  8
0
 10
68.175046641670406
 20
19.497833563721208
 30
0.0
 11
69.248546641570414
 21
20.571333563721229
 31
0.0
  0
LINE
  5
1C1D
  8
0
 10
69.248546641570414
 20
30.42433356362125
 30
0.0
 11
68.175046641670406
 21
31.49783356352123
 31
0.0
  0
LINE
  5
1C1E
  8
0
 10
42.548546641670413
 20
31.497833563621239
 30
0.0
 11
41.048546641670413
 21
29.997833563621239
 31
0.0
  0
LINE
  5
1C1F
  8
0
 10
41.048546641670413
 20
20.997833563621239
 30
0.0
 11
42.548546641670413
 21
19.497833563621239
 31
0.0
  0
LINE
  5
1C20
  8
0
 10
69.248546641670401
 20
20.697833563621241
 30
0.0
 11
70.248546641670401
 21
20.697833563621241
 31
0.0
  0
LINE
  5
1C21
  8
0
 10
70.248546641670401
 20
30.297833563621229
 30
0.0
 11
69.248546641670401
 21
30.297833563621229
 31
0.0
  0
ARC
  5
1C22
  8
0
 10
68.798546641670413
 20
25.497833563621239
 30
0.0
 40
4.2500000000000062
 50
289.9485672259998
 51
70.051432774000105
  0
LINE
  5
1C23
  8
0
 10
68.175046641670406
 20
19.497833563621239
 30
0.0
 11
68.175046641670406
 21
31.497833563621239
 31
0.0
  0
LINE
  5
1C24
  8
0
 10
42.548546641670413
 20
31.497833563621239
 30
0.0
 11
42.548546641670413
 21
19.497833563621239
 31
0.0
  0
LINE
  5
1C25
  8
0
 10
69.248546641570414
 20
20.571333563721229
 30
0.0
 11
69.248546641570414
 21
30.42433356362125
 31
0.0
  0
LINE
  5
1C26
  8
0
 10
41.048546641670413
 20
29.997833563621239
 30
0.0
 11
41.048546641670413
 21
20.997833563621239
 31
0.0
  0
LINE
  5
1C27
  8
0
 10
70.248546641670401
 20
20.697833563621241
 30
0.0
 11
70.248546641670401
 21
30.297833563621229
 31
0.0
  0
LINE
  5
1C30
  8
2
 10
49.048546641670413
 20
25.497833563621239
 30
0.0
 11
41.048546641670413
 21
25.497833563621239
 31
0.0
  0
LINE
  5
1C32
  8
2
 10
49.048546641270349
 20
28.497833563621239
 30
0.0
 11
49.048546641670413
 21
22.497833563621239
 31
0.0
  0
LINE
  5
1C34
  8
2
 10
49.048546641670413
 20
22.497833563621239
 30
0.0
 11
41.048546641670413
 21
22.497833563621239
 31
0.0
  0
LINE
  5
1C35
  8
2
 10
49.048546641670413
 20
28.497833563621239
 30
0.0
 11
41.048546641670413
 21
28.497833563621239
 31
0.0
  0
LINE
  5
1C42
  8
2
 10
49.04854664157039
 20
22.497833563621239
 30
0.0
 11
51.565845535094567
 21
25.49783356371162
 31
0.0
  0
LINE
  5
1C43
  8
2
 10
51.56584553509456
 20
25.49783356353085
 30
0.0
 11
49.04854664157039
 21
28.497833563621239
 31
0.0
  0
CIRCLE
  5
1C4B
  8
0
 10
93.648546641670436
 20
47.443176118504311
 30
0.0
 40
4.8000000000000123
  0
CIRCLE
  5
1C4D
  8
0
 10
93.648546641670436
 20
47.443176118504311
 30
0.0
 40
6.0
  0
CIRCLE
  5
1C66
  8
0
 10
20.448546641670429
 20
47.443176118504311
 30
0.0
 40
6.0
  0
CIRCLE
  5
1C67
  8
0
 10
20.448546641670429
 20
47.443176118504311
 30
0.0
 40
4.500000000007276
  0
LINE
  5
1C68
  8
0
 10
20.448546641670429
 20
50.907277733704312
 30
0.0
 11
17.448546641670429
 21
49.175226926104322
 31
0.0
  0
LINE
  5
1C69
  8
0
 10
17.448546641670429
 20
49.175226926104322
 30
0.0
 11
17.448546641670429
 21
45.711125311004338
 31
0.0
  0
LINE
  5
1C6A
  8
0
 10
17.448546641670429
 20
45.711125311004338
 30
0.0
 11
20.448546641670429
 21
43.97907450340432
 31
0.0
  0
LINE
  5
1C6B
  8
0
 10
20.448546641670429
 20
43.97907450340432
 30
0.0
 11
23.448546641670429
 21
45.711125311004338
 31
0.0
  0
LINE
  5
1C6C
  8
0
 10
23.448546641670429
 20
45.711125311004338
 30
0.0
 11
23.448546641670429
 21
49.175226926104322
 31
0.0
  0
LINE
  5
1C6D
  8
0
 10
23.448546641670429
 20
49.175226926104322
 30
0.0
 11
20.448546641670429
 21
50.907277733704312
 31
0.0
  0
ARC
  5
1C82
  8
2
 10
68.798546641670413
 20
47.443176118504311
 30
0.0
 40
4.2500000000000346
 50
70.051432773952342
 51
289.9485672260476
  0
CIRCLE
  5
1C84
  8
0
 10
93.648546641670436
 20
47.443176118504311
 30
0.0
 40
3.9949968710888721
  0
LINE
  5
1C8B
  8
1
 10
11.948546641670429
 20
47.443176118504311
 30
0.0
 11
28.948546641670429
 21
47.443176118504311
 31
0.0
  0
LINE
  5
1C8C
  8
1
 10
20.448546641670429
 20
55.943176118504311
 30
0.0
 11
20.448546641670429
 21
38.943176118504311
 31
0.0
  0
LINE
  5
1C8D
  8
1
 10
38.54854664167042
 20
47.443176118554312
 30
0.0
 11
75.548546641670455
 21
47.443176118504311
 31
0.0
  0
LINE
  5
1C8E
  8
1
 10
68.798546641670413
 20
54.19317611850434
 30
0.0
 11
68.798546641670413
 21
40.693176118504283
 31
0.0
  0
LINE
  5
1C8F
  8
1
 10
85.148546641670436
 20
47.443176118504311
 30
0.0
 11
102.14854664167041
 21
47.443176118504311
 31
0.0
  0
LINE
  5
1C90
  8
1
 10
93.648546641670436
 20
55.943176118504311
 30
0.0
 11
93.648546641670436
 21
38.943176118504311
 31
0.0
  0
LINE
  5
1C91
  8
3
 10
41.601546641620459
 20
30.5508335636213
 30
0.0
 11
69.122046641532151
 21
30.550833563621271
 31
0.0
  0
LINE
  5
1C92
  8
3
 10
41.601546641620388
 20
20.444833563621231
 30
0.0
 11
69.122046641532165
 21
20.444833563621199
 31
0.0
  0
ARC
  5
1C93
  8
2
 10
68.798546641670413
 20
25.497833563571231
 30
0.0
 40
4.2500000000000346
 50
70.051432773952342
 51
289.9485672260476
  0
LINE
  5
1C94
  8
1
 10
38.548546641670413
 20
25.497833563621239
 30
0.0
 11
75.548546641670441
 21
25.497833563571231
 31
0.0
  0
LINE
  5
1C95
  8
1
 10
68.798546641670413
 20
32.247833563571263
 30
0.0
 11
68.798546641670413
 21
18.747833563571199
 31
0.0
  0
CIRCLE
  5
1CDD
  8
3
 10
20.448546641670429
 20
47.443176118504311
 30
0.0
 40
5.0530000000250359
  0
CIRCLE
  5
1CDE
  8
3
 10
93.648546641670436
 20
47.443176118504311
 30
0.0
 40
5.0530000000250359
  0
ENDSEC
  0
EOF
