  0
SECTION
  2
HEADER
  9
$ACADVER
  1
AC1009
  9
$INSBASE
 10
0.0
 20
0.0
 30
0.0
  9
$EXTMIN
 10
0.0
 20
-1.4802182810368341
 30
0.0
  9
$EXTMAX
 10
168.23484248121511
 20
118.6303956834532
 30
0.0
  9
$LIMMIN
 10
0.0
 20
0.0
  9
$LIMMAX
 10
187.5
 20
135.0
  9
$ORTHOMODE
 70
     1
  9
$REGENMODE
 70
     1
  9
$FILLMODE
 70
     1
  9
$QTEXTMODE
 70
     0
  9
$MIRRTEXT
 70
     0
  9
$DRAGMODE
 70
     2
  9
$LTSCALE
 40
5.0
  9
$OSMODE
 70
  3071
  9
$ATTMODE
 70
     1
  9
$TEXTSIZE
 40
2.5000000000000488
  9
$TRACEWID
 40
0.05
  9
$TEXTSTYLE
  7
STANDARD
  9
$CLAYER
  8
0
  9
$CELTYPE
  6
BYLAYER
  9
$CECOLOR
 62
   256
  9
$DIMSCALE
 40
0.5
  9
$DIMASZ
 40
3.0
  9
$DIMEXO
 40
2.0
  9
$DIMDLI
 40
0.38
  9
$DIMRND
 40
0.0
  9
$DIMDLE
 40
0.0
  9
$DIMEXE
 40
2.0
  9
$DIMTP
 40
0.0
  9
$DIMTM
 40
0.0
  9
$DIMTXT
 40
3.2000000000000002
  9
$DIMCEN
 40
0.0
  9
$DIMTSZ
 40
0.0
  9
$DIMTOL
 70
     0
  9
$DIMLIM
 70
     0
  9
$DIMTIH
 70
     0
  9
$DIMTOH
 70
     0
  9
$DIMSE1
 70
     0
  9
$DIMSE2
 70
     0
  9
$DIMTAD
 70
     1
  9
$DIMZIN
 70
     0
  9
$DIMBLK
  1

  9
$DIMASO
 70
     0
  9
$DIMSHO
 70
     0
  9
$DIMPOST
  1

  9
$DIMAPOST
  1

  9
$DIMALT
 70
     0
  9
$DIMALTD
 70
     2
  9
$DIMALTF
 40
25.399999999999999
  9
$DIMLFAC
 40
1.0
  9
$DIMTOFL
 70
     1
  9
$DIMTVP
 40
1.6000000000000001
  9
$DIMTIX
 70
     1
  9
$DIMSOXD
 70
     0
  9
$DIMSAH
 70
     0
  9
$DIMBLK1
  1

  9
$DIMBLK2
  1

  9
$DIMSTYLE
  2
STANDARD
  9
$DIMCLRD
 70
     0
  9
$DIMCLRE
 70
     0
  9
$DIMCLRT
 70
     0
  9
$DIMTFAC
 40
1.0
  9
$DIMGAP
 40
0.09
  9
$LUNITS
 70
     2
  9
$LUPREC
 70
     4
  9
$SKETCHINC
 40
0.1
  9
$FILLETRAD
 40
0.0
  9
$AUNITS
 70
     0
  9
$AUPREC
 70
     4
  9
$MENU
  1
E:\r13\win\SUPPORT\ACAD
  9
$ELEVATION
 40
0.0
  9
$PELEVATION
 40
0.0
  9
$THICKNESS
 40
0.0
  9
$LIMCHECK
 70
     0
  9
$BLIPMODE
 70
     0
  9
$CHAMFERA
 40
0.0
  9
$CHAMFERB
 40
0.0
  9
$SKPOLY
 70
     0
  9
$TDCREATE
 40
2449840.62150463
  9
$TDUPDATE
 40
2456598.400738345
  9
$TDINDWG
 40
0.000263831
  9
$TDUSRTIMER
 40
0.000263831
  9
$USRTIMER
 70
     1
  9
$ANGBASE
 50
0.0
  9
$ANGDIR
 70
     0
  9
$PDMODE
 70
     0
  9
$PDSIZE
 40
0.0
  9
$PLINEWID
 40
0.0
  9
$COORDS
 70
     1
  9
$SPLFRAME
 70
     0
  9
$SPLINETYPE
 70
     6
  9
$SPLINESEGS
 70
     8
  9
$ATTDIA
 70
     0
  9
$ATTREQ
 70
     1
  9
$HANDLING
 70
     1
  9
$HANDSEED
  5
210
  9
$SURFTAB1
 70
     6
  9
$SURFTAB2
 70
     6
  9
$SURFTYPE
 70
     6
  9
$SURFU
 70
     6
  9
$SURFV
 70
     6
  9
$UCSNAME
  2

  9
$UCSORG
 10
0.0
 20
0.0
 30
0.0
  9
$UCSXDIR
 10
1.0
 20
0.0
 30
0.0
  9
$UCSYDIR
 10
0.0
 20
1.0
 30
0.0
  9
$PUCSNAME
  2

  9
$PUCSORG
 10
0.0
 20
0.0
 30
0.0
  9
$PUCSXDIR
 10
1.0
 20
0.0
 30
0.0
  9
$PUCSYDIR
 10
0.0
 20
1.0
 30
0.0
  9
$USERI1
 70
     0
  9
$USERI2
 70
     1
  9
$USERI3
 70
     0
  9
$USERI4
 70
     0
  9
$USERI5
 70
     0
  9
$USERR1
 40
0.0
  9
$USERR2
 40
0.0
  9
$USERR3
 40
0.0
  9
$USERR4
 40
0.0
  9
$USERR5
 40
0.0
  9
$WORLDVIEW
 70
     1
  9
$SHADEDGE
 70
     3
  9
$SHADEDIF
 70
    70
  9
$TILEMODE
 70
     1
  9
$MAXACTVP
 70
    16
  9
$PLIMCHECK
 70
     0
  9
$PEXTMIN
 10
1.0000000000000000E+020
 20
1.0000000000000000E+020
 30
1.0000000000000000E+020
  9
$PEXTMAX
 10
-1.0000000000000000E+020
 20
-1.0000000000000000E+020
 30
-1.0000000000000000E+020
  9
$PLIMMIN
 10
0.0
 20
0.0
  9
$PLIMMAX
 10
12.0
 20
9.0
  9
$UNITMODE
 70
     0
  9
$VISRETAIN
 70
     0
  9
$PLINEGEN
 70
     0
  9
$PSLTSCALE
 70
     0
  0
ENDSEC
  0
SECTION
  2
TABLES
  0
TABLE
  2
VPORT
 70
     1
  0
VPORT
  2
*ACTIVE
 70
     0
 10
0.0
 20
0.0
 11
1.0
 21
1.0
 12
97.52905416604365
 22
66.75636307133405
 13
0.0
 23
0.0
 14
5.0
 24
5.0
 15
5.0
 25
5.0
 16
0.0
 26
0.0
 36
1.0
 17
0.0
 27
0.0
 37
0.0
 40
137.71137496815999
 41
1.831871345029239
 42
50.0
 43
0.0
 44
0.0
 50
0.0
 51
0.0
 71
     0
 72
   500
 73
     1
 74
     0
 75
     0
 76
     0
 77
     0
 78
     2
  0
ENDTAB
  0
TABLE
  2
LTYPE
 70
     4
  0
LTYPE
  2
CONTINUOUS
 70
     0
  3
Solid Line
 72
    65
 73
     0
 40
0.0
  0
LTYPE
  2
CENTER
 70
     0
  3
____ _ ____ _ ____ _ ____ _ ____ _ ____ _ ____
 72
    65
 73
     4
 40
2.0
 49
1.25
 49
-0.25
 49
0.25
 49
-0.25
  0
LTYPE
  2
HIDDEN
 70
     0
  3
_ _ _ _ _ _ _ _ _ _ _ _ _ _ _ _ _ _ _ _ _ _ _
 72
    65
 73
     2
 40
0.375
 49
0.25
 49
-0.125
  0
LTYPE
  2
PHANTOM2
 70
     0
  3
___ _ _ ___ _ _ ___ _ _ ___ _ _
 72
    65
 73
     6
 40
1.25
 49
0.625
 49
-0.125
 49
0.125
 49
-0.125
 49
0.125
 49
-0.125
  0
ENDTAB
  0
TABLE
  2
LAYER
 70
     4
  0
LAYER
  2
0
 70
     0
 62
     7
  6
CONTINUOUS
  0
LAYER
  2
1
 70
     0
 62
     1
  6
CENTER
  0
LAYER
  2
2
 70
     0
 62
     2
  6
HIDDEN
  0
LAYER
  2
3
 70
     0
 62
     3
  6
CONTINUOUS
  0
ENDTAB
  0
TABLE
  2
STYLE
 70
     2
  0
STYLE
  2
STANDARD
 70
     0
 40
0.0
 41
1.0
 50
0.0
 71
     0
 42
2.5000000000000488
  3
TXT
  4
BIGFONT
  0
STYLE
  2
STANDARD1
 70
     0
 40
0.0
 41
1.0
 50
0.0
 71
     0
 42
3.0
  3
txt
  4

  0
ENDTAB
  0
TABLE
  2
VIEW
 70
     1
  0
VIEW
  2
ALL
 70
     0
 40
135.0
 10
110.4957983193277
 20
67.5
 41
0.0
 11
0.0
 21
0.0
 31
1.0
 12
0.0
 22
0.0
 32
0.0
 42
0.0
 43
0.0
 44
0.0
 50
0.0
 71
     0
  0
ENDTAB
  0
TABLE
  2
UCS
 70
     0
  0
ENDTAB
  0
TABLE
  2
APPID
 70
     3
  0
APPID
  2
ACAD
 70
     0
  0
APPID
  2
ACAD_MLEADERVER
 70
     0
  0
APPID
  2
ACAD_NAV_VCDISPLAY
 70
     0
  0
ENDTAB
  0
TABLE
  2
DIMSTYLE
 70
     1
  0
DIMSTYLE
  2
STANDARD
 70
     0
  3

  4

  5

  6

  7

 40
1.0
 41
0.18
 42
0.0625
 43
0.38
 44
0.18
 45
0.0
 46
0.0
 47
0.0
 48
0.0
140
0.18
141
0.09
142
0.0
143
25.399999999999999
144
1.0
145
0.0
146
1.0
147
0.09
 71
     0
 72
     0
 73
     1
 74
     1
 75
     0
 76
     0
 77
     0
 78
     0
170
     0
171
     2
172
     0
173
     0
174
     0
175
     0
176
     0
177
     0
178
     0
  0
ENDTAB
  0
ENDSEC
  0
SECTION
  2
BLOCKS
  0
BLOCK
  8
0
  2
$MODEL_SPACE
 70
     0
 10
0.0
 20
0.0
 30
0.0
  3
$MODEL_SPACE
  1

  0
ENDBLK
  5
C4
  8
0
  0
BLOCK
 67
     1
  8
0
  2
$PAPER_SPACE
 70
     0
 10
0.0
 20
0.0
 30
0.0
  3
$PAPER_SPACE
  1

  0
ENDBLK
  5
C2
 67
     1
  8
0
  0
ENDSEC
  0
SECTION
  2
ENTITIES
  0
LINE
  5
36
  8
0
 10
29.999999999998291
 20
70.963226610187519
 30
0.0
 11
33.999999999998302
 21
68.653825533429824
 31
0.0
  0
LINE
  5
37
  8
0
 10
26.000000003254289
 20
68.653825535311114
 30
0.0
 11
30.000000003254289
 21
70.963226612070173
 31
0.0
  0
LINE
  5
38
  8
0
 10
26.000000003254289
 20
64.035023385554211
 30
0.0
 11
26.000000003254289
 21
68.653825539070965
 31
0.0
  0
LINE
  5
39
  8
0
 10
29.999999999998291
 20
61.72562231067554
 30
0.0
 11
25.999999999998298
 21
64.035023387433213
 31
0.0
  0
LINE
  5
3A
  8
0
 10
33.999999996738673
 20
64.035023385551938
 30
0.0
 11
29.9999999967423
 21
61.725622308792893
 31
0.0
  0
LINE
  5
3B
  8
0
 10
33.999999996742311
 20
68.653825535311569
 30
0.0
 11
33.999999996742311
 21
64.035023381794815
 31
0.0
  0
CIRCLE
  5
3C
  8
3
 10
30.0
 20
66.34442446043164
 30
0.0
 40
6.9175000000000004
  0
CIRCLE
  5
3D
  8
0
 10
30.0
 20
66.34442446043164
 30
0.0
 40
8.0
  0
LINE
  5
3E
  8
2
 10
80.981919154770495
 20
70.963226610188713
 30
0.0
 11
83.64858581926633
 21
66.344424460431583
 31
0.0
  0
LINE
  5
3F
  8
0
 10
76.081919154770546
 20
74.34442446043073
 30
0.0
 11
105.9508302415265
 21
74.344424460430702
 31
0.0
  0
LINE
  5
40
  8
3
 10
75.456937488372404
 20
73.261924460430123
 30
0.0
 11
107.8257752407209
 21
73.261924460430109
 31
0.0
  0
LINE
  5
41
  8
0
 10
76.081919154770517
 20
74.34442446043073
 30
0.0
 11
74.981919154770523
 21
72.439168572104847
 31
0.0
  0
LINE
  5
42
  8
2
 10
74.981919154770495
 20
70.963226610188769
 30
0.0
 11
80.981919154770495
 21
70.963226610188713
 31
0.0
  0
LINE
  5
43
  8
2
 10
74.981919154770495
 20
68.653825535309124
 30
0.0
 11
80.981919154770523
 21
68.653825535309124
 31
0.0
  0
LINE
  5
44
  8
2
 10
80.981919154770495
 20
61.725622310674567
 30
0.0
 11
83.64858581926633
 21
66.344424460431696
 31
0.0
  0
LINE
  5
45
  8
2
 10
74.981919154770495
 20
64.035023385554155
 30
0.0
 11
80.981919154770523
 21
64.035023385554155
 31
0.0
  0
LINE
  5
46
  8
2
 10
74.981919154770495
 20
61.725622310674517
 30
0.0
 11
80.981919154770495
 21
61.725622310674567
 31
0.0
  0
LINE
  5
47
  8
0
 10
76.081919154770517
 20
58.344424460432549
 30
0.0
 11
74.981919154770523
 21
60.249680348758432
 31
0.0
  0
LINE
  5
48
  8
3
 10
75.456937488372404
 20
59.42692446043317
 30
0.0
 11
107.8257752407209
 21
59.426924460433128
 31
0.0
  0
LINE
  5
49
  8
0
 10
76.081919154770546
 20
58.344424460432549
 30
0.0
 11
105.9508302415265
 21
58.344424460432521
 31
0.0
  0
LINE
  5
4A
  8
0
 10
76.081919154770489
 20
58.344424460432549
 30
0.0
 11
76.081919154770489
 21
74.34442446043073
 31
0.0
  0
LINE
  5
4B
  8
2
 10
80.981919154770495
 20
61.725622310674567
 30
0.0
 11
80.981919154770495
 21
70.963226610188713
 31
0.0
  0
LINE
  5
4C
  8
0
 10
74.981919154770495
 20
60.249680348758382
 30
0.0
 11
74.981919154770523
 21
72.439168572104847
 31
0.0
  0
LINE
  5
4D
  8
0
 10
108.98191915477049
 20
60.094424460431611
 30
0.0
 11
108.98191915477049
 21
72.594424460431611
 31
0.0
  0
LINE
  5
4E
  8
1
 10
40.499999999999993
 20
66.34442446043164
 30
0.0
 11
19.5
 21
66.34442446043164
 31
0.0
  0
LINE
  5
4F
  8
1
 10
30.0
 20
76.844424460431625
 30
0.0
 11
30.0
 21
55.844424460431647
 31
0.0
  0
LINE
  5
50
  8
1
 10
72.481919154770495
 20
66.34442446043164
 30
0.0
 11
115.48191915477059
 21
66.344424460431611
 31
0.0
  0
LINE
  5
51
  8
0
 10
108.98191915477049
 20
72.594424460431611
 30
0.0
 11
105.9508302415265
 21
74.344424460430702
 31
0.0
  0
LINE
  5
52
  8
0
 10
108.98191915477049
 20
60.094424460431618
 30
0.0
 11
105.9508302415265
 21
58.344424460432528
 31
0.0
  0
LINE
  5
53
  8
0
 10
105.9508302415265
 20
58.344424460432528
 30
0.0
 11
105.9508302415265
 21
74.344424460430716
 31
0.0
  0
LINE
  5
54
  8
1
 10
106.98191915477049
 20
57.844424460431618
 30
0.0
 11
106.98191915477049
 21
74.844424460431625
 31
0.0
  0
ARC
  5
55
  8
0
 10
106.98191915477049
 20
66.344424460431611
 30
0.0
 40
6.0
 50
289.47122063448973
 51
70.528779365510204
  0
ARC
  5
56
  8
2
 10
106.98191915477049
 20
66.34442446043164
 30
0.0
 40
6.0
 50
70.528779365510204
 51
289.47122063448973
  0
LINE
  5
60
  8
1
 10
157.73484248121511
 20
76.844424460431625
 30
0.0
 11
157.73484248121511
 21
55.844424460431647
 31
0.0
  0
LINE
  5
61
  8
1
 10
168.23484248121511
 20
66.34442446043164
 30
0.0
 11
147.23484248121511
 21
66.34442446043164
 31
0.0
  0
CIRCLE
  5
62
  8
0
 10
157.73484248121511
 20
66.34442446043164
 30
0.0
 40
8.0
  0
CIRCLE
  5
63
  8
3
 10
157.73484248121511
 20
66.34442446043164
 30
0.0
 40
6.9175000000000004
  0
CIRCLE
  5
64
  8
0
 10
157.73484248121511
 20
66.34442446043164
 30
0.0
 40
5.656854249492369
  0
ARC
  5
65
  8
2
 10
106.98191915477049
 20
110.1303956834532
 30
0.0
 40
6.0
 50
70.528779365510204
 51
289.47122063448973
  0
ARC
  5
66
  8
0
 10
106.98191915477049
 20
110.1303956834532
 30
0.0
 40
6.0
 50
289.47122063448973
 51
70.528779365510204
  0
LINE
  5
67
  8
1
 10
106.98191915477049
 20
101.6303956834532
 30
0.0
 11
106.98191915477049
 21
118.6303956834532
 31
0.0
  0
LINE
  5
68
  8
0
 10
105.9508302415265
 20
102.1303956834541
 30
0.0
 11
105.9508302415265
 21
118.13039568345231
 31
0.0
  0
LINE
  5
69
  8
0
 10
108.98191915477049
 20
103.8803956834532
 30
0.0
 11
105.9508302415265
 21
102.1303956834541
 31
0.0
  0
LINE
  5
6A
  8
0
 10
108.98191915477049
 20
116.3803956834532
 30
0.0
 11
105.9508302415265
 21
118.13039568345231
 31
0.0
  0
LINE
  5
6B
  8
1
 10
72.481919154770495
 20
110.1303956834532
 30
0.0
 11
115.48191915477059
 21
110.1303956834532
 31
0.0
  0
LINE
  5
6C
  8
0
 10
108.98191915477049
 20
103.8803956834532
 30
0.0
 11
108.98191915477049
 21
116.3803956834532
 31
0.0
  0
LINE
  5
6D
  8
0
 10
74.981919154770495
 20
104.03565157177989
 30
0.0
 11
74.981919154770523
 21
116.2251397951264
 31
0.0
  0
LINE
  5
6E
  8
0
 10
76.081919154770489
 20
102.1303956834541
 30
0.0
 11
76.081919154770489
 21
118.13039568345231
 31
0.0
  0
LINE
  5
6F
  8
0
 10
76.081919154770546
 20
102.1303956834541
 30
0.0
 11
105.9508302415265
 21
102.1303956834541
 31
0.0
  0
LINE
  5
70
  8
3
 10
75.456937488372404
 20
103.2128956834547
 30
0.0
 11
107.8257752407209
 21
103.2128956834547
 31
0.0
  0
LINE
  5
71
  8
0
 10
76.081919154770517
 20
102.1303956834541
 30
0.0
 11
74.981919154770523
 21
104.03565157177999
 31
0.0
  0
LINE
  5
72
  8
0
 10
76.081919154770517
 20
118.13039568345231
 30
0.0
 11
74.981919154770523
 21
116.2251397951264
 31
0.0
  0
LINE
  5
73
  8
3
 10
75.456937488372404
 20
117.0478956834517
 30
0.0
 11
107.8257752407209
 21
117.0478956834517
 31
0.0
  0
LINE
  5
74
  8
0
 10
76.081919154770546
 20
118.13039568345231
 30
0.0
 11
105.9508302415265
 21
118.13039568345231
 31
0.0
  0
LINE
  5
75
  8
2
 10
80.98191915477048
 20
106.1303956867075
 30
0.0
 11
80.98191915477048
 21
114.13039568019551
 31
0.0
  0
LINE
  5
76
  8
2
 10
74.981919154770495
 20
106.1303956867075
 30
0.0
 11
80.981919154770495
 21
106.1303956867075
 31
0.0
  0
LINE
  5
77
  8
2
 10
74.981919154770523
 20
114.13039568019551
 30
0.0
 11
80.981919154770495
 21
114.13039568019551
 31
0.0
  0
LINE
  5
78
  8
2
 10
74.981919154770495
 20
110.1303956834532
 30
0.0
 11
80.981919154770495
 21
110.1303956834532
 31
0.0
  0
LINE
  5
79
  8
2
 10
80.98191915477048
 20
106.1303956867075
 30
0.0
 11
83.648585819266316
 21
110.1303956834532
 31
0.0
  0
LINE
  5
7A
  8
2
 10
80.981919154770495
 20
114.13039568019551
 30
0.0
 11
83.648585819266316
 21
110.1303956834532
 31
0.0
  0
LINE
  5
7B
  8
2
 10
80.981919154770495
 20
29.957733809691959
 30
0.0
 11
83.648585819266316
 21
25.957733812949609
 31
0.0
  0
LINE
  5
7C
  8
2
 10
80.98191915477048
 20
21.957733816203909
 30
0.0
 11
83.648585819266316
 21
25.957733812949609
 31
0.0
  0
LINE
  5
7D
  8
2
 10
74.981919154770495
 20
25.957733812949641
 30
0.0
 11
80.981919154770495
 21
25.957733812949641
 31
0.0
  0
LINE
  5
7E
  8
2
 10
74.981919154770523
 20
29.957733809691948
 30
0.0
 11
80.981919154770495
 21
29.957733809691948
 31
0.0
  0
LINE
  5
7F
  8
2
 10
74.981919154770495
 20
21.957733816203909
 30
0.0
 11
80.981919154770495
 21
21.957733816203909
 31
0.0
  0
LINE
  5
80
  8
2
 10
80.98191915477048
 20
21.95773381620393
 30
0.0
 11
80.98191915477048
 21
29.957733809691959
 31
0.0
  0
LINE
  5
81
  8
0
 10
76.081919154770546
 20
33.957733812948732
 30
0.0
 11
105.9508302415265
 21
33.957733812948703
 31
0.0
  0
LINE
  5
82
  8
3
 10
75.456937488372404
 20
32.875233812948132
 30
0.0
 11
107.8257752407209
 21
32.87523381294811
 31
0.0
  0
LINE
  5
83
  8
0
 10
76.081919154770517
 20
33.957733812948732
 30
0.0
 11
74.981919154770523
 21
32.052477924622849
 31
0.0
  0
LINE
  5
84
  8
0
 10
76.081919154770517
 20
17.957733812950551
 30
0.0
 11
74.981919154770523
 21
19.86298970127643
 31
0.0
  0
LINE
  5
85
  8
3
 10
75.456937488372404
 20
19.040233812951161
 30
0.0
 11
107.8257752407209
 21
19.040233812951129
 31
0.0
  0
LINE
  5
86
  8
0
 10
76.081919154770546
 20
17.957733812950551
 30
0.0
 11
105.9508302415265
 21
17.957733812950519
 31
0.0
  0
LINE
  5
87
  8
0
 10
76.081919154770489
 20
17.957733812950551
 30
0.0
 11
76.081919154770489
 21
33.957733812948732
 31
0.0
  0
LINE
  5
88
  8
0
 10
74.981919154770495
 20
19.862989701276369
 30
0.0
 11
74.981919154770523
 21
32.052477924622849
 31
0.0
  0
LINE
  5
89
  8
0
 10
108.98191915477049
 20
19.707733812949609
 30
0.0
 11
108.98191915477049
 21
32.207733812949613
 31
0.0
  0
LINE
  5
8A
  8
1
 10
72.481919154770495
 20
25.957733812949641
 30
0.0
 11
115.48191915477059
 21
25.957733812949609
 31
0.0
  0
LINE
  5
8B
  8
0
 10
108.98191915477049
 20
32.207733812949613
 30
0.0
 11
105.9508302415265
 21
33.957733812948703
 31
0.0
  0
LINE
  5
8C
  8
0
 10
108.98191915477049
 20
19.707733812949609
 30
0.0
 11
105.9508302415265
 21
17.957733812950519
 31
0.0
  0
LINE
  5
8D
  8
0
 10
105.9508302415265
 20
17.957733812950519
 30
0.0
 11
105.9508302415265
 21
33.957733812948717
 31
0.0
  0
LINE
  5
8E
  8
1
 10
106.98191915477049
 20
17.45773381294962
 30
0.0
 11
106.98191915477049
 21
34.457733812949627
 31
0.0
  0
ARC
  5
8F
  8
0
 10
106.98191915477049
 20
25.957733812949609
 30
0.0
 40
6.0
 50
289.47122063448973
 51
70.528779365510204
  0
ARC
  5
90
  8
2
 10
106.98191915477049
 20
25.957733812949641
 30
0.0
 40
6.0
 50
70.528779365510204
 51
289.47122063448973
  0
TEXT
  5
17F
  8
0
 62
     3
 10
0.0
 20
0.0
 30
0.0
 40
5.0
  1
BSR16X35-SUS
  7
STANDARD1
  0
ENDSEC
  0
EOF
