  0
SECTION
  2
HEADER
  9
$ACADVER
  1
AC1009
  9
$INSBASE
 10
0.0
 20
0.0
 30
0.0
  9
$EXTMIN
 10
0.0
 20
-1.4802182810368341
 30
0.0
  9
$EXTMAX
 10
157.99350243668241
 20
111.359712230216
 30
0.0
  9
$LIMMIN
 10
0.0
 20
0.0
  9
$LIMMAX
 10
187.5
 20
135.0
  9
$ORTHOMODE
 70
     1
  9
$REGENMODE
 70
     1
  9
$FILLMODE
 70
     1
  9
$QTEXTMODE
 70
     0
  9
$MIRRTEXT
 70
     0
  9
$DRAGMODE
 70
     2
  9
$LTSCALE
 40
5.0
  9
$OSMODE
 70
  3071
  9
$ATTMODE
 70
     1
  9
$TEXTSIZE
 40
2.5000000000000488
  9
$TRACEWID
 40
0.05
  9
$TEXTSTYLE
  7
STANDARD
  9
$CLAYER
  8
0
  9
$CELTYPE
  6
BYLAYER
  9
$CECOLOR
 62
   256
  9
$DIMSCALE
 40
0.5
  9
$DIMASZ
 40
3.0
  9
$DIMEXO
 40
2.0
  9
$DIMDLI
 40
0.38
  9
$DIMRND
 40
0.0
  9
$DIMDLE
 40
0.0
  9
$DIMEXE
 40
2.0
  9
$DIMTP
 40
0.0
  9
$DIMTM
 40
0.0
  9
$DIMTXT
 40
3.2000000000000002
  9
$DIMCEN
 40
0.0
  9
$DIMTSZ
 40
0.0
  9
$DIMTOL
 70
     0
  9
$DIMLIM
 70
     0
  9
$DIMTIH
 70
     0
  9
$DIMTOH
 70
     0
  9
$DIMSE1
 70
     0
  9
$DIMSE2
 70
     0
  9
$DIMTAD
 70
     1
  9
$DIMZIN
 70
     0
  9
$DIMBLK
  1

  9
$DIMASO
 70
     0
  9
$DIMSHO
 70
     0
  9
$DIMPOST
  1

  9
$DIMAPOST
  1

  9
$DIMALT
 70
     0
  9
$DIMALTD
 70
     2
  9
$DIMALTF
 40
25.399999999999999
  9
$DIMLFAC
 40
1.0
  9
$DIMTOFL
 70
     1
  9
$DIMTVP
 40
1.6000000000000001
  9
$DIMTIX
 70
     1
  9
$DIMSOXD
 70
     0
  9
$DIMSAH
 70
     0
  9
$DIMBLK1
  1

  9
$DIMBLK2
  1

  9
$DIMSTYLE
  2
STANDARD
  9
$DIMCLRD
 70
     0
  9
$DIMCLRE
 70
     0
  9
$DIMCLRT
 70
     0
  9
$DIMTFAC
 40
1.0
  9
$DIMGAP
 40
0.09
  9
$LUNITS
 70
     2
  9
$LUPREC
 70
     4
  9
$SKETCHINC
 40
0.1
  9
$FILLETRAD
 40
0.0
  9
$AUNITS
 70
     0
  9
$AUPREC
 70
     4
  9
$MENU
  1
E:\r13\win\SUPPORT\ACAD
  9
$ELEVATION
 40
0.0
  9
$PELEVATION
 40
0.0
  9
$THICKNESS
 40
0.0
  9
$LIMCHECK
 70
     0
  9
$BLIPMODE
 70
     0
  9
$CHAMFERA
 40
0.0
  9
$CHAMFERB
 40
0.0
  9
$SKPOLY
 70
     0
  9
$TDCREATE
 40
2449840.6213773149
  9
$TDUPDATE
 40
2456598.4004666088
  9
$TDINDWG
 40
0.0004479282
  9
$TDUSRTIMER
 40
0.0004479282
  9
$USRTIMER
 70
     1
  9
$ANGBASE
 50
0.0
  9
$ANGDIR
 70
     0
  9
$PDMODE
 70
     0
  9
$PDSIZE
 40
0.0
  9
$PLINEWID
 40
0.0
  9
$COORDS
 70
     1
  9
$SPLFRAME
 70
     0
  9
$SPLINETYPE
 70
     6
  9
$SPLINESEGS
 70
     8
  9
$ATTDIA
 70
     0
  9
$ATTREQ
 70
     1
  9
$HANDLING
 70
     1
  9
$HANDSEED
  5
210
  9
$SURFTAB1
 70
     6
  9
$SURFTAB2
 70
     6
  9
$SURFTYPE
 70
     6
  9
$SURFU
 70
     6
  9
$SURFV
 70
     6
  9
$UCSNAME
  2

  9
$UCSORG
 10
0.0
 20
0.0
 30
0.0
  9
$UCSXDIR
 10
1.0
 20
0.0
 30
0.0
  9
$UCSYDIR
 10
0.0
 20
1.0
 30
0.0
  9
$PUCSNAME
  2

  9
$PUCSORG
 10
0.0
 20
0.0
 30
0.0
  9
$PUCSXDIR
 10
1.0
 20
0.0
 30
0.0
  9
$PUCSYDIR
 10
0.0
 20
1.0
 30
0.0
  9
$USERI1
 70
     0
  9
$USERI2
 70
     1
  9
$USERI3
 70
     0
  9
$USERI4
 70
     0
  9
$USERI5
 70
     0
  9
$USERR1
 40
0.0
  9
$USERR2
 40
0.0
  9
$USERR3
 40
0.0
  9
$USERR4
 40
0.0
  9
$USERR5
 40
0.0
  9
$WORLDVIEW
 70
     1
  9
$SHADEDGE
 70
     3
  9
$SHADEDIF
 70
    70
  9
$TILEMODE
 70
     1
  9
$MAXACTVP
 70
    16
  9
$PLIMCHECK
 70
     0
  9
$PEXTMIN
 10
1.0000000000000000E+020
 20
1.0000000000000000E+020
 30
1.0000000000000000E+020
  9
$PEXTMAX
 10
-1.0000000000000000E+020
 20
-1.0000000000000000E+020
 30
-1.0000000000000000E+020
  9
$PLIMMIN
 10
0.0
 20
0.0
  9
$PLIMMAX
 10
12.0
 20
9.0
  9
$UNITMODE
 70
     0
  9
$VISRETAIN
 70
     0
  9
$PLINEGEN
 70
     0
  9
$PSLTSCALE
 70
     0
  0
ENDSEC
  0
SECTION
  2
TABLES
  0
TABLE
  2
VPORT
 70
     1
  0
VPORT
  2
*ACTIVE
 70
     0
 10
0.0
 20
0.0
 11
1.0
 21
1.0
 12
97.52905416604365
 22
66.75636307133405
 13
0.0
 23
0.0
 14
5.0
 24
5.0
 15
5.0
 25
5.0
 16
0.0
 26
0.0
 36
1.0
 17
0.0
 27
0.0
 37
0.0
 40
137.71137496815999
 41
1.831871345029239
 42
50.0
 43
0.0
 44
0.0
 50
0.0
 51
0.0
 71
     0
 72
   500
 73
     1
 74
     0
 75
     0
 76
     0
 77
     0
 78
     2
  0
ENDTAB
  0
TABLE
  2
LTYPE
 70
     4
  0
LTYPE
  2
CONTINUOUS
 70
     0
  3
Solid Line
 72
    65
 73
     0
 40
0.0
  0
LTYPE
  2
CENTER
 70
     0
  3
____ _ ____ _ ____ _ ____ _ ____ _ ____ _ ____
 72
    65
 73
     4
 40
2.0
 49
1.25
 49
-0.25
 49
0.25
 49
-0.25
  0
LTYPE
  2
HIDDEN
 70
     0
  3
_ _ _ _ _ _ _ _ _ _ _ _ _ _ _ _ _ _ _ _ _ _ _
 72
    65
 73
     2
 40
0.375
 49
0.25
 49
-0.125
  0
LTYPE
  2
PHANTOM2
 70
     0
  3
___ _ _ ___ _ _ ___ _ _ ___ _ _
 72
    65
 73
     6
 40
1.25
 49
0.625
 49
-0.125
 49
0.125
 49
-0.125
 49
0.125
 49
-0.125
  0
ENDTAB
  0
TABLE
  2
LAYER
 70
     4
  0
LAYER
  2
0
 70
     0
 62
     7
  6
CONTINUOUS
  0
LAYER
  2
1
 70
     0
 62
     1
  6
CENTER
  0
LAYER
  2
2
 70
     0
 62
     2
  6
HIDDEN
  0
LAYER
  2
3
 70
     0
 62
     3
  6
CONTINUOUS
  0
ENDTAB
  0
TABLE
  2
STYLE
 70
     2
  0
STYLE
  2
STANDARD
 70
     0
 40
0.0
 41
1.0
 50
0.0
 71
     0
 42
2.5000000000000488
  3
TXT
  4
BIGFONT
  0
STYLE
  2
STANDARD1
 70
     0
 40
0.0
 41
1.0
 50
0.0
 71
     0
 42
3.0
  3
txt
  4

  0
ENDTAB
  0
TABLE
  2
VIEW
 70
     1
  0
VIEW
  2
ALL
 70
     0
 40
135.0
 10
110.4957983193277
 20
67.5
 41
0.0
 11
0.0
 21
0.0
 31
1.0
 12
0.0
 22
0.0
 32
0.0
 42
0.0
 43
0.0
 44
0.0
 50
0.0
 71
     0
  0
ENDTAB
  0
TABLE
  2
UCS
 70
     0
  0
ENDTAB
  0
TABLE
  2
APPID
 70
     3
  0
APPID
  2
ACAD
 70
     0
  0
APPID
  2
ACAD_MLEADERVER
 70
     0
  0
APPID
  2
ACAD_NAV_VCDISPLAY
 70
     0
  0
ENDTAB
  0
TABLE
  2
DIMSTYLE
 70
     1
  0
DIMSTYLE
  2
STANDARD
 70
     0
  3

  4

  5

  6

  7

 40
1.0
 41
0.18
 42
0.0625
 43
0.38
 44
0.18
 45
0.0
 46
0.0
 47
0.0
 48
0.0
140
0.18
141
0.09
142
0.0
143
25.399999999999999
144
1.0
145
0.0
146
1.0
147
0.09
 71
     0
 72
     0
 73
     1
 74
     1
 75
     0
 76
     0
 77
     0
 78
     0
170
     0
171
     2
172
     0
173
     0
174
     0
175
     0
176
     0
177
     0
178
     0
  0
ENDTAB
  0
ENDSEC
  0
SECTION
  2
BLOCKS
  0
BLOCK
  8
0
  2
$MODEL_SPACE
 70
     0
 10
0.0
 20
0.0
 30
0.0
  3
$MODEL_SPACE
  1

  0
ENDBLK
  5
C4
  8
0
  0
BLOCK
 67
     1
  8
0
  2
$PAPER_SPACE
 70
     0
 10
0.0
 20
0.0
 30
0.0
  3
$PAPER_SPACE
  1

  0
ENDBLK
  5
C2
 67
     1
  8
0
  0
ENDSEC
  0
SECTION
  2
ENTITIES
  0
CIRCLE
  5
36
  8
0
 10
35.0
 20
63.158723021582738
 30
0.0
 40
5.0
  0
CIRCLE
  5
37
  8
3
 10
35.0
 20
63.158723021582738
 30
0.0
 40
4.1879999999998736
  0
LINE
  5
38
  8
0
 10
37.499999997964331
 20
64.602098693382544
 30
0.0
 11
37.499999997964331
 21
61.71534734743485
 31
0.0
  0
LINE
  5
39
  8
0
 10
37.499999997962497
 20
61.715347349782711
 30
0.0
 11
34.999999997964331
 21
60.271971676808633
 31
0.0
  0
LINE
  5
3A
  8
0
 10
34.999999999999773
 20
60.271971677985071
 30
0.0
 11
32.499999999999773
 21
61.71534735095868
 31
0.0
  0
LINE
  5
3B
  8
0
 10
32.500000002033403
 20
61.71534734978453
 30
0.0
 11
32.500000002033403
 21
64.602098695732224
 31
0.0
  0
LINE
  5
3C
  8
0
 10
32.500000002033403
 20
64.602098693382544
 30
0.0
 11
35.000000002033403
 21
66.045474366356615
 31
0.0
  0
LINE
  5
3D
  8
0
 10
34.999999999999773
 20
66.045474365180183
 30
0.0
 11
37.499999999999773
 21
64.602098692206567
 31
0.0
  0
LINE
  5
3E
  8
1
 10
42.5
 20
63.158723021582738
 30
0.0
 11
27.5
 21
63.158723021582738
 31
0.0
  0
LINE
  5
3F
  8
1
 10
35.0
 20
70.658723021582745
 30
0.0
 11
35.0
 21
55.658723021582738
 31
0.0
  0
LINE
  5
40
  8
2
 10
82.167637902991274
 20
66.045474365181036
 30
0.0
 11
83.834304568301306
 21
63.158723021582681
 31
0.0
  0
LINE
  5
41
  8
2
 10
82.167637902991274
 20
60.271971677984332
 30
0.0
 11
83.834304568301278
 21
63.158723021582681
 31
0.0
  0
LINE
  5
42
  8
0
 10
100.30257439353009
 20
58.158723021582823
 30
0.0
 11
78.967637902991285
 21
58.158723021582738
 31
0.0
  0
LINE
  5
43
  8
0
 10
100.30257439353031
 20
68.158723021582801
 30
0.0
 11
78.967637902991228
 21
68.158723021582674
 31
0.0
  0
LINE
  5
44
  8
3
 10
101.7796379029913
 20
58.97072302158282
 30
0.0
 11
78.498829484409342
 21
58.970723021582813
 31
0.0
  0
LINE
  5
45
  8
3
 10
101.7796379029913
 20
67.346723021582733
 30
0.0
 11
78.498829484409171
 21
67.346723021582676
 31
0.0
  0
LINE
  5
46
  8
0
 10
102.4676379029914
 20
66.908723021582858
 30
0.0
 11
102.4676379029913
 21
59.408723021582837
 31
0.0
  0
LINE
  5
47
  8
0
 10
78.167637902991217
 20
66.77308237552765
 30
0.0
 11
78.167637902991331
 21
59.544363667638109
 31
0.0
  0
LINE
  5
48
  8
2
 10
82.167637902991217
 20
66.045474365181377
 30
0.0
 11
82.167637902991274
 21
60.271971677984332
 31
0.0
  0
LINE
  5
49
  8
0
 10
78.967637902991228
 20
68.158723021582674
 30
0.0
 11
78.967637902991285
 21
58.158723021582738
 31
0.0
  0
LINE
  5
4A
  8
0
 10
78.967637902991285
 20
68.158723021582674
 30
0.0
 11
78.167637902991217
 21
66.77308237552765
 31
0.0
  0
LINE
  5
4B
  8
0
 10
78.967637902991285
 20
58.158723021582901
 30
0.0
 11
78.167637902991217
 21
59.544363667638059
 31
0.0
  0
LINE
  5
4C
  8
2
 10
82.167637902991217
 20
66.045474365181377
 30
0.0
 11
78.167637902991217
 21
66.045474365181377
 31
0.0
  0
LINE
  5
4D
  8
2
 10
82.167637902991217
 20
64.602098693381805
 30
0.0
 11
78.167637902991217
 21
64.602098693381805
 31
0.0
  0
LINE
  5
4E
  8
2
 10
82.167637902991217
 20
61.715347349783897
 30
0.0
 11
78.167637902991217
 21
61.715347349783897
 31
0.0
  0
LINE
  5
4F
  8
2
 10
82.167637902991217
 20
60.271971677984332
 30
0.0
 11
78.167637902991217
 21
60.271971677984332
 31
0.0
  0
LINE
  5
50
  8
1
 10
75.667637902991274
 20
63.15872302158273
 30
0.0
 11
107.36763790299089
 21
63.15872302158288
 31
0.0
  0
LINE
  5
51
  8
0
 10
102.4676379029913
 20
66.908723021582858
 30
0.0
 11
100.30257439353031
 21
68.158723021582801
 31
0.0
  0
LINE
  5
52
  8
0
 10
102.4676379029913
 20
59.408723021582858
 30
0.0
 11
100.30257439353031
 21
58.158723021582929
 31
0.0
  0
LINE
  5
53
  8
0
 10
100.30257439353019
 20
58.158723021582823
 30
0.0
 11
100.30257439353031
 21
68.158723021582801
 31
0.0
  0
LINE
  5
54
  8
1
 10
101.36763790299089
 20
57.15872302158288
 30
0.0
 11
101.36763790299101
 21
69.158723021582887
 31
0.0
  0
ARC
  5
55
  8
0
 10
101.36763790299089
 20
63.158723021582851
 30
0.0
 40
3.5
 50
288.31769841120342
 51
71.682301588795113
  0
ARC
  5
56
  8
2
 10
101.36763790299089
 20
63.158723021582851
 30
0.0
 40
3.5
 50
71.682301588796548
 51
288.317698411202
  0
LINE
  5
60
  8
1
 10
150.49350243668241
 20
70.658723021582745
 30
0.0
 11
150.49350243668241
 21
55.658723021582738
 31
0.0
  0
LINE
  5
61
  8
1
 10
157.99350243668241
 20
63.158723021582738
 30
0.0
 11
142.99350243668241
 21
63.158723021582738
 31
0.0
  0
CIRCLE
  5
62
  8
3
 10
150.49350243668241
 20
63.158723021582738
 30
0.0
 40
4.1879999999998736
  0
CIRCLE
  5
63
  8
0
 10
150.49350243668241
 20
63.158723021582738
 30
0.0
 40
5.0
  0
CIRCLE
  5
64
  8
0
 10
150.49350243668241
 20
63.15872302158273
 30
0.0
 40
3.322649545167621
  0
ARC
  5
65
  8
2
 10
101.36763790299089
 20
105.35971223021591
 30
0.0
 40
3.5
 50
71.682301588796548
 51
288.317698411202
  0
ARC
  5
66
  8
0
 10
101.36763790299089
 20
105.35971223021591
 30
0.0
 40
3.5
 50
288.31769841120342
 51
71.682301588795113
  0
LINE
  5
67
  8
1
 10
101.36763790299089
 20
99.359712230215976
 30
0.0
 11
101.36763790299101
 21
111.359712230216
 31
0.0
  0
LINE
  5
68
  8
0
 10
100.30257439353019
 20
100.35971223021591
 30
0.0
 11
100.30257439353031
 21
110.35971223021591
 31
0.0
  0
LINE
  5
69
  8
0
 10
102.4676379029913
 20
101.60971223021591
 30
0.0
 11
100.30257439353031
 21
100.359712230216
 31
0.0
  0
LINE
  5
6A
  8
0
 10
102.4676379029913
 20
109.10971223021591
 30
0.0
 11
100.30257439353031
 21
110.35971223021591
 31
0.0
  0
LINE
  5
6B
  8
1
 10
75.667637902991274
 20
105.35971223021581
 30
0.0
 11
107.36763790299089
 21
105.359712230216
 31
0.0
  0
LINE
  5
6C
  8
0
 10
78.967637902991285
 20
100.359712230216
 30
0.0
 11
78.167637902991217
 21
101.7453528762711
 31
0.0
  0
LINE
  5
6D
  8
0
 10
78.967637902991285
 20
110.35971223021581
 30
0.0
 11
78.167637902991217
 21
108.9740715841607
 31
0.0
  0
LINE
  5
6E
  8
0
 10
78.967637902991228
 20
110.35971223021581
 30
0.0
 11
78.967637902991285
 21
100.35971223021581
 31
0.0
  0
LINE
  5
6F
  8
0
 10
78.167637902991217
 20
108.9740715841607
 30
0.0
 11
78.167637902991331
 21
101.7453528762712
 31
0.0
  0
LINE
  5
70
  8
0
 10
102.4676379029914
 20
109.10971223021591
 30
0.0
 11
102.4676379029913
 21
101.60971223021591
 31
0.0
  0
LINE
  5
71
  8
3
 10
101.7796379029913
 20
109.54771223021579
 30
0.0
 11
78.498829484409171
 21
109.54771223021569
 31
0.0
  0
LINE
  5
72
  8
3
 10
101.7796379029913
 20
101.1717122302159
 30
0.0
 11
78.498829484409342
 21
101.1717122302159
 31
0.0
  0
LINE
  5
73
  8
0
 10
100.30257439353031
 20
110.35971223021591
 30
0.0
 11
78.967637902991228
 21
110.35971223021581
 31
0.0
  0
LINE
  5
74
  8
0
 10
100.30257439353009
 20
100.35971223021591
 30
0.0
 11
78.967637902991285
 21
100.35971223021581
 31
0.0
  0
LINE
  5
75
  8
2
 10
82.167637902991245
 20
107.8597122281802
 30
0.0
 11
82.167637902991288
 21
102.85971223224929
 31
0.0
  0
LINE
  5
76
  8
2
 10
78.167637902991245
 20
107.8597122281802
 30
0.0
 11
82.167637902991245
 21
107.8597122281802
 31
0.0
  0
LINE
  5
77
  8
2
 10
78.167637902991288
 20
105.35971223021581
 30
0.0
 11
82.167637902991245
 21
105.35971223021591
 31
0.0
  0
LINE
  5
78
  8
2
 10
78.167637902991331
 20
102.85971223224929
 30
0.0
 11
82.167637902991288
 21
102.85971223224929
 31
0.0
  0
LINE
  5
79
  8
2
 10
82.167637902991288
 20
102.85971223224929
 30
0.0
 11
83.834304568301292
 21
105.35971223021581
 31
0.0
  0
LINE
  5
7A
  8
2
 10
82.167637902991245
 20
107.8597122281802
 30
0.0
 11
83.834304568301292
 21
105.35971223021581
 31
0.0
  0
LINE
  5
7B
  8
2
 10
82.167637902991245
 20
26.405125897244989
 30
0.0
 11
83.834304568301292
 21
23.905125899280542
 31
0.0
  0
LINE
  5
7C
  8
2
 10
82.167637902991288
 20
21.405125901314051
 30
0.0
 11
83.834304568301292
 21
23.905125899280542
 31
0.0
  0
LINE
  5
7D
  8
2
 10
78.167637902991331
 20
21.40512590131404
 30
0.0
 11
82.167637902991288
 21
21.405125901314079
 31
0.0
  0
LINE
  5
7E
  8
2
 10
78.167637902991288
 20
23.905125899280591
 30
0.0
 11
82.167637902991245
 21
23.905125899280652
 31
0.0
  0
LINE
  5
7F
  8
2
 10
78.167637902991245
 20
26.405125897244961
 30
0.0
 11
82.167637902991245
 21
26.405125897244989
 31
0.0
  0
LINE
  5
80
  8
2
 10
82.167637902991245
 20
26.405125897245
 30
0.0
 11
82.167637902991288
 21
21.405125901314051
 31
0.0
  0
LINE
  5
81
  8
0
 10
100.30257439353009
 20
18.905125899280659
 30
0.0
 11
78.967637902991285
 21
18.905125899280591
 31
0.0
  0
LINE
  5
82
  8
0
 10
100.30257439353031
 20
28.905125899280659
 30
0.0
 11
78.967637902991228
 21
28.905125899280549
 31
0.0
  0
LINE
  5
83
  8
3
 10
101.7796379029913
 20
19.717125899280671
 30
0.0
 11
78.498829484409342
 21
19.71712589928066
 31
0.0
  0
LINE
  5
84
  8
3
 10
101.7796379029913
 20
28.093125899280601
 30
0.0
 11
78.498829484409171
 21
28.09312589928054
 31
0.0
  0
LINE
  5
85
  8
0
 10
102.4676379029914
 20
27.655125899280719
 30
0.0
 11
102.4676379029913
 21
20.155125899280691
 31
0.0
  0
LINE
  5
86
  8
0
 10
78.167637902991217
 20
27.519485253225511
 30
0.0
 11
78.167637902991331
 21
20.29076654533597
 31
0.0
  0
LINE
  5
87
  8
0
 10
78.967637902991228
 20
28.905125899280549
 30
0.0
 11
78.967637902991285
 21
18.905125899280591
 31
0.0
  0
LINE
  5
88
  8
0
 10
78.967637902991285
 20
28.905125899280549
 30
0.0
 11
78.167637902991217
 21
27.519485253225511
 31
0.0
  0
LINE
  5
89
  8
0
 10
78.967637902991285
 20
18.905125899280758
 30
0.0
 11
78.167637902991217
 21
20.290766545335909
 31
0.0
  0
LINE
  5
8A
  8
1
 10
75.667637902991274
 20
23.905125899280581
 30
0.0
 11
107.36763790299089
 21
23.90512589928073
 31
0.0
  0
LINE
  5
8B
  8
0
 10
102.4676379029913
 20
27.655125899280719
 30
0.0
 11
100.30257439353031
 21
28.905125899280659
 31
0.0
  0
LINE
  5
8C
  8
0
 10
102.4676379029913
 20
20.155125899280719
 30
0.0
 11
100.30257439353031
 21
18.90512589928079
 31
0.0
  0
LINE
  5
8D
  8
0
 10
100.30257439353019
 20
18.90512589928068
 30
0.0
 11
100.30257439353031
 21
28.905125899280659
 31
0.0
  0
LINE
  5
8E
  8
1
 10
101.36763790299089
 20
17.90512589928073
 30
0.0
 11
101.36763790299101
 21
29.905125899280751
 31
0.0
  0
ARC
  5
8F
  8
0
 10
101.36763790299089
 20
23.905125899280709
 30
0.0
 40
3.5
 50
288.31769841120342
 51
71.682301588795113
  0
ARC
  5
90
  8
2
 10
101.36763790299089
 20
23.905125899280709
 30
0.0
 40
3.5
 50
71.682301588796548
 51
288.317698411202
  0
TEXT
  5
17F
  8
0
 62
     3
 10
0.0
 20
0.0
 30
0.0
 40
5.0
  1
BSR10X25-SUS
  7
STANDARD1
  0
ENDSEC
  0
EOF
