  0
SECTION
  2
HEADER
  9
$ACADVER
  1
AC1009
  9
$INSBASE
 10
0.0
 20
0.0
 30
0.0
  9
$EXTMIN
 10
0.0
 20
-1.4802182810368341
 30
0.0
  9
$EXTMAX
 10
82.774127777134794
 20
52.839077172952003
 30
0.0
  9
$LIMMIN
 10
0.0
 20
0.0
  9
$LIMMAX
 10
187.5
 20
135.0
  9
$ORTHOMODE
 70
     1
  9
$REGENMODE
 70
     1
  9
$FILLMODE
 70
     1
  9
$QTEXTMODE
 70
     0
  9
$MIRRTEXT
 70
     0
  9
$DRAGMODE
 70
     2
  9
$LTSCALE
 40
2.0
  9
$OSMODE
 70
  3071
  9
$ATTMODE
 70
     1
  9
$TEXTSIZE
 40
4.0
  9
$TRACEWID
 40
0.05
  9
$TEXTSTYLE
  7
STANDARD
  9
$CLAYER
  8
0
  9
$CELTYPE
  6
BYLAYER
  9
$CECOLOR
 62
   256
  9
$DIMSCALE
 40
0.5
  9
$DIMASZ
 40
3.0
  9
$DIMEXO
 40
2.0
  9
$DIMDLI
 40
0.38
  9
$DIMRND
 40
0.0
  9
$DIMDLE
 40
0.0
  9
$DIMEXE
 40
2.0
  9
$DIMTP
 40
0.0
  9
$DIMTM
 40
0.0
  9
$DIMTXT
 40
3.0
  9
$DIMCEN
 40
0.0
  9
$DIMTSZ
 40
0.0
  9
$DIMTOL
 70
     0
  9
$DIMLIM
 70
     0
  9
$DIMTIH
 70
     0
  9
$DIMTOH
 70
     0
  9
$DIMSE1
 70
     0
  9
$DIMSE2
 70
     0
  9
$DIMTAD
 70
     1
  9
$DIMZIN
 70
     0
  9
$DIMBLK
  1

  9
$DIMASO
 70
     0
  9
$DIMSHO
 70
     0
  9
$DIMPOST
  1

  9
$DIMAPOST
  1

  9
$DIMALT
 70
     0
  9
$DIMALTD
 70
     2
  9
$DIMALTF
 40
25.399999999999999
  9
$DIMLFAC
 40
1.0
  9
$DIMTOFL
 70
     0
  9
$DIMTVP
 40
1.6000000000000001
  9
$DIMTIX
 70
     1
  9
$DIMSOXD
 70
     0
  9
$DIMSAH
 70
     0
  9
$DIMBLK1
  1

  9
$DIMBLK2
  1

  9
$DIMSTYLE
  2
STANDARD
  9
$DIMCLRD
 70
     0
  9
$DIMCLRE
 70
     0
  9
$DIMCLRT
 70
     0
  9
$DIMTFAC
 40
1.0
  9
$DIMGAP
 40
0.09
  9
$LUNITS
 70
     2
  9
$LUPREC
 70
     4
  9
$SKETCHINC
 40
0.1
  9
$FILLETRAD
 40
1.0
  9
$AUNITS
 70
     0
  9
$AUPREC
 70
     0
  9
$MENU
  1
E:\r13\win\SUPPORT\ACAD
  9
$ELEVATION
 40
0.0
  9
$PELEVATION
 40
0.0
  9
$THICKNESS
 40
0.0
  9
$LIMCHECK
 70
     0
  9
$BLIPMODE
 70
     0
  9
$CHAMFERA
 40
0.0
  9
$CHAMFERB
 40
0.0
  9
$SKPOLY
 70
     0
  9
$TDCREATE
 40
2449840.6143865739
  9
$TDUPDATE
 40
2456598.4002576969
  9
$TDINDWG
 40
0.2639676505
  9
$TDUSRTIMER
 40
0.2639676505
  9
$USRTIMER
 70
     1
  9
$ANGBASE
 50
0.0
  9
$ANGDIR
 70
     0
  9
$PDMODE
 70
     0
  9
$PDSIZE
 40
0.0
  9
$PLINEWID
 40
0.0
  9
$COORDS
 70
     1
  9
$SPLFRAME
 70
     0
  9
$SPLINETYPE
 70
     6
  9
$SPLINESEGS
 70
     8
  9
$ATTDIA
 70
     0
  9
$ATTREQ
 70
     1
  9
$HANDLING
 70
     1
  9
$HANDSEED
  5
1553
  9
$SURFTAB1
 70
     6
  9
$SURFTAB2
 70
     6
  9
$SURFTYPE
 70
     6
  9
$SURFU
 70
     6
  9
$SURFV
 70
     6
  9
$UCSNAME
  2

  9
$UCSORG
 10
0.0
 20
0.0
 30
0.0
  9
$UCSXDIR
 10
1.0
 20
0.0
 30
0.0
  9
$UCSYDIR
 10
0.0
 20
1.0
 30
0.0
  9
$PUCSNAME
  2

  9
$PUCSORG
 10
0.0
 20
0.0
 30
0.0
  9
$PUCSXDIR
 10
1.0
 20
0.0
 30
0.0
  9
$PUCSYDIR
 10
0.0
 20
1.0
 30
0.0
  9
$USERI1
 70
     0
  9
$USERI2
 70
     1
  9
$USERI3
 70
     1
  9
$USERI4
 70
     0
  9
$USERI5
 70
     0
  9
$USERR1
 40
0.0
  9
$USERR2
 40
0.0
  9
$USERR3
 40
0.0
  9
$USERR4
 40
0.0
  9
$USERR5
 40
0.0
  9
$WORLDVIEW
 70
     1
  9
$SHADEDGE
 70
     3
  9
$SHADEDIF
 70
    70
  9
$TILEMODE
 70
     1
  9
$MAXACTVP
 70
    16
  9
$PLIMCHECK
 70
     0
  9
$PEXTMIN
 10
1.0000000000000000E+020
 20
1.0000000000000000E+020
 30
1.0000000000000000E+020
  9
$PEXTMAX
 10
-1.0000000000000000E+020
 20
-1.0000000000000000E+020
 30
-1.0000000000000000E+020
  9
$PLIMMIN
 10
0.0
 20
0.0
  9
$PLIMMAX
 10
12.0
 20
9.0
  9
$UNITMODE
 70
     0
  9
$VISRETAIN
 70
     0
  9
$PLINEGEN
 70
     0
  9
$PSLTSCALE
 70
     0
  0
ENDSEC
  0
SECTION
  2
TABLES
  0
TABLE
  2
VPORT
 70
     1
  0
VPORT
  2
*ACTIVE
 70
     0
 10
0.0
 20
0.0
 11
1.0
 21
1.0
 12
97.52905416604365
 22
66.75636307133405
 13
0.0
 23
0.0
 14
5.0
 24
5.0
 15
5.0
 25
5.0
 16
0.0
 26
0.0
 36
1.0
 17
0.0
 27
0.0
 37
0.0
 40
137.71137496815999
 41
1.831871345029239
 42
50.0
 43
0.0
 44
0.0
 50
0.0
 51
0.0
 71
     0
 72
   100
 73
     1
 74
     0
 75
     0
 76
     0
 77
     0
 78
     0
  0
ENDTAB
  0
TABLE
  2
LTYPE
 70
     4
  0
LTYPE
  2
CONTINUOUS
 70
     0
  3
Solid Line
 72
    65
 73
     0
 40
0.0
  0
LTYPE
  2
CENTER
 70
     0
  3
____ _ ____ _ ____ _ ____ _ ____ _ ____ _ ____
 72
    65
 73
     4
 40
2.0
 49
1.25
 49
-0.25
 49
0.25
 49
-0.25
  0
LTYPE
  2
HIDDEN
 70
     0
  3
_ _ _ _ _ _ _ _ _ _ _ _ _ _ _ _ _ _ _ _ _ _ _
 72
    65
 73
     2
 40
0.375
 49
0.25
 49
-0.125
  0
LTYPE
  2
PHANTOM2
 70
     0
  3
___ _ _ ___ _ _ ___ _ _ ___ _ _
 72
    65
 73
     6
 40
1.25
 49
0.625
 49
-0.125
 49
0.125
 49
-0.125
 49
0.125
 49
-0.125
  0
ENDTAB
  0
TABLE
  2
LAYER
 70
     4
  0
LAYER
  2
0
 70
     0
 62
     7
  6
CONTINUOUS
  0
LAYER
  2
1
 70
     0
 62
     1
  6
CENTER
  0
LAYER
  2
3
 70
     0
 62
     3
  6
CONTINUOUS
  0
LAYER
  2
2
 70
     0
 62
     2
  6
HIDDEN
  0
ENDTAB
  0
TABLE
  2
STYLE
 70
     2
  0
STYLE
  2
STANDARD
 70
     0
 40
0.0
 41
1.0
 50
0.0
 71
     0
 42
4.0
  3
TXT
  4
BIGFONT
  0
STYLE
  2
STANDARD1
 70
     0
 40
0.0
 41
1.0
 50
0.0
 71
     0
 42
3.0
  3
txt
  4

  0
ENDTAB
  0
TABLE
  2
VIEW
 70
     1
  0
VIEW
  2
ALL
 70
     0
 40
179.66152299999999
 10
141.903918
 20
89.830760999999995
 41
0.0
 11
0.0
 21
0.0
 31
1.0
 12
0.0
 22
0.0
 32
0.0
 42
0.0
 43
0.0
 44
0.0
 50
0.0
 71
     0
  0
ENDTAB
  0
TABLE
  2
UCS
 70
     0
  0
ENDTAB
  0
TABLE
  2
APPID
 70
     4
  0
APPID
  2
ACAD
 70
     0
  0
APPID
  2
DCO15
 70
     0
  0
APPID
  2
ACAD_MLEADERVER
 70
     0
  0
APPID
  2
ACAD_NAV_VCDISPLAY
 70
     0
  0
ENDTAB
  0
TABLE
  2
DIMSTYLE
 70
     1
  0
DIMSTYLE
  2
STANDARD
 70
     0
  3

  4

  5

  6

  7

 40
1.0
 41
0.18
 42
0.0625
 43
0.38
 44
0.18
 45
0.0
 46
0.0
 47
0.0
 48
0.0
140
0.18
141
0.09
142
0.0
143
25.399999999999999
144
1.0
145
0.0
146
1.0
147
0.09
 71
     0
 72
     0
 73
     1
 74
     1
 75
     0
 76
     0
 77
     0
 78
     0
170
     0
171
     2
172
     0
173
     0
174
     0
175
     0
176
     0
177
     0
178
     0
  0
ENDTAB
  0
ENDSEC
  0
SECTION
  2
BLOCKS
  0
BLOCK
  8
0
  2
$MODEL_SPACE
 70
     0
 10
0.0
 20
0.0
 30
0.0
  3
$MODEL_SPACE
  1

  0
ENDBLK
  5
1BD
  8
0
  0
BLOCK
 67
     1
  8
0
  2
$PAPER_SPACE
 70
     0
 10
0.0
 20
0.0
 30
0.0
  3
$PAPER_SPACE
  1

  0
ENDBLK
  5
1BB
 67
     1
  8
0
  0
ENDSEC
  0
SECTION
  2
ENTITIES
  0
LINE
  5
13BE
  8
2
 10
43.874127777134809
 20
22.83521392335124
 30
0.0
 11
45.207461109382969
 21
24.835213923351191
 31
0.0
  0
LINE
  5
13BF
  8
2
 10
43.874127777134767
 20
26.83521392335123
 30
0.0
 11
45.207461109382969
 21
24.835213923351191
 31
0.0
  0
LINE
  5
13C0
  8
0
 10
50.874127777134781
 20
27.935213923351242
 30
0.0
 11
49.974127777134839
 21
28.83521392335124
 31
0.0
  0
LINE
  5
13C1
  8
0
 10
49.974127777134839
 20
20.83521392335124
 30
0.0
 11
50.874127777134809
 21
21.735213923351228
 31
0.0
  0
ARC
  5
13C2
  8
0
 10
50.498599686678311
 20
24.83521392335124
 30
0.0
 40
2.7500000000000031
 50
49.785828982629731
 51
62.365575793655601
  0
ARC
  5
13C3
  8
0
 10
50.498599686678311
 20
24.83521392335124
 30
0.0
 40
2.7500000000000231
 50
297.63442420634442
 51
310.21417101737029
  0
LINE
  5
13C4
  8
0
 10
49.974127777134839
 20
20.83521392335124
 30
0.0
 11
49.974127777134839
 21
28.83521392335124
 31
0.0
  0
LINE
  5
13C5
  8
0
 10
51.774127777134808
 20
21.735213923351228
 30
0.0
 11
51.774127777134787
 21
27.935213923351249
 31
0.0
  0
LINE
  5
13C6
  8
0
 10
52.274127777134787
 20
22.735213923351228
 30
0.0
 11
52.274127777134787
 21
26.935213923351231
 31
0.0
  0
LINE
  5
13C7
  8
1
 10
37.374127777134802
 20
24.83521392335124
 30
0.0
 11
54.774127777134787
 21
24.83521392335123
 31
0.0
  0
LINE
  5
13C8
  8
2
 10
39.874127777134802
 20
26.83521392335124
 30
0.0
 11
43.874127777134852
 21
26.83521392335124
 31
0.0
  0
LINE
  5
13C9
  8
2
 10
39.874127777134788
 20
24.83521392335124
 30
0.0
 11
43.874127777134781
 21
24.83521392335124
 31
0.0
  0
LINE
  5
13CA
  8
2
 10
39.87412777713476
 20
22.83521392335124
 30
0.0
 11
43.874127777134809
 21
22.83521392335124
 31
0.0
  0
LINE
  5
13CB
  8
0
 10
39.874127777134781
 20
21.874444407892589
 30
0.0
 11
40.474127777134854
 21
20.83521392335124
 31
0.0
  0
LINE
  5
13CC
  8
0
 10
39.874127777134802
 20
27.795983438809891
 30
0.0
 11
40.474127777134768
 21
28.83521392335124
 31
0.0
  0
LINE
  5
13CD
  8
2
 10
43.874127777134767
 20
22.835213923351251
 30
0.0
 11
43.874127777134781
 21
26.83521392335124
 31
0.0
  0
LINE
  5
13CE
  8
0
 10
39.874127777134781
 20
21.874444407892589
 30
0.0
 11
39.874127777134802
 21
27.795983438809891
 31
0.0
  0
LINE
  5
13CF
  8
0
 10
40.474127777134768
 20
20.83521392335118
 30
0.0
 11
40.474127777134768
 21
28.835213923351191
 31
0.0
  0
LINE
  5
13D0
  8
3
 10
40.083550320028181
 20
21.511713923351049
 30
0.0
 11
50.650627777134638
 21
21.511713923351049
 31
0.0
  0
LINE
  5
13D1
  8
3
 10
40.08355032002806
 20
28.158713923351321
 30
0.0
 11
50.650627777134758
 21
28.158713923351328
 31
0.0
  0
LINE
  5
13D2
  8
0
 10
40.474127777134768
 20
28.835213923351191
 30
0.0
 11
49.974127777134882
 21
28.83521392335124
 31
0.0
  0
LINE
  5
13D3
  8
0
 10
40.474127777134768
 20
20.83521392335118
 30
0.0
 11
49.974127777134782
 21
20.83521392335118
 31
0.0
  0
LINE
  5
13D4
  8
0
 10
50.874127777134781
 20
27.935213923351242
 30
0.0
 11
51.774127777134808
 21
27.935213923351242
 31
0.0
  0
LINE
  5
13D5
  8
0
 10
50.874127777134802
 20
21.735213923351221
 30
0.0
 11
51.774127777134808
 21
21.735213923351228
 31
0.0
  0
LINE
  5
13D6
  8
0
 10
50.874127777134802
 20
21.735213923351228
 30
0.0
 11
50.874127777134781
 21
27.935213923351249
 31
0.0
  0
ARC
  5
13D7
  8
2
 10
50.498599686678311
 20
24.83521392335124
 30
0.0
 40
2.7500000000000031
 50
62.365575793655601
 51
297.63442420634442
  0
CIRCLE
  5
13D8
  8
0
 10
76.274127777134794
 20
46.339077172951981
 30
0.0
 40
3.1000000000000152
  0
CIRCLE
  5
13D9
  8
0
 10
76.274127777134794
 20
46.339077172951981
 30
0.0
 40
2.1000000000000152
  0
CIRCLE
  5
13DA
  8
0
 10
76.274127777134794
 20
46.339077172951981
 30
0.0
 40
4.0
  0
LINE
  5
13DB
  8
1
 10
69.774127777134794
 20
46.339077172951981
 30
0.0
 11
82.774127777134794
 21
46.339077172951981
 31
0.0
  0
LINE
  5
13DC
  8
1
 10
76.274127777134794
 20
39.839077172951981
 30
0.0
 11
76.274127777134794
 21
52.839077172951981
 31
0.0
  0
CIRCLE
  5
13DD
  8
3
 10
76.274127777134794
 20
46.339077172951981
 30
0.0
 40
3.3251155342068168
  0
CIRCLE
  5
13DE
  8
3
 10
15.874127777134801
 20
46.339077172951988
 30
0.0
 40
3.3251155342068168
  0
ARC
  5
13DF
  8
2
 10
50.498599686678311
 20
46.339077172951988
 30
0.0
 40
2.7500000000000031
 50
62.365575793655601
 51
297.63442420634442
  0
LINE
  5
13E0
  8
0
 10
50.874127777134802
 20
43.23907717295198
 30
0.0
 11
50.874127777134781
 21
49.439077172951997
 31
0.0
  0
LINE
  5
13E1
  8
0
 10
50.874127777134802
 20
43.239077172951973
 30
0.0
 11
51.774127777134808
 21
43.23907717295198
 31
0.0
  0
LINE
  5
13E2
  8
0
 10
50.874127777134781
 20
49.439077172951997
 30
0.0
 11
51.774127777134808
 21
49.439077172951997
 31
0.0
  0
LINE
  5
13E3
  8
2
 10
43.874127777134767
 20
48.648478247830901
 30
0.0
 11
45.207461109383033
 21
46.339077172951932
 31
0.0
  0
LINE
  5
13E4
  8
2
 10
43.874127777134767
 20
44.029676098072969
 30
0.0
 11
45.207461109382969
 21
46.339077172951932
 31
0.0
  0
LINE
  5
13E5
  8
0
 10
40.474127777134768
 20
42.339077172951939
 30
0.0
 11
49.974127777134782
 21
42.339077172951932
 31
0.0
  0
LINE
  5
13E6
  8
0
 10
40.474127777134768
 20
50.339077172951939
 30
0.0
 11
49.974127777134882
 21
50.339077172952003
 31
0.0
  0
LINE
  5
13E7
  8
3
 10
40.08355032002806
 20
49.662577172952069
 30
0.0
 11
50.650627777134758
 21
49.662577172952084
 31
0.0
  0
LINE
  5
13E8
  8
3
 10
40.083550320028181
 20
43.015577172951801
 30
0.0
 11
50.650627777134638
 21
43.015577172951801
 31
0.0
  0
LINE
  5
13E9
  8
0
 10
40.474127777134768
 20
42.339077172951939
 30
0.0
 11
40.474127777134768
 21
50.339077172951939
 31
0.0
  0
LINE
  5
13EA
  8
0
 10
39.874127777134781
 20
43.378307657493338
 30
0.0
 11
39.874127777134802
 21
49.299846688410653
 31
0.0
  0
LINE
  5
13EB
  8
2
 10
43.874127777134767
 20
44.029676098073033
 30
0.0
 11
43.874127777134767
 21
48.648478247830838
 31
0.0
  0
LINE
  5
13EC
  8
0
 10
39.874127777134802
 20
49.299846688410653
 30
0.0
 11
40.474127777134768
 21
50.339077172952003
 31
0.0
  0
LINE
  5
13ED
  8
0
 10
39.874127777134781
 20
43.378307657493338
 30
0.0
 11
40.474127777134854
 21
42.339077172951988
 31
0.0
  0
LINE
  5
13EE
  8
2
 10
39.874127777134753
 20
44.029676098073033
 30
0.0
 11
43.874127777134802
 21
44.029676098073033
 31
0.0
  0
LINE
  5
13EF
  8
2
 10
39.874127777134781
 20
45.184376635513217
 30
0.0
 11
43.874127777134767
 21
45.184376635513217
 31
0.0
  0
LINE
  5
13F0
  8
2
 10
39.874127777134781
 20
47.493777710390603
 30
0.0
 11
43.874127777134767
 21
47.493777710390603
 31
0.0
  0
LINE
  5
13F1
  8
2
 10
39.874127777134753
 20
48.648478247830838
 30
0.0
 11
43.874127777134802
 21
48.648478247830838
 31
0.0
  0
LINE
  5
13F2
  8
1
 10
15.874127777134801
 20
39.839077172951988
 30
0.0
 11
15.874127777134801
 21
52.839077172952003
 31
0.0
  0
LINE
  5
13F3
  8
1
 10
9.3741277771348024
 20
46.339077172951988
 30
0.0
 11
22.374127777134799
 21
46.339077172951988
 31
0.0
  0
LINE
  5
13F4
  8
0
 10
17.874127777134799
 20
47.493777711331248
 30
0.0
 11
17.874127777134799
 21
45.184376634572743
 31
0.0
  0
LINE
  5
13F5
  8
0
 10
15.874127777134801
 20
48.6484782497105
 30
0.0
 11
17.874127777134799
 21
47.493777711331248
 31
0.0
  0
LINE
  5
13F6
  8
0
 10
13.874127777134801
 20
47.493777711331248
 30
0.0
 11
15.874127777134801
 21
48.6484782497105
 31
0.0
  0
LINE
  5
13F7
  8
0
 10
13.874127777134801
 20
45.184376634572743
 30
0.0
 11
13.874127777134801
 21
47.493777711331248
 31
0.0
  0
LINE
  5
13F8
  8
0
 10
17.874127777134799
 20
45.184376634572743
 30
0.0
 11
15.874127777134801
 21
44.029676096193491
 31
0.0
  0
LINE
  5
13F9
  8
0
 10
15.874127777134801
 20
44.029676096193491
 30
0.0
 11
13.874127777134801
 21
45.184376634572743
 31
0.0
  0
CIRCLE
  5
13FA
  8
0
 10
15.874127777134801
 20
46.339077172951988
 30
0.0
 40
4.0
  0
LINE
  5
13FB
  8
1
 10
37.374127777134802
 20
46.339077172951988
 30
0.0
 11
54.774127777134787
 21
46.339077172951981
 31
0.0
  0
LINE
  5
13FC
  8
0
 10
52.274127777134787
 20
44.239077172951987
 30
0.0
 11
52.274127777134787
 21
48.439077172951983
 31
0.0
  0
LINE
  5
13FD
  8
0
 10
51.774127777134808
 20
43.23907717295198
 30
0.0
 11
51.774127777134787
 21
49.439077172951997
 31
0.0
  0
LINE
  5
13FE
  8
0
 10
49.974127777134839
 20
42.339077172951988
 30
0.0
 11
49.974127777134839
 21
50.339077172952003
 31
0.0
  0
ARC
  5
13FF
  8
0
 10
50.498599686678311
 20
46.339077172951988
 30
0.0
 40
2.7500000000000231
 50
297.63442420634442
 51
310.21417101737029
  0
ARC
  5
1400
  8
0
 10
50.498599686678311
 20
46.339077172951988
 30
0.0
 40
2.7500000000000031
 50
49.785828982629731
 51
62.365575793655601
  0
LINE
  5
1401
  8
0
 10
49.974127777134839
 20
42.339077172951988
 30
0.0
 11
50.874127777134809
 21
43.23907717295198
 31
0.0
  0
LINE
  5
1402
  8
0
 10
50.874127777134781
 20
49.43907717295199
 30
0.0
 11
49.974127777134839
 21
50.339077172952003
 31
0.0
  0
CIRCLE
  5
140C
  8
0
 10
76.274127777134794
 20
46.339077172951981
 30
0.0
 40
2.4362939253005811
  0
TEXT
  5
14C2
  8
0
 62
     3
 10
0.0
 20
0.0
 30
0.0
 40
5.0
  1
BSFJ8X12
  7
STANDARD1
  0
ENDSEC
  0
EOF
