  0
SECTION
  2
HEADER
  9
$ACADVER
  1
AC1009
  9
$INSBASE
 10
0.0
 20
0.0
 30
0.0
  9
$EXTMIN
 10
0.0
 20
-1.4802182810368341
 30
0.0
  9
$EXTMAX
 10
54.301606604965571
 20
31.256267402349479
 30
0.0
  9
$LIMMIN
 10
0.0
 20
0.0
  9
$LIMMAX
 10
187.5
 20
135.0
  9
$ORTHOMODE
 70
     1
  9
$REGENMODE
 70
     1
  9
$FILLMODE
 70
     1
  9
$QTEXTMODE
 70
     0
  9
$MIRRTEXT
 70
     0
  9
$DRAGMODE
 70
     2
  9
$LTSCALE
 40
1.0
  9
$OSMODE
 70
  3071
  9
$ATTMODE
 70
     1
  9
$TEXTSIZE
 40
4.0
  9
$TRACEWID
 40
0.05
  9
$TEXTSTYLE
  7
STANDARD
  9
$CLAYER
  8
0
  9
$CELTYPE
  6
BYLAYER
  9
$CECOLOR
 62
   256
  9
$DIMSCALE
 40
0.5
  9
$DIMASZ
 40
3.0
  9
$DIMEXO
 40
2.0
  9
$DIMDLI
 40
0.38
  9
$DIMRND
 40
0.0
  9
$DIMDLE
 40
0.0
  9
$DIMEXE
 40
2.0
  9
$DIMTP
 40
0.0
  9
$DIMTM
 40
0.0
  9
$DIMTXT
 40
3.0
  9
$DIMCEN
 40
0.0
  9
$DIMTSZ
 40
0.0
  9
$DIMTOL
 70
     0
  9
$DIMLIM
 70
     0
  9
$DIMTIH
 70
     0
  9
$DIMTOH
 70
     0
  9
$DIMSE1
 70
     0
  9
$DIMSE2
 70
     0
  9
$DIMTAD
 70
     1
  9
$DIMZIN
 70
     0
  9
$DIMBLK
  1

  9
$DIMASO
 70
     0
  9
$DIMSHO
 70
     0
  9
$DIMPOST
  1

  9
$DIMAPOST
  1

  9
$DIMALT
 70
     0
  9
$DIMALTD
 70
     2
  9
$DIMALTF
 40
25.399999999999999
  9
$DIMLFAC
 40
1.0
  9
$DIMTOFL
 70
     0
  9
$DIMTVP
 40
1.6000000000000001
  9
$DIMTIX
 70
     1
  9
$DIMSOXD
 70
     0
  9
$DIMSAH
 70
     0
  9
$DIMBLK1
  1

  9
$DIMBLK2
  1

  9
$DIMSTYLE
  2
STANDARD
  9
$DIMCLRD
 70
     0
  9
$DIMCLRE
 70
     0
  9
$DIMCLRT
 70
     0
  9
$DIMTFAC
 40
1.0
  9
$DIMGAP
 40
0.09
  9
$LUNITS
 70
     2
  9
$LUPREC
 70
     4
  9
$SKETCHINC
 40
0.1
  9
$FILLETRAD
 40
1.0
  9
$AUNITS
 70
     0
  9
$AUPREC
 70
     0
  9
$MENU
  1
E:\r13\win\SUPPORT\ACAD
  9
$ELEVATION
 40
0.0
  9
$PELEVATION
 40
0.0
  9
$THICKNESS
 40
0.0
  9
$LIMCHECK
 70
     0
  9
$BLIPMODE
 70
     0
  9
$CHAMFERA
 40
0.0
  9
$CHAMFERB
 40
0.0
  9
$SKPOLY
 70
     0
  9
$TDCREATE
 40
2449840.6143865739
  9
$TDUPDATE
 40
2456598.399881782
  9
$TDINDWG
 40
0.2511438889
  9
$TDUSRTIMER
 40
0.2511438889
  9
$USRTIMER
 70
     1
  9
$ANGBASE
 50
0.0
  9
$ANGDIR
 70
     0
  9
$PDMODE
 70
     0
  9
$PDSIZE
 40
0.0
  9
$PLINEWID
 40
0.0
  9
$COORDS
 70
     1
  9
$SPLFRAME
 70
     0
  9
$SPLINETYPE
 70
     6
  9
$SPLINESEGS
 70
     8
  9
$ATTDIA
 70
     0
  9
$ATTREQ
 70
     1
  9
$HANDLING
 70
     1
  9
$HANDSEED
  5
14B1
  9
$SURFTAB1
 70
     6
  9
$SURFTAB2
 70
     6
  9
$SURFTYPE
 70
     6
  9
$SURFU
 70
     6
  9
$SURFV
 70
     6
  9
$UCSNAME
  2

  9
$UCSORG
 10
0.0
 20
0.0
 30
0.0
  9
$UCSXDIR
 10
1.0
 20
0.0
 30
0.0
  9
$UCSYDIR
 10
0.0
 20
1.0
 30
0.0
  9
$PUCSNAME
  2

  9
$PUCSORG
 10
0.0
 20
0.0
 30
0.0
  9
$PUCSXDIR
 10
1.0
 20
0.0
 30
0.0
  9
$PUCSYDIR
 10
0.0
 20
1.0
 30
0.0
  9
$USERI1
 70
     0
  9
$USERI2
 70
     1
  9
$USERI3
 70
     1
  9
$USERI4
 70
     0
  9
$USERI5
 70
     0
  9
$USERR1
 40
0.0
  9
$USERR2
 40
0.0
  9
$USERR3
 40
0.0
  9
$USERR4
 40
0.0
  9
$USERR5
 40
0.0
  9
$WORLDVIEW
 70
     1
  9
$SHADEDGE
 70
     3
  9
$SHADEDIF
 70
    70
  9
$TILEMODE
 70
     1
  9
$MAXACTVP
 70
    16
  9
$PLIMCHECK
 70
     0
  9
$PEXTMIN
 10
1.0000000000000000E+020
 20
1.0000000000000000E+020
 30
1.0000000000000000E+020
  9
$PEXTMAX
 10
-1.0000000000000000E+020
 20
-1.0000000000000000E+020
 30
-1.0000000000000000E+020
  9
$PLIMMIN
 10
0.0
 20
0.0
  9
$PLIMMAX
 10
12.0
 20
9.0
  9
$UNITMODE
 70
     0
  9
$VISRETAIN
 70
     0
  9
$PLINEGEN
 70
     0
  9
$PSLTSCALE
 70
     0
  0
ENDSEC
  0
SECTION
  2
TABLES
  0
TABLE
  2
VPORT
 70
     1
  0
VPORT
  2
*ACTIVE
 70
     0
 10
0.0
 20
0.0
 11
1.0
 21
1.0
 12
97.52905416604365
 22
66.75636307133405
 13
0.0
 23
0.0
 14
5.0
 24
5.0
 15
5.0
 25
5.0
 16
0.0
 26
0.0
 36
1.0
 17
0.0
 27
0.0
 37
0.0
 40
137.71137496815999
 41
1.831871345029239
 42
50.0
 43
0.0
 44
0.0
 50
0.0
 51
0.0
 71
     0
 72
   100
 73
     1
 74
     0
 75
     0
 76
     0
 77
     0
 78
     0
  0
ENDTAB
  0
TABLE
  2
LTYPE
 70
     4
  0
LTYPE
  2
CONTINUOUS
 70
     0
  3
Solid Line
 72
    65
 73
     0
 40
0.0
  0
LTYPE
  2
CENTER
 70
     0
  3
____ _ ____ _ ____ _ ____ _ ____ _ ____ _ ____
 72
    65
 73
     4
 40
2.0
 49
1.25
 49
-0.25
 49
0.25
 49
-0.25
  0
LTYPE
  2
HIDDEN
 70
     0
  3
_ _ _ _ _ _ _ _ _ _ _ _ _ _ _ _ _ _ _ _ _ _ _
 72
    65
 73
     2
 40
0.375
 49
0.25
 49
-0.125
  0
LTYPE
  2
PHANTOM2
 70
     0
  3
___ _ _ ___ _ _ ___ _ _ ___ _ _
 72
    65
 73
     6
 40
1.25
 49
0.625
 49
-0.125
 49
0.125
 49
-0.125
 49
0.125
 49
-0.125
  0
ENDTAB
  0
TABLE
  2
LAYER
 70
     4
  0
LAYER
  2
0
 70
     0
 62
     7
  6
CONTINUOUS
  0
LAYER
  2
1
 70
     0
 62
     1
  6
CENTER
  0
LAYER
  2
3
 70
     0
 62
     3
  6
CONTINUOUS
  0
LAYER
  2
2
 70
     0
 62
     2
  6
HIDDEN
  0
ENDTAB
  0
TABLE
  2
STYLE
 70
     2
  0
STYLE
  2
STANDARD
 70
     0
 40
0.0
 41
1.0
 50
0.0
 71
     0
 42
4.0
  3
TXT
  4
BIGFONT
  0
STYLE
  2
STANDARD1
 70
     0
 40
0.0
 41
1.0
 50
0.0
 71
     0
 42
3.0
  3
txt
  4

  0
ENDTAB
  0
TABLE
  2
VIEW
 70
     1
  0
VIEW
  2
ALL
 70
     0
 40
179.66152299999999
 10
141.903918
 20
89.830760999999995
 41
0.0
 11
0.0
 21
0.0
 31
1.0
 12
0.0
 22
0.0
 32
0.0
 42
0.0
 43
0.0
 44
0.0
 50
0.0
 71
     0
  0
ENDTAB
  0
TABLE
  2
UCS
 70
     0
  0
ENDTAB
  0
TABLE
  2
APPID
 70
     4
  0
APPID
  2
ACAD
 70
     0
  0
APPID
  2
DCO15
 70
     0
  0
APPID
  2
ACAD_MLEADERVER
 70
     0
  0
APPID
  2
ACAD_NAV_VCDISPLAY
 70
     0
  0
ENDTAB
  0
TABLE
  2
DIMSTYLE
 70
     1
  0
DIMSTYLE
  2
STANDARD
 70
     0
  3

  4

  5

  6

  7

 40
1.0
 41
0.18
 42
0.0625
 43
0.38
 44
0.18
 45
0.0
 46
0.0
 47
0.0
 48
0.0
140
0.18
141
0.09
142
0.0
143
25.399999999999999
144
1.0
145
0.0
146
1.0
147
0.09
 71
     0
 72
     0
 73
     1
 74
     1
 75
     0
 76
     0
 77
     0
 78
     0
170
     0
171
     2
172
     0
173
     0
174
     0
175
     0
176
     0
177
     0
178
     0
  0
ENDTAB
  0
ENDSEC
  0
SECTION
  2
BLOCKS
  0
BLOCK
  8
0
  2
$MODEL_SPACE
 70
     0
 10
0.0
 20
0.0
 30
0.0
  3
$MODEL_SPACE
  1

  0
ENDBLK
  5
1BD
  8
0
  0
BLOCK
 67
     1
  8
0
  2
$PAPER_SPACE
 70
     0
 10
0.0
 20
0.0
 30
0.0
  3
$PAPER_SPACE
  1

  0
ENDBLK
  5
1BB
 67
     1
  8
0
  0
ENDSEC
  0
SECTION
  2
ENTITIES
  0
LINE
  5
131F
  8
0
 10
35.201606604965583
 20
13.29001066380973
 30
0.0
 11
35.201606604965583
 21
16.290010663809738
 31
0.0
  0
LINE
  5
1320
  8
1
 10
34.934139026320707
 20
17.540010663809731
 30
0.0
 11
34.934139026320707
 21
12.04001066380969
 31
0.0
  0
ARC
  5
1321
  8
2
 10
34.934139026320707
 20
14.79001066380971
 30
0.0
 40
1.25000000000002
 50
57.725638391666926
 51
302.27436160833309
  0
LINE
  5
1322
  8
0
 10
35.201606604965583
 20
16.290010663809731
 30
0.0
 11
34.701606604965598
 21
16.790010663809721
 31
0.0
  0
ARC
  5
1323
  8
0
 10
34.934139026320707
 20
14.79001066380971
 30
0.0
 40
1.25000000000002
 50
46.054480437691623
 51
57.725638391667523
  0
ARC
  5
1324
  8
0
 10
34.934139026320707
 20
14.79001066380973
 30
0.0
 40
1.25000000000002
 50
302.27436160833253
 51
313.9455195623089
  0
LINE
  5
1325
  8
0
 10
34.701606604965598
 20
12.790010663809721
 30
0.0
 11
34.701606604965598
 21
16.790010663809721
 31
0.0
  0
LINE
  5
1326
  8
0
 10
35.601606604965582
 20
13.29001066380973
 30
0.0
 11
35.601606604965582
 21
16.290010663809738
 31
0.0
  0
LINE
  5
1327
  8
0
 10
35.801606604965571
 20
13.89001066380972
 30
0.0
 11
35.801606604965571
 21
15.690010663809719
 31
0.0
  0
LINE
  5
1328
  8
0
 10
35.201606604965583
 20
16.290010663809738
 30
0.0
 11
35.601606604965582
 21
16.290010663809738
 31
0.0
  0
LINE
  5
1329
  8
0
 10
35.201606604965583
 20
13.290010663809721
 30
0.0
 11
35.601606604965582
 21
13.290010663809721
 31
0.0
  0
LINE
  5
132A
  8
0
 10
35.201606604965583
 20
13.29001066380973
 30
0.0
 11
34.701606604965598
 21
12.79001066380974
 31
0.0
  0
LINE
  5
132B
  8
0
 10
35.201606604965569
 20
26.256267402349479
 30
0.0
 11
34.701606604965598
 21
25.75626740234949
 31
0.0
  0
LINE
  5
132C
  8
0
 10
35.201606604965569
 20
26.256267402349469
 30
0.0
 11
35.601606604965582
 21
26.256267402349469
 31
0.0
  0
LINE
  5
132D
  8
0
 10
35.201606604965569
 20
29.256267402349479
 30
0.0
 11
35.601606604965582
 21
29.256267402349479
 31
0.0
  0
LINE
  5
132E
  8
0
 10
35.801606604965571
 20
26.85626740234947
 30
0.0
 11
35.801606604965571
 21
28.65626740234946
 31
0.0
  0
LINE
  5
132F
  8
0
 10
35.601606604965582
 20
26.256267402349479
 30
0.0
 11
35.601606604965582
 21
29.256267402349479
 31
0.0
  0
LINE
  5
1330
  8
0
 10
34.701606604965598
 20
25.756267402349462
 30
0.0
 11
34.701606604965598
 21
29.756267402349462
 31
0.0
  0
ARC
  5
1331
  8
0
 10
34.934139026320707
 20
27.756267402349469
 30
0.0
 40
1.25000000000002
 50
302.27436160833253
 51
313.9455195623089
  0
ARC
  5
1332
  8
0
 10
34.934139026320707
 20
27.756267402349451
 30
0.0
 40
1.25000000000002
 50
46.054480437691623
 51
57.725638391667523
  0
LINE
  5
1333
  8
0
 10
35.201606604965569
 20
29.256267402349469
 30
0.0
 11
34.701606604965598
 21
29.756267402349462
 31
0.0
  0
ARC
  5
1334
  8
2
 10
34.934139026320707
 20
27.756267402349451
 30
0.0
 40
1.25000000000002
 50
57.725638391666926
 51
302.27436160833309
  0
LINE
  5
1335
  8
1
 10
34.934139026320707
 20
30.506267402349469
 30
0.0
 11
34.934139026320707
 21
25.00626740234943
 31
0.0
  0
LINE
  5
1336
  8
0
 10
35.201606604965583
 20
26.256267402349479
 30
0.0
 11
35.201606604965583
 21
29.256267402349479
 31
0.0
  0
LINE
  5
1337
  8
2
 10
30.568273271089371
 20
14.79001066380973
 30
0.0
 11
29.901606604965561
 21
15.79001066380973
 31
0.0
  0
LINE
  5
1338
  8
2
 10
29.901606604965469
 20
13.79001066380973
 30
0.0
 11
30.568273271089371
 21
14.79001066380973
 31
0.0
  0
LINE
  5
1339
  8
1
 10
26.401606604965579
 20
14.79001066380973
 30
0.0
 11
37.301606604965571
 21
14.79001066380973
 31
0.0
  0
LINE
  5
133A
  8
2
 10
27.901606604965639
 20
15.79001066380973
 30
0.0
 11
29.901606604965579
 21
15.790010663809779
 31
0.0
  0
LINE
  5
133B
  8
2
 10
27.901606604965639
 20
14.79001066380973
 30
0.0
 11
29.901606604965579
 21
14.79001066380973
 31
0.0
  0
LINE
  5
133C
  8
2
 10
27.901606604965579
 20
13.79001066380973
 30
0.0
 11
29.901606604965469
 21
13.79001066380973
 31
0.0
  0
LINE
  5
133D
  8
2
 10
29.901606604965561
 20
15.79001066380973
 30
0.0
 11
29.90160660496548
 21
13.79001066380973
 31
0.0
  0
LINE
  5
133E
  8
3
 10
27.98279085294347
 20
16.411010663817351
 30
0.0
 11
35.080606604957971
 21
16.41101066381734
 31
0.0
  0
LINE
  5
133F
  8
3
 10
27.98279085294347
 20
13.16901066380216
 30
0.0
 11
35.080606604958021
 21
13.16901066380216
 31
0.0
  0
LINE
  5
1340
  8
0
 10
28.201606604965651
 20
16.790010663816119
 30
0.0
 11
27.9016066049657
 21
16.270395421545452
 31
0.0
  0
LINE
  5
1341
  8
0
 10
28.20160660496559
 20
12.790010663803271
 30
0.0
 11
27.9016066049657
 21
13.30962590607389
 31
0.0
  0
LINE
  5
1342
  8
0
 10
28.201606604965651
 20
16.790010663816119
 30
0.0
 11
28.201606604965711
 21
12.79001066380339
 31
0.0
  0
LINE
  5
1343
  8
0
 10
28.201606604965651
 20
16.790010663816119
 30
0.0
 11
34.701606604959203
 21
16.790010663816119
 31
0.0
  0
LINE
  5
1344
  8
0
 10
28.201606604965711
 20
12.79001066380339
 30
0.0
 11
34.701606604959231
 21
12.790010663803359
 31
0.0
  0
LINE
  5
1345
  8
0
 10
27.901606604965579
 20
16.270395421545331
 30
0.0
 11
27.901606604965579
 21
13.309625906074119
 31
0.0
  0
CIRCLE
  5
1346
  8
0
 10
50.801606604965578
 20
27.756267402349479
 30
0.0
 40
1.056876071948806
  0
CIRCLE
  5
1347
  8
0
 10
50.801606604965578
 20
27.756267402349479
 30
0.0
 40
0.8999999999999914
  0
CIRCLE
  5
1348
  8
0
 10
50.801606604965578
 20
27.756267402349479
 30
0.0
 40
1.497306551501544
  0
LINE
  5
1349
  8
1
 10
50.801606604965578
 20
24.256267402349479
 30
0.0
 11
50.801606604965578
 21
31.256267402349479
 31
0.0
  0
LINE
  5
134A
  8
1
 10
47.301606604965571
 20
27.756267402349479
 30
0.0
 11
54.301606604965571
 21
27.756267402349479
 31
0.0
  0
CIRCLE
  5
134B
  8
0
 10
50.801606604965578
 20
27.756267402349479
 30
0.0
 40
2.0
  0
CIRCLE
  5
134C
  8
3
 10
50.801606604965578
 20
27.756267402349479
 30
0.0
 40
1.6210000000076259
  0
CIRCLE
  5
134D
  8
3
 10
12.901606604965581
 20
27.756267402349469
 30
0.0
 40
1.6210000000076259
  0
LINE
  5
134E
  8
0
 10
27.901606604965579
 20
29.236652160085079
 30
0.0
 11
27.901606604965579
 21
26.275882644613858
 31
0.0
  0
LINE
  5
134F
  8
0
 10
28.201606604965711
 20
25.756267402343131
 30
0.0
 11
34.701606604959231
 21
25.756267402343099
 31
0.0
  0
LINE
  5
1350
  8
0
 10
28.201606604965651
 20
29.75626740235586
 30
0.0
 11
34.701606604965598
 21
29.75626740235586
 31
0.0
  0
LINE
  5
1351
  8
0
 10
28.201606604965651
 20
29.75626740235586
 30
0.0
 11
28.201606604965711
 21
25.756267402343131
 31
0.0
  0
LINE
  5
1352
  8
0
 10
28.20160660496559
 20
25.75626740234302
 30
0.0
 11
27.9016066049657
 21
26.275882644613642
 31
0.0
  0
LINE
  5
1353
  8
0
 10
28.201606604965651
 20
29.75626740235586
 30
0.0
 11
27.9016066049657
 21
29.236652160085189
 31
0.0
  0
LINE
  5
1354
  8
3
 10
27.98279085294347
 20
26.135267402341899
 30
0.0
 11
35.080606604958021
 21
26.135267402341899
 31
0.0
  0
LINE
  5
1355
  8
3
 10
27.98279085294347
 20
29.377267402357099
 30
0.0
 11
35.08060660495795
 21
29.377267402357091
 31
0.0
  0
LINE
  5
1356
  8
2
 10
29.901606604965579
 20
28.910967939788382
 30
0.0
 11
29.901606604965469
 21
26.601566864910389
 31
0.0
  0
LINE
  5
1357
  8
2
 10
27.901606604965579
 20
26.601566864910389
 30
0.0
 11
29.901606604965469
 21
26.601566864910389
 31
0.0
  0
LINE
  5
1358
  8
2
 10
27.901606604965579
 20
27.178917133630168
 30
0.0
 11
29.901606604965519
 21
27.178917133630168
 31
0.0
  0
LINE
  5
1359
  8
2
 10
27.901606604965639
 20
28.333617671069
 30
0.0
 11
29.901606604965579
 21
28.333617671069
 31
0.0
  0
LINE
  5
135A
  8
2
 10
27.901606604965639
 20
28.910967939788328
 30
0.0
 11
29.901606604965579
 21
28.910967939788382
 31
0.0
  0
LINE
  5
135B
  8
2
 10
29.901606604965469
 20
26.601566864910438
 30
0.0
 11
30.56827327108936
 21
27.756267402349501
 31
0.0
  0
LINE
  5
135C
  8
2
 10
29.901606604965579
 20
28.910967939788382
 30
0.0
 11
30.56827327108936
 21
27.756267402349501
 31
0.0
  0
CIRCLE
  5
135D
  8
0
 10
12.901606604965581
 20
27.756267402349469
 30
0.0
 40
2.0
  0
LINE
  5
135E
  8
0
 10
12.901606604965581
 20
26.60156686397022
 30
0.0
 11
11.901606604965581
 21
27.17891713315985
 31
0.0
  0
LINE
  5
135F
  8
0
 10
13.901606604965581
 20
27.17891713315985
 30
0.0
 11
12.901606604965581
 21
26.60156686397022
 31
0.0
  0
LINE
  5
1360
  8
0
 10
11.901606604965581
 20
27.17891713315985
 30
0.0
 11
11.901606604965581
 21
28.333617671539091
 31
0.0
  0
LINE
  5
1361
  8
0
 10
11.901606604965581
 20
28.333617671539091
 30
0.0
 11
12.901606604965581
 21
28.910967940728721
 31
0.0
  0
LINE
  5
1362
  8
0
 10
12.901606604965581
 20
28.910967940728721
 30
0.0
 11
13.901606604965581
 21
28.333617671539091
 31
0.0
  0
LINE
  5
1363
  8
0
 10
13.901606604965581
 20
28.333617671539091
 30
0.0
 11
13.901606604965581
 21
27.17891713315985
 31
0.0
  0
LINE
  5
1364
  8
1
 10
9.4016066049655791
 20
27.756267402349469
 30
0.0
 11
16.401606604965579
 21
27.756267402349469
 31
0.0
  0
LINE
  5
1365
  8
1
 10
12.901606604965581
 20
24.256267402349469
 30
0.0
 11
12.901606604965581
 21
31.256267402349469
 31
0.0
  0
LINE
  5
1366
  8
1
 10
26.401606604965579
 20
27.756267402349469
 30
0.0
 11
37.301606604965571
 21
27.756267402349479
 31
0.0
  0
TEXT
  5
1420
  8
0
 62
     3
 10
0.0
 20
0.0
 30
0.0
 40
5.0
  1
BSFJ4X8
  7
STANDARD1
  0
ENDSEC
  0
EOF
