  0
SECTION
  2
HEADER
  9
$ACADVER
  1
AC1009
  9
$INSBASE
 10
0.0
 20
0.0
 30
0.0
  9
$EXTMIN
 10
0.0
 20
-1.4802182810368341
 30
0.0
  9
$EXTMAX
 10
67.4541745209346
 20
60.096747601918487
 30
0.0
  9
$LIMMIN
 10
0.0
 20
0.0
  9
$LIMMAX
 10
75.0
 20
54.0
  9
$ORTHOMODE
 70
     1
  9
$REGENMODE
 70
     1
  9
$FILLMODE
 70
     1
  9
$QTEXTMODE
 70
     0
  9
$MIRRTEXT
 70
     0
  9
$DRAGMODE
 70
     2
  9
$LTSCALE
 40
2.0
  9
$OSMODE
 70
  3071
  9
$ATTMODE
 70
     1
  9
$TEXTSIZE
 40
2.5000000000000488
  9
$TRACEWID
 40
0.05
  9
$TEXTSTYLE
  7
STANDARD
  9
$CLAYER
  8
0
  9
$CELTYPE
  6
BYLAYER
  9
$CECOLOR
 62
   256
  9
$DIMSCALE
 40
0.2
  9
$DIMASZ
 40
3.0
  9
$DIMEXO
 40
2.0
  9
$DIMDLI
 40
0.38
  9
$DIMRND
 40
0.0
  9
$DIMDLE
 40
0.0
  9
$DIMEXE
 40
2.0
  9
$DIMTP
 40
0.0
  9
$DIMTM
 40
0.0
  9
$DIMTXT
 40
3.2000000000000002
  9
$DIMCEN
 40
0.0
  9
$DIMTSZ
 40
0.0
  9
$DIMTOL
 70
     0
  9
$DIMLIM
 70
     0
  9
$DIMTIH
 70
     0
  9
$DIMTOH
 70
     0
  9
$DIMSE1
 70
     0
  9
$DIMSE2
 70
     0
  9
$DIMTAD
 70
     1
  9
$DIMZIN
 70
     0
  9
$DIMBLK
  1

  9
$DIMASO
 70
     0
  9
$DIMSHO
 70
     0
  9
$DIMPOST
  1

  9
$DIMAPOST
  1

  9
$DIMALT
 70
     0
  9
$DIMALTD
 70
     2
  9
$DIMALTF
 40
25.399999999999999
  9
$DIMLFAC
 40
1.0
  9
$DIMTOFL
 70
     1
  9
$DIMTVP
 40
1.6000000000000001
  9
$DIMTIX
 70
     1
  9
$DIMSOXD
 70
     0
  9
$DIMSAH
 70
     0
  9
$DIMBLK1
  1

  9
$DIMBLK2
  1

  9
$DIMSTYLE
  2
STANDARD
  9
$DIMCLRD
 70
     0
  9
$DIMCLRE
 70
     0
  9
$DIMCLRT
 70
     0
  9
$DIMTFAC
 40
1.0
  9
$DIMGAP
 40
0.09
  9
$LUNITS
 70
     2
  9
$LUPREC
 70
     4
  9
$SKETCHINC
 40
0.1
  9
$FILLETRAD
 40
0.0
  9
$AUNITS
 70
     0
  9
$AUPREC
 70
     4
  9
$MENU
  1
E:\r13\win\SUPPORT\ACAD
  9
$ELEVATION
 40
0.0
  9
$PELEVATION
 40
0.0
  9
$THICKNESS
 40
0.0
  9
$LIMCHECK
 70
     0
  9
$BLIPMODE
 70
     0
  9
$CHAMFERA
 40
0.0
  9
$CHAMFERB
 40
0.0
  9
$SKPOLY
 70
     0
  9
$TDCREATE
 40
2449840.6208796301
  9
$TDUPDATE
 40
2456602.6114507988
  9
$TDINDWG
 40
0.0006478125
  9
$TDUSRTIMER
 40
2456598.4142101742
  9
$USRTIMER
 70
     1
  9
$ANGBASE
 50
0.0
  9
$ANGDIR
 70
     0
  9
$PDMODE
 70
     0
  9
$PDSIZE
 40
0.0
  9
$PLINEWID
 40
0.0
  9
$COORDS
 70
     1
  9
$SPLFRAME
 70
     0
  9
$SPLINETYPE
 70
     6
  9
$SPLINESEGS
 70
     8
  9
$ATTDIA
 70
     0
  9
$ATTREQ
 70
     1
  9
$HANDLING
 70
     1
  9
$HANDSEED
  5
226
  9
$SURFTAB1
 70
     6
  9
$SURFTAB2
 70
     6
  9
$SURFTYPE
 70
     6
  9
$SURFU
 70
     6
  9
$SURFV
 70
     6
  9
$UCSNAME
  2

  9
$UCSORG
 10
0.0
 20
0.0
 30
0.0
  9
$UCSXDIR
 10
1.0
 20
0.0
 30
0.0
  9
$UCSYDIR
 10
0.0
 20
1.0
 30
0.0
  9
$PUCSNAME
  2

  9
$PUCSORG
 10
0.0
 20
0.0
 30
0.0
  9
$PUCSXDIR
 10
1.0
 20
0.0
 30
0.0
  9
$PUCSYDIR
 10
0.0
 20
1.0
 30
0.0
  9
$USERI1
 70
     0
  9
$USERI2
 70
     1
  9
$USERI3
 70
     0
  9
$USERI4
 70
     0
  9
$USERI5
 70
     0
  9
$USERR1
 40
0.0
  9
$USERR2
 40
0.0
  9
$USERR3
 40
0.0
  9
$USERR4
 40
0.0
  9
$USERR5
 40
0.0
  9
$WORLDVIEW
 70
     1
  9
$SHADEDGE
 70
     3
  9
$SHADEDIF
 70
    70
  9
$TILEMODE
 70
     1
  9
$MAXACTVP
 70
    16
  9
$PLIMCHECK
 70
     0
  9
$PEXTMIN
 10
1.0000000000000000E+020
 20
1.0000000000000000E+020
 30
1.0000000000000000E+020
  9
$PEXTMAX
 10
-1.0000000000000000E+020
 20
-1.0000000000000000E+020
 30
-1.0000000000000000E+020
  9
$PLIMMIN
 10
0.0
 20
0.0
  9
$PLIMMAX
 10
12.0
 20
9.0
  9
$UNITMODE
 70
     0
  9
$VISRETAIN
 70
     0
  9
$PLINEGEN
 70
     0
  9
$PSLTSCALE
 70
     0
  0
ENDSEC
  0
SECTION
  2
TABLES
  0
TABLE
  2
VPORT
 70
     1
  0
VPORT
  2
*ACTIVE
 70
     0
 10
0.0
 20
0.0
 11
1.0
 21
1.0
 12
39.036165471588582
 22
26.259658875478959
 13
0.0
 23
0.0
 14
2.0
 24
2.0
 15
2.0
 25
2.0
 16
0.0
 26
0.0
 36
1.0
 17
0.0
 27
0.0
 37
0.0
 40
55.978266843203883
 41
1.831871345029239
 42
50.0
 43
0.0
 44
0.0
 50
0.0
 51
0.0
 71
     0
 72
   500
 73
     1
 74
     0
 75
     0
 76
     0
 77
     0
 78
     2
  0
ENDTAB
  0
TABLE
  2
LTYPE
 70
     4
  0
LTYPE
  2
CONTINUOUS
 70
     0
  3
Solid Line
 72
    65
 73
     0
 40
0.0
  0
LTYPE
  2
CENTER
 70
     0
  3
____ _ ____ _ ____ _ ____ _ ____ _ ____ _ ____
 72
    65
 73
     4
 40
2.0
 49
1.25
 49
-0.25
 49
0.25
 49
-0.25
  0
LTYPE
  2
HIDDEN
 70
     0
  3
_ _ _ _ _ _ _ _ _ _ _ _ _ _ _ _ _ _ _ _ _ _ _
 72
    65
 73
     2
 40
0.375
 49
0.25
 49
-0.125
  0
LTYPE
  2
PHANTOM2
 70
     0
  3
___ _ _ ___ _ _ ___ _ _ ___ _ _
 72
    65
 73
     6
 40
1.25
 49
0.625
 49
-0.125
 49
0.125
 49
-0.125
 49
0.125
 49
-0.125
  0
ENDTAB
  0
TABLE
  2
LAYER
 70
     4
  0
LAYER
  2
0
 70
     0
 62
     7
  6
CONTINUOUS
  0
LAYER
  2
1
 70
     0
 62
     1
  6
CENTER
  0
LAYER
  2
2
 70
     0
 62
     2
  6
HIDDEN
  0
LAYER
  2
3
 70
     0
 62
     3
  6
CONTINUOUS
  0
ENDTAB
  0
TABLE
  2
STYLE
 70
     2
  0
STYLE
  2
STANDARD
 70
     0
 40
0.0
 41
1.0
 50
0.0
 71
     0
 42
2.5000000000000488
  3
TXT
  4
BIGFONT
  0
STYLE
  2
STANDARD1
 70
     0
 40
0.0
 41
1.0
 50
0.0
 71
     0
 42
3.0
  3
txt
  4

  0
ENDTAB
  0
TABLE
  2
VIEW
 70
     1
  0
VIEW
  2
ALL
 70
     0
 40
87.5
 10
71.617647058823522
 20
43.75
 41
0.0
 11
0.0
 21
0.0
 31
1.0
 12
0.0
 22
0.0
 32
0.0
 42
0.0
 43
0.0
 44
0.0
 50
0.0
 71
     0
  0
ENDTAB
  0
TABLE
  2
UCS
 70
     0
  0
ENDTAB
  0
TABLE
  2
APPID
 70
     3
  0
APPID
  2
ACAD
 70
     0
  0
APPID
  2
ACAD_MLEADERVER
 70
     0
  0
APPID
  2
ACAD_NAV_VCDISPLAY
 70
     0
  0
ENDTAB
  0
TABLE
  2
DIMSTYLE
 70
     1
  0
DIMSTYLE
  2
STANDARD
 70
     0
  3

  4

  5

  6

  7

 40
1.0
 41
0.18
 42
0.0625
 43
0.38
 44
0.18
 45
0.0
 46
0.0
 47
0.0
 48
0.0
140
0.18
141
0.09
142
0.0
143
25.399999999999999
144
1.0
145
0.0
146
1.0
147
0.09
 71
     0
 72
     0
 73
     1
 74
     1
 75
     0
 76
     0
 77
     0
 78
     0
170
     0
171
     2
172
     0
173
     0
174
     0
175
     0
176
     0
177
     0
178
     0
  0
ENDTAB
  0
ENDSEC
  0
SECTION
  2
BLOCKS
  0
BLOCK
  8
0
  2
$MODEL_SPACE
 70
     0
 10
0.0
 20
0.0
 30
0.0
  3
$MODEL_SPACE
  1

  0
ENDBLK
  5
CB
  8
0
  0
BLOCK
 67
     1
  8
0
  2
$PAPER_SPACE
 70
     0
 10
0.0
 20
0.0
 30
0.0
  3
$PAPER_SPACE
  1

  0
ENDBLK
  5
C9
 67
     1
  8
0
  0
ENDSEC
  0
SECTION
  2
ENTITIES
  0
CIRCLE
  5
36
  8
3
 10
12.174977956756781
 20
37.5814598321343
 30
0.0
 40
3.3235000000002231
  0
CIRCLE
  5
37
  8
0
 10
12.174977956756781
 20
37.5814598321343
 30
0.0
 40
4.000000000000056
  0
LINE
  5
38
  8
0
 10
14.17497795512808
 20
38.736160369574371
 30
0.0
 11
14.17497795512808
 21
36.426759292816001
 31
0.0
  0
LINE
  5
39
  8
0
 10
14.174977955126259
 20
36.426759294694563
 30
0.0
 11
12.17497795512808
 21
35.272058756315033
 31
0.0
  0
LINE
  5
3A
  8
0
 10
12.17497795675607
 20
35.272058757256353
 30
0.0
 11
10.17497795675607
 21
36.4267592956352
 31
0.0
  0
LINE
  5
3B
  8
0
 10
10.174977958384069
 20
36.426759294695692
 30
0.0
 11
10.174977958384069
 21
38.736160371454069
 31
0.0
  0
LINE
  5
3C
  8
0
 10
10.174977958384069
 20
38.736160369574151
 30
0.0
 11
12.174977958384069
 21
39.89086090795368
 31
0.0
  0
LINE
  5
3D
  8
0
 10
12.17497795675607
 20
39.890860907012353
 30
0.0
 11
14.17497795675607
 21
38.736160368633499
 31
0.0
  0
LINE
  5
3E
  8
2
 10
31.97058787624194
 20
39.890860907013241
 30
0.0
 11
33.303921208490188
 21
37.581459832134271
 31
0.0
  0
LINE
  5
3F
  8
2
 10
31.97058787624194
 20
35.272058757255309
 30
0.0
 11
33.303921208490138
 21
37.581459832134271
 31
0.0
  0
LINE
  5
40
  8
0
 10
28.57058787624193
 20
33.581459832134271
 30
0.0
 11
45.638537068673052
 21
33.58145983213425
 31
0.0
  0
LINE
  5
41
  8
0
 10
28.57058787624193
 20
41.581459832134271
 30
0.0
 11
45.63853706867301
 21
41.581459832134307
 31
0.0
  0
LINE
  5
42
  8
3
 10
28.180010419135229
 20
40.904959832134409
 30
0.0
 11
46.847087876241929
 21
40.904959832134402
 31
0.0
  0
LINE
  5
43
  8
3
 10
28.180010419135339
 20
34.257959832134141
 30
0.0
 11
46.847087876241929
 21
34.257959832134127
 31
0.0
  0
LINE
  5
44
  8
0
 10
28.57058787624193
 20
33.581459832134271
 30
0.0
 11
28.57058787624193
 21
41.581459832134271
 31
0.0
  0
LINE
  5
45
  8
0
 10
27.97058787624194
 20
34.620690316675677
 30
0.0
 11
27.970587876241972
 21
40.542229347592972
 31
0.0
  0
LINE
  5
46
  8
0
 10
47.370587876241991
 20
34.5814598321343
 30
0.0
 11
47.370587876241899
 21
40.581459832134271
 31
0.0
  0
LINE
  5
47
  8
2
 10
31.97058787624194
 20
35.272058757255373
 30
0.0
 11
31.97058787624194
 21
39.890860907013177
 31
0.0
  0
LINE
  5
48
  8
0
 10
27.970587876241972
 20
40.542229347592972
 30
0.0
 11
28.57058787624193
 21
41.581459832134321
 31
0.0
  0
LINE
  5
49
  8
0
 10
27.97058787624194
 20
34.620690316675677
 30
0.0
 11
28.570587876242019
 21
33.581459832134328
 31
0.0
  0
LINE
  5
4A
  8
2
 10
27.970587876241911
 20
35.272058757255373
 30
0.0
 11
31.970587876241972
 21
35.272058757255373
 31
0.0
  0
LINE
  5
4B
  8
2
 10
27.97058787624194
 20
36.426759294695557
 30
0.0
 11
31.97058787624194
 21
36.426759294695557
 31
0.0
  0
LINE
  5
4C
  8
2
 10
27.97058787624194
 20
38.736160369572929
 30
0.0
 11
31.97058787624194
 21
38.736160369572929
 31
0.0
  0
LINE
  5
4D
  8
2
 10
27.970587876241911
 20
39.890860907013177
 30
0.0
 11
31.970587876241972
 21
39.890860907013177
 31
0.0
  0
LINE
  5
4E
  8
1
 10
48.970587876241922
 20
37.581459832134293
 30
0.0
 11
26.97058787624195
 21
37.5814598321343
 31
0.0
  0
LINE
  5
4F
  8
0
 10
47.370587876241942
 20
40.581459832134279
 30
0.0
 11
45.63853706867301
 21
41.581459832134307
 31
0.0
  0
LINE
  5
50
  8
0
 10
45.638537068673031
 20
41.581459832134321
 30
0.0
 11
45.638537068673052
 21
33.581459832134257
 31
0.0
  0
LINE
  5
51
  8
0
 10
45.638537068673052
 20
33.581459832134257
 30
0.0
 11
47.370587876241977
 21
34.581459832134293
 31
0.0
  0
ARC
  5
52
  8
2
 10
46.470587876241879
 20
37.581459832134293
 30
0.0
 40
2.75
 50
69.790454626246273
 51
290.20954537375587
  0
ARC
  5
53
  8
0
 10
46.470587876241858
 20
37.581459832134293
 30
0.0
 40
2.75
 50
56.944268849137693
 51
69.790454626243729
  0
LINE
  5
54
  8
0
 10
47.9705878762419
 20
35.276573717811722
 30
0.0
 11
47.970587876241943
 21
39.886345946457332
 31
0.0
  0
ARC
  5
55
  8
0
 10
46.470587876241858
 20
37.581459832134293
 30
0.0
 40
2.75
 50
290.20954537375633
 51
303.05573115086281
  0
LINE
  5
56
  8
1
 10
46.470587876241879
 20
41.331459832134392
 30
0.0
 11
46.470587876241879
 21
33.831459832134371
 31
0.0
  0
CIRCLE
  5
60
  8
0
 10
62.454174520934551
 20
37.5814598321343
 30
0.0
 40
4.000000000000056
  0
CIRCLE
  5
61
  8
3
 10
62.454174520934551
 20
37.5814598321343
 30
0.0
 40
3.3235000000002231
  0
CIRCLE
  5
62
  8
0
 10
62.454174520934536
 20
37.5814598321343
 30
0.0
 40
2.3048861143229571
  0
CIRCLE
  5
63
  8
0
 10
62.454174520934536
 20
37.5814598321343
 30
0.0
 40
2.598557292037138
  0
LINE
  5
64
  8
1
 10
17.174977956756841
 20
37.5814598321343
 30
0.0
 11
7.1749779567567282
 21
37.5814598321343
 31
0.0
  0
LINE
  5
65
  8
1
 10
12.174977956756781
 20
42.581459832134342
 30
0.0
 11
12.174977956756781
 21
32.581459832134243
 31
0.0
  0
LINE
  5
66
  8
1
 10
67.4541745209346
 20
37.5814598321343
 30
0.0
 11
57.454174520934487
 21
37.5814598321343
 31
0.0
  0
LINE
  5
67
  8
1
 10
62.454174520934551
 20
42.581459832134342
 30
0.0
 11
62.454174520934551
 21
32.581459832134243
 31
0.0
  0
LINE
  5
68
  8
1
 10
46.470587876241879
 20
59.846747601918572
 30
0.0
 11
46.470587876241879
 21
52.346747601918537
 31
0.0
  0
ARC
  5
69
  8
0
 10
46.470587876241858
 20
56.096747601918452
 30
0.0
 40
2.75
 50
290.20954537375633
 51
303.05573115086281
  0
LINE
  5
6A
  8
0
 10
47.9705878762419
 20
53.791861487595881
 30
0.0
 11
47.970587876241943
 21
58.401633716241498
 31
0.0
  0
ARC
  5
6B
  8
0
 10
46.470587876241858
 20
56.096747601918452
 30
0.0
 40
2.75
 50
56.944268849137693
 51
69.790454626243729
  0
ARC
  5
6C
  8
2
 10
46.470587876241879
 20
56.096747601918452
 30
0.0
 40
2.75
 50
69.790454626246273
 51
290.20954537375587
  0
LINE
  5
6D
  8
0
 10
45.638537068673052
 20
52.096747601918423
 30
0.0
 11
47.370587876241977
 21
53.096747601918452
 31
0.0
  0
LINE
  5
6E
  8
0
 10
45.638537068673031
 20
60.096747601918487
 30
0.0
 11
45.638537068673052
 21
52.096747601918423
 31
0.0
  0
LINE
  5
6F
  8
0
 10
47.370587876241942
 20
59.096747601918452
 30
0.0
 11
45.63853706867301
 21
60.09674760191848
 31
0.0
  0
LINE
  5
70
  8
1
 10
48.970587876241922
 20
56.096747601918452
 30
0.0
 11
26.97058787624195
 21
56.096747601918473
 31
0.0
  0
LINE
  5
71
  8
0
 10
27.97058787624194
 20
53.135978086459843
 30
0.0
 11
28.570587876242019
 21
52.096747601918487
 31
0.0
  0
LINE
  5
72
  8
0
 10
27.970587876241972
 20
59.057517117377138
 30
0.0
 11
28.57058787624193
 21
60.096747601918487
 31
0.0
  0
LINE
  5
73
  8
2
 10
31.97058787624194
 20
54.096747603545737
 30
0.0
 11
31.97058787624194
 21
58.096747600289753
 31
0.0
  0
LINE
  5
74
  8
0
 10
47.370587876241991
 20
53.096747601918459
 30
0.0
 11
47.370587876241899
 21
59.096747601918452
 31
0.0
  0
LINE
  5
75
  8
0
 10
27.97058787624194
 20
53.135978086459843
 30
0.0
 11
27.970587876241972
 21
59.057517117377138
 31
0.0
  0
LINE
  5
76
  8
0
 10
28.57058787624193
 20
52.096747601918437
 30
0.0
 11
28.57058787624193
 21
60.096747601918437
 31
0.0
  0
LINE
  5
77
  8
3
 10
28.180010419135339
 20
52.7732476019183
 30
0.0
 11
46.847087876241929
 21
52.7732476019183
 31
0.0
  0
LINE
  5
78
  8
3
 10
28.180010419135229
 20
59.420247601918568
 30
0.0
 11
46.847087876241929
 21
59.420247601918568
 31
0.0
  0
LINE
  5
79
  8
0
 10
28.57058787624193
 20
60.096747601918437
 30
0.0
 11
45.63853706867301
 21
60.09674760191848
 31
0.0
  0
LINE
  5
7A
  8
0
 10
28.57058787624193
 20
52.096747601918437
 30
0.0
 11
45.638537068673052
 21
52.096747601918423
 31
0.0
  0
LINE
  5
7B
  8
2
 10
27.970587876241972
 20
58.096747600289753
 30
0.0
 11
31.97058787624194
 21
58.096747600289753
 31
0.0
  0
LINE
  5
7C
  8
2
 10
27.97058787624195
 20
56.096747601918459
 30
0.0
 11
31.97058787624194
 21
56.096747601918473
 31
0.0
  0
LINE
  5
7D
  8
2
 10
27.97058787624194
 20
54.096747603545751
 30
0.0
 11
31.97058787624194
 21
54.096747603545751
 31
0.0
  0
LINE
  5
7E
  8
2
 10
31.97058787624194
 20
54.096747603545751
 30
0.0
 11
33.303921208490181
 21
56.096747601918459
 31
0.0
  0
LINE
  5
7F
  8
2
 10
33.303921208490181
 20
56.096747601918459
 30
0.0
 11
31.97058787624194
 21
58.096747600289753
 31
0.0
  0
LINE
  5
80
  8
2
 10
33.303921208490181
 20
20.24782673860911
 30
0.0
 11
31.97058787624194
 21
22.247826736980411
 31
0.0
  0
LINE
  5
81
  8
2
 10
31.97058787624194
 20
18.247826740236398
 30
0.0
 11
33.303921208490181
 21
20.24782673860911
 31
0.0
  0
LINE
  5
82
  8
2
 10
27.97058787624194
 20
18.247826740236398
 30
0.0
 11
31.97058787624194
 21
18.247826740236398
 31
0.0
  0
LINE
  5
83
  8
2
 10
27.97058787624195
 20
20.24782673860911
 30
0.0
 11
31.97058787624194
 21
20.24782673860912
 31
0.0
  0
LINE
  5
84
  8
2
 10
27.970587876241972
 20
22.247826736980411
 30
0.0
 11
31.97058787624194
 21
22.247826736980411
 31
0.0
  0
LINE
  5
85
  8
0
 10
28.57058787624193
 20
16.247826738609081
 30
0.0
 11
45.638537068673052
 21
16.247826738609071
 31
0.0
  0
LINE
  5
86
  8
0
 10
28.57058787624193
 20
24.247826738609088
 30
0.0
 11
45.63853706867301
 21
24.247826738609131
 31
0.0
  0
LINE
  5
87
  8
3
 10
28.180010419135229
 20
23.571326738609219
 30
0.0
 11
46.847087876241929
 21
23.571326738609219
 31
0.0
  0
LINE
  5
88
  8
3
 10
28.180010419135339
 20
16.924326738608951
 30
0.0
 11
46.847087876241929
 21
16.924326738608951
 31
0.0
  0
LINE
  5
89
  8
0
 10
28.57058787624193
 20
16.247826738609081
 30
0.0
 11
28.57058787624193
 21
24.247826738609088
 31
0.0
  0
LINE
  5
8A
  8
0
 10
27.97058787624194
 20
17.287057223150491
 30
0.0
 11
27.970587876241972
 21
23.208596254067789
 31
0.0
  0
LINE
  5
8B
  8
0
 10
47.370587876241991
 20
17.24782673860911
 30
0.0
 11
47.370587876241899
 21
23.247826738609099
 31
0.0
  0
LINE
  5
8C
  8
2
 10
31.97058787624194
 20
18.247826740236391
 30
0.0
 11
31.97058787624194
 21
22.247826736980411
 31
0.0
  0
LINE
  5
8D
  8
0
 10
27.970587876241972
 20
23.208596254067789
 30
0.0
 11
28.57058787624193
 21
24.247826738609142
 31
0.0
  0
LINE
  5
8E
  8
0
 10
27.97058787624194
 20
17.287057223150491
 30
0.0
 11
28.570587876242019
 21
16.247826738609142
 31
0.0
  0
LINE
  5
8F
  8
1
 10
48.970587876241922
 20
20.247826738609099
 30
0.0
 11
26.97058787624195
 21
20.24782673860912
 31
0.0
  0
LINE
  5
90
  8
0
 10
47.370587876241942
 20
23.247826738609099
 30
0.0
 11
45.63853706867301
 21
24.247826738609131
 31
0.0
  0
LINE
  5
91
  8
0
 10
45.638537068673031
 20
24.247826738609142
 30
0.0
 11
45.638537068673052
 21
16.247826738609071
 31
0.0
  0
LINE
  5
92
  8
0
 10
45.638537068673052
 20
16.247826738609071
 30
0.0
 11
47.370587876241977
 21
17.247826738609099
 31
0.0
  0
ARC
  5
93
  8
2
 10
46.470587876241879
 20
20.247826738609099
 30
0.0
 40
2.75
 50
69.790454626246273
 51
290.20954537375587
  0
ARC
  5
94
  8
0
 10
46.470587876241858
 20
20.247826738609099
 30
0.0
 40
2.75
 50
56.944268849137693
 51
69.790454626243729
  0
LINE
  5
95
  8
0
 10
47.9705878762419
 20
17.942940624286528
 30
0.0
 11
47.970587876241943
 21
22.552712852932149
 31
0.0
  0
ARC
  5
96
  8
0
 10
46.470587876241858
 20
20.247826738609099
 30
0.0
 40
2.75
 50
290.20954537375633
 51
303.05573115086281
  0
LINE
  5
97
  8
1
 10
46.470587876241879
 20
23.997826738609209
 30
0.0
 11
46.470587876241879
 21
16.497826738609181
 31
0.0
  0
TEXT
  5
186
  8
0
 62
     3
 10
0.0
 20
0.0
 30
0.0
 40
5.0
  1
BSF8X20
  7
STANDARD1
  0
ENDSEC
  0
EOF
