  0
SECTION
  2
HEADER
  9
$ACADVER
  1
AC1009
  9
$INSBASE
 10
0.0
 20
0.0
 30
0.0
  9
$EXTMIN
 10
0.0
 20
-1.4802182810368341
 30
0.0
  9
$EXTMAX
 10
69.480915398571113
 20
59.47576938449248
 30
0.0
  9
$LIMMIN
 10
0.0
 20
0.0
  9
$LIMMAX
 10
75.0
 20
54.0
  9
$ORTHOMODE
 70
     1
  9
$REGENMODE
 70
     1
  9
$FILLMODE
 70
     1
  9
$QTEXTMODE
 70
     0
  9
$MIRRTEXT
 70
     0
  9
$DRAGMODE
 70
     2
  9
$LTSCALE
 40
2.0
  9
$OSMODE
 70
  3071
  9
$ATTMODE
 70
     1
  9
$TEXTSIZE
 40
2.5000000000000488
  9
$TRACEWID
 40
0.05
  9
$TEXTSTYLE
  7
STANDARD
  9
$CLAYER
  8
0
  9
$CELTYPE
  6
BYLAYER
  9
$CECOLOR
 62
   256
  9
$DIMSCALE
 40
0.2
  9
$DIMASZ
 40
3.0
  9
$DIMEXO
 40
2.0
  9
$DIMDLI
 40
0.38
  9
$DIMRND
 40
0.0
  9
$DIMDLE
 40
0.0
  9
$DIMEXE
 40
2.0
  9
$DIMTP
 40
0.0
  9
$DIMTM
 40
0.0
  9
$DIMTXT
 40
3.2000000000000002
  9
$DIMCEN
 40
0.0
  9
$DIMTSZ
 40
0.0
  9
$DIMTOL
 70
     0
  9
$DIMLIM
 70
     0
  9
$DIMTIH
 70
     0
  9
$DIMTOH
 70
     0
  9
$DIMSE1
 70
     0
  9
$DIMSE2
 70
     0
  9
$DIMTAD
 70
     1
  9
$DIMZIN
 70
     0
  9
$DIMBLK
  1

  9
$DIMASO
 70
     0
  9
$DIMSHO
 70
     0
  9
$DIMPOST
  1

  9
$DIMAPOST
  1

  9
$DIMALT
 70
     0
  9
$DIMALTD
 70
     2
  9
$DIMALTF
 40
25.399999999999999
  9
$DIMLFAC
 40
1.0
  9
$DIMTOFL
 70
     1
  9
$DIMTVP
 40
1.6000000000000001
  9
$DIMTIX
 70
     1
  9
$DIMSOXD
 70
     0
  9
$DIMSAH
 70
     0
  9
$DIMBLK1
  1

  9
$DIMBLK2
  1

  9
$DIMSTYLE
  2
STANDARD
  9
$DIMCLRD
 70
     0
  9
$DIMCLRE
 70
     0
  9
$DIMCLRT
 70
     0
  9
$DIMTFAC
 40
1.0
  9
$DIMGAP
 40
0.09
  9
$LUNITS
 70
     2
  9
$LUPREC
 70
     4
  9
$SKETCHINC
 40
0.1
  9
$FILLETRAD
 40
0.0
  9
$AUNITS
 70
     0
  9
$AUPREC
 70
     4
  9
$MENU
  1
E:\r13\win\SUPPORT\ACAD
  9
$ELEVATION
 40
0.0
  9
$PELEVATION
 40
0.0
  9
$THICKNESS
 40
0.0
  9
$LIMCHECK
 70
     0
  9
$BLIPMODE
 70
     0
  9
$CHAMFERA
 40
0.0
  9
$CHAMFERB
 40
0.0
  9
$SKPOLY
 70
     0
  9
$TDCREATE
 40
2449840.6208564821
  9
$TDUPDATE
 40
2456602.6140524312
  9
$TDINDWG
 40
0.0007642708
  9
$TDUSRTIMER
 40
2456598.4144399301
  9
$USRTIMER
 70
     1
  9
$ANGBASE
 50
0.0
  9
$ANGDIR
 70
     0
  9
$PDMODE
 70
     0
  9
$PDSIZE
 40
0.0
  9
$PLINEWID
 40
0.0
  9
$COORDS
 70
     1
  9
$SPLFRAME
 70
     0
  9
$SPLINETYPE
 70
     6
  9
$SPLINESEGS
 70
     8
  9
$ATTDIA
 70
     0
  9
$ATTREQ
 70
     1
  9
$HANDLING
 70
     1
  9
$HANDSEED
  5
226
  9
$SURFTAB1
 70
     6
  9
$SURFTAB2
 70
     6
  9
$SURFTYPE
 70
     6
  9
$SURFU
 70
     6
  9
$SURFV
 70
     6
  9
$UCSNAME
  2

  9
$UCSORG
 10
0.0
 20
0.0
 30
0.0
  9
$UCSXDIR
 10
1.0
 20
0.0
 30
0.0
  9
$UCSYDIR
 10
0.0
 20
1.0
 30
0.0
  9
$PUCSNAME
  2

  9
$PUCSORG
 10
0.0
 20
0.0
 30
0.0
  9
$PUCSXDIR
 10
1.0
 20
0.0
 30
0.0
  9
$PUCSYDIR
 10
0.0
 20
1.0
 30
0.0
  9
$USERI1
 70
     0
  9
$USERI2
 70
     1
  9
$USERI3
 70
     0
  9
$USERI4
 70
     0
  9
$USERI5
 70
     0
  9
$USERR1
 40
0.0
  9
$USERR2
 40
0.0
  9
$USERR3
 40
0.0
  9
$USERR4
 40
0.0
  9
$USERR5
 40
0.0
  9
$WORLDVIEW
 70
     1
  9
$SHADEDGE
 70
     3
  9
$SHADEDIF
 70
    70
  9
$TILEMODE
 70
     1
  9
$MAXACTVP
 70
    16
  9
$PLIMCHECK
 70
     0
  9
$PEXTMIN
 10
1.0000000000000000E+020
 20
1.0000000000000000E+020
 30
1.0000000000000000E+020
  9
$PEXTMAX
 10
-1.0000000000000000E+020
 20
-1.0000000000000000E+020
 30
-1.0000000000000000E+020
  9
$PLIMMIN
 10
0.0
 20
0.0
  9
$PLIMMAX
 10
12.0
 20
9.0
  9
$UNITMODE
 70
     0
  9
$VISRETAIN
 70
     0
  9
$PLINEGEN
 70
     0
  9
$PSLTSCALE
 70
     0
  0
ENDSEC
  0
SECTION
  2
TABLES
  0
TABLE
  2
VPORT
 70
     1
  0
VPORT
  2
*ACTIVE
 70
     0
 10
0.0
 20
0.0
 11
1.0
 21
1.0
 12
39.036165471588582
 22
26.259658875478959
 13
0.0
 23
0.0
 14
2.0
 24
2.0
 15
2.0
 25
2.0
 16
0.0
 26
0.0
 36
1.0
 17
0.0
 27
0.0
 37
0.0
 40
55.978266843203883
 41
1.831871345029239
 42
50.0
 43
0.0
 44
0.0
 50
0.0
 51
0.0
 71
     0
 72
   500
 73
     1
 74
     0
 75
     0
 76
     0
 77
     0
 78
     2
  0
ENDTAB
  0
TABLE
  2
LTYPE
 70
     4
  0
LTYPE
  2
CONTINUOUS
 70
     0
  3
Solid Line
 72
    65
 73
     0
 40
0.0
  0
LTYPE
  2
CENTER
 70
     0
  3
____ _ ____ _ ____ _ ____ _ ____ _ ____ _ ____
 72
    65
 73
     4
 40
2.0
 49
1.25
 49
-0.25
 49
0.25
 49
-0.25
  0
LTYPE
  2
HIDDEN
 70
     0
  3
_ _ _ _ _ _ _ _ _ _ _ _ _ _ _ _ _ _ _ _ _ _ _
 72
    65
 73
     2
 40
0.375
 49
0.25
 49
-0.125
  0
LTYPE
  2
PHANTOM2
 70
     0
  3
___ _ _ ___ _ _ ___ _ _ ___ _ _
 72
    65
 73
     6
 40
1.25
 49
0.625
 49
-0.125
 49
0.125
 49
-0.125
 49
0.125
 49
-0.125
  0
ENDTAB
  0
TABLE
  2
LAYER
 70
     4
  0
LAYER
  2
0
 70
     0
 62
     7
  6
CONTINUOUS
  0
LAYER
  2
1
 70
     0
 62
     1
  6
CENTER
  0
LAYER
  2
2
 70
     0
 62
     2
  6
HIDDEN
  0
LAYER
  2
3
 70
     0
 62
     3
  6
CONTINUOUS
  0
ENDTAB
  0
TABLE
  2
STYLE
 70
     2
  0
STYLE
  2
STANDARD
 70
     0
 40
0.0
 41
1.0
 50
0.0
 71
     0
 42
2.5000000000000488
  3
TXT
  4
BIGFONT
  0
STYLE
  2
STANDARD1
 70
     0
 40
0.0
 41
1.0
 50
0.0
 71
     0
 42
3.0
  3
txt
  4

  0
ENDTAB
  0
TABLE
  2
VIEW
 70
     1
  0
VIEW
  2
ALL
 70
     0
 40
54.0
 10
44.198319327731092
 20
27.0
 41
0.0
 11
0.0
 21
0.0
 31
1.0
 12
0.0
 22
0.0
 32
0.0
 42
0.0
 43
0.0
 44
0.0
 50
0.0
 71
     0
  0
ENDTAB
  0
TABLE
  2
UCS
 70
     0
  0
ENDTAB
  0
TABLE
  2
APPID
 70
     3
  0
APPID
  2
ACAD
 70
     0
  0
APPID
  2
ACAD_MLEADERVER
 70
     0
  0
APPID
  2
ACAD_NAV_VCDISPLAY
 70
     0
  0
ENDTAB
  0
TABLE
  2
DIMSTYLE
 70
     1
  0
DIMSTYLE
  2
STANDARD
 70
     0
  3

  4

  5

  6

  7

 40
1.0
 41
0.18
 42
0.0625
 43
0.38
 44
0.18
 45
0.0
 46
0.0
 47
0.0
 48
0.0
140
0.18
141
0.09
142
0.0
143
25.399999999999999
144
1.0
145
0.0
146
1.0
147
0.09
 71
     0
 72
     0
 73
     1
 74
     1
 75
     0
 76
     0
 77
     0
 78
     0
170
     0
171
     2
172
     0
173
     0
174
     0
175
     0
176
     0
177
     0
178
     0
  0
ENDTAB
  0
ENDSEC
  0
SECTION
  2
BLOCKS
  0
BLOCK
  8
0
  2
$MODEL_SPACE
 70
     0
 10
0.0
 20
0.0
 30
0.0
  3
$MODEL_SPACE
  1

  0
ENDBLK
  5
CB
  8
0
  0
BLOCK
 67
     1
  8
0
  2
$PAPER_SPACE
 70
     0
 10
0.0
 20
0.0
 30
0.0
  3
$PAPER_SPACE
  1

  0
ENDBLK
  5
C9
 67
     1
  8
0
  0
ENDSEC
  0
SECTION
  2
ENTITIES
  0
CIRCLE
  5
36
  8
3
 10
10.66405112493633
 20
38.684402478017581
 30
0.0
 40
3.3235000000002231
  0
CIRCLE
  5
37
  8
0
 10
10.66405112493633
 20
38.684402478017581
 30
0.0
 40
4.000000000000056
  0
LINE
  5
38
  8
0
 10
12.66405112330763
 20
39.83910301545766
 30
0.0
 11
12.66405112330763
 21
37.529701938699283
 31
0.0
  0
LINE
  5
39
  8
0
 10
12.664051123305811
 20
37.529701940577837
 30
0.0
 11
10.66405112330763
 21
36.375001402198308
 31
0.0
  0
LINE
  5
3A
  8
0
 10
10.66405112493562
 20
36.375001403139642
 30
0.0
 11
8.6640511249356251
 21
37.529701941518489
 31
0.0
  0
LINE
  5
3B
  8
0
 10
8.6640511265636206
 20
37.529701940578981
 30
0.0
 11
8.6640511265636206
 21
39.839103017337358
 31
0.0
  0
LINE
  5
3C
  8
0
 10
8.6640511265636206
 20
39.839103015457432
 30
0.0
 11
10.664051126563621
 21
40.993803553836962
 31
0.0
  0
LINE
  5
3D
  8
0
 10
10.66405112493562
 20
40.993803552895642
 30
0.0
 11
12.66405112493562
 21
39.839103014516787
 31
0.0
  0
LINE
  5
3E
  8
2
 10
34.991991903884852
 20
40.993803552896523
 30
0.0
 11
36.325325236133111
 21
38.68440247801756
 31
0.0
  0
LINE
  5
3F
  8
2
 10
34.991991903884852
 20
36.375001403138597
 30
0.0
 11
36.325325236133047
 21
38.68440247801756
 31
0.0
  0
LINE
  5
40
  8
0
 10
31.59199190388485
 20
34.68440247801756
 30
0.0
 11
40.659941096315968
 21
34.684402478017581
 31
0.0
  0
LINE
  5
41
  8
0
 10
31.59199190388485
 20
42.68440247801756
 30
0.0
 11
40.659941096315933
 21
42.684402478017638
 31
0.0
  0
LINE
  5
42
  8
3
 10
31.201414446778148
 20
42.007902478017691
 30
0.0
 11
41.868491903884852
 21
42.007902478017733
 31
0.0
  0
LINE
  5
43
  8
3
 10
31.201414446778259
 20
35.360902478017422
 30
0.0
 11
41.868491903884852
 21
35.360902478017458
 31
0.0
  0
LINE
  5
44
  8
0
 10
31.59199190388485
 20
34.68440247801756
 30
0.0
 11
31.59199190388485
 21
42.68440247801756
 31
0.0
  0
LINE
  5
45
  8
0
 10
30.991991903884848
 20
35.723632962558973
 30
0.0
 11
30.99199190388488
 21
41.645171993476268
 31
0.0
  0
LINE
  5
46
  8
0
 10
42.391991903884907
 20
35.684402478017631
 30
0.0
 11
42.391991903884822
 21
41.684402478017603
 31
0.0
  0
LINE
  5
47
  8
2
 10
34.991991903884852
 20
36.375001403138661
 30
0.0
 11
34.991991903884852
 21
40.993803552896459
 31
0.0
  0
LINE
  5
48
  8
0
 10
30.99199190388488
 20
41.645171993476268
 30
0.0
 11
31.59199190388485
 21
42.684402478017617
 31
0.0
  0
LINE
  5
49
  8
0
 10
30.991991903884848
 20
35.723632962558973
 30
0.0
 11
31.591991903884932
 21
34.684402478017617
 31
0.0
  0
LINE
  5
4A
  8
2
 10
30.99199190388482
 20
36.375001403138661
 30
0.0
 11
34.99199190388488
 21
36.375001403138661
 31
0.0
  0
LINE
  5
4B
  8
2
 10
30.991991903884848
 20
37.529701940578853
 30
0.0
 11
34.991991903884852
 21
37.529701940578853
 31
0.0
  0
LINE
  5
4C
  8
2
 10
30.991991903884848
 20
39.839103015456217
 30
0.0
 11
34.991991903884852
 21
39.839103015456217
 31
0.0
  0
LINE
  5
4D
  8
2
 10
30.99199190388482
 20
40.993803552896459
 30
0.0
 11
34.99199190388488
 21
40.993803552896459
 31
0.0
  0
LINE
  5
4E
  8
1
 10
43.991991903884852
 20
38.684402478017617
 30
0.0
 11
29.991991903884859
 21
38.684402478017581
 31
0.0
  0
LINE
  5
4F
  8
0
 10
42.391991903884851
 20
41.68440247801761
 30
0.0
 11
40.659941096315933
 21
42.684402478017638
 31
0.0
  0
LINE
  5
50
  8
0
 10
40.659941096315947
 20
42.684402478017653
 30
0.0
 11
40.659941096315968
 21
34.684402478017589
 31
0.0
  0
LINE
  5
51
  8
0
 10
40.659941096315968
 20
34.684402478017589
 30
0.0
 11
42.3919919038849
 21
35.684402478017617
 31
0.0
  0
LINE
  5
52
  8
1
 10
41.491991903884788
 20
34.934402478017631
 30
0.0
 11
41.491991903884788
 21
42.434402478017653
 31
0.0
  0
ARC
  5
53
  8
2
 10
41.491991903884809
 20
38.684402478017631
 30
0.0
 40
2.75
 50
69.790454626246273
 51
290.20954537375587
  0
ARC
  5
54
  8
0
 10
41.491991903884788
 20
38.684402478017631
 30
0.0
 40
2.75
 50
56.944268849137693
 51
69.790454626243786
  0
LINE
  5
55
  8
0
 10
42.991991903884838
 20
36.37951636369506
 30
0.0
 11
42.991991903884859
 21
40.989288592340657
 31
0.0
  0
ARC
  5
56
  8
0
 10
41.491991903884788
 20
38.684402478017631
 30
0.0
 40
2.75
 50
290.20954537375633
 51
303.05573115086281
  0
CIRCLE
  5
60
  8
0
 10
64.480915398571057
 20
38.684402478017581
 30
0.0
 40
4.000000000000056
  0
CIRCLE
  5
61
  8
3
 10
64.480915398571057
 20
38.684402478017581
 30
0.0
 40
3.3235000000002231
  0
CIRCLE
  5
62
  8
0
 10
64.480915398571071
 20
38.684402478017589
 30
0.0
 40
2.3048861143231489
  0
CIRCLE
  5
63
  8
0
 10
64.480915398571071
 20
38.684402478017589
 30
0.0
 40
2.5985572920373339
  0
LINE
  5
64
  8
1
 10
15.664051124936391
 20
38.684402478017581
 30
0.0
 11
5.6640511249362779
 21
38.684402478017581
 31
0.0
  0
LINE
  5
65
  8
1
 10
10.66405112493633
 20
43.684402478017631
 30
0.0
 11
10.66405112493633
 21
33.684402478017518
 31
0.0
  0
LINE
  5
66
  8
1
 10
69.480915398571113
 20
38.684402478017581
 30
0.0
 11
59.480915398571
 21
38.684402478017581
 31
0.0
  0
LINE
  5
67
  8
1
 10
64.480915398571057
 20
43.684402478017631
 30
0.0
 11
64.480915398571057
 21
33.684402478017518
 31
0.0
  0
ARC
  5
68
  8
0
 10
41.491991903884788
 20
55.475769384492452
 30
0.0
 40
2.75
 50
290.20954537375633
 51
303.05573115086281
  0
LINE
  5
69
  8
0
 10
42.991991903884838
 20
53.170883270169881
 30
0.0
 11
42.991991903884859
 21
57.780655498815491
 31
0.0
  0
ARC
  5
6A
  8
0
 10
41.491991903884788
 20
55.475769384492452
 30
0.0
 40
2.75
 50
56.944268849137693
 51
69.790454626243729
  0
ARC
  5
6B
  8
2
 10
41.491991903884809
 20
55.475769384492452
 30
0.0
 40
2.75
 50
69.790454626246273
 51
290.20954537375587
  0
LINE
  5
6C
  8
1
 10
41.491991903884788
 20
51.725769384492452
 30
0.0
 11
41.491991903884788
 21
59.22576938449248
 31
0.0
  0
LINE
  5
6D
  8
0
 10
40.659941096315968
 20
51.475769384492402
 30
0.0
 11
42.3919919038849
 21
52.475769384492438
 31
0.0
  0
LINE
  5
6E
  8
0
 10
40.659941096315947
 20
59.47576938449248
 30
0.0
 11
40.659941096315968
 21
51.475769384492402
 31
0.0
  0
LINE
  5
6F
  8
0
 10
42.391991903884851
 20
58.47576938449243
 30
0.0
 11
40.659941096315933
 21
59.475769384492459
 31
0.0
  0
LINE
  5
70
  8
1
 10
43.991991903884852
 20
55.47576938449243
 30
0.0
 11
29.991991903884859
 21
55.475769384492409
 31
0.0
  0
LINE
  5
71
  8
0
 10
30.991991903884848
 20
52.514999869033787
 30
0.0
 11
31.591991903884932
 21
51.475769384492438
 31
0.0
  0
LINE
  5
72
  8
0
 10
30.99199190388488
 20
58.436538899951088
 30
0.0
 11
31.59199190388485
 21
59.475769384492438
 31
0.0
  0
LINE
  5
73
  8
2
 10
34.991991903884852
 20
53.475769386119687
 30
0.0
 11
34.991991903884852
 21
57.475769382863703
 31
0.0
  0
LINE
  5
74
  8
0
 10
42.391991903884907
 20
52.475769384492452
 30
0.0
 11
42.391991903884822
 21
58.47576938449243
 31
0.0
  0
LINE
  5
75
  8
0
 10
30.991991903884848
 20
52.514999869033787
 30
0.0
 11
30.99199190388488
 21
58.436538899951088
 31
0.0
  0
LINE
  5
76
  8
0
 10
31.59199190388485
 20
51.475769384492381
 30
0.0
 11
31.59199190388485
 21
59.475769384492381
 31
0.0
  0
LINE
  5
77
  8
3
 10
31.201414446778259
 20
52.152269384492243
 30
0.0
 11
41.868491903884852
 21
52.152269384492278
 31
0.0
  0
LINE
  5
78
  8
3
 10
31.201414446778148
 20
58.799269384492511
 30
0.0
 11
41.868491903884852
 21
58.799269384492561
 31
0.0
  0
LINE
  5
79
  8
0
 10
31.59199190388485
 20
59.475769384492381
 30
0.0
 11
40.659941096315933
 21
59.475769384492459
 31
0.0
  0
LINE
  5
7A
  8
0
 10
31.59199190388485
 20
51.475769384492381
 30
0.0
 11
40.659941096315968
 21
51.475769384492402
 31
0.0
  0
LINE
  5
7B
  8
2
 10
30.99199190388487
 20
57.475769382863703
 30
0.0
 11
34.991991903884852
 21
57.475769382863703
 31
0.0
  0
LINE
  5
7C
  8
2
 10
30.99199190388487
 20
55.475769384492907
 30
0.0
 11
34.991991903884852
 21
55.475769384492907
 31
0.0
  0
LINE
  5
7D
  8
2
 10
30.991991903884848
 20
53.475769386119687
 30
0.0
 11
34.991991903884852
 21
53.475769386119687
 31
0.0
  0
LINE
  5
7E
  8
2
 10
34.991991903884838
 20
57.475769382863703
 30
0.0
 11
36.325325236133082
 21
55.475769384492409
 31
0.0
  0
LINE
  5
7F
  8
2
 10
34.991991903884852
 20
53.475769386119687
 30
0.0
 11
36.325325236133068
 21
55.475769384492423
 31
0.0
  0
LINE
  5
80
  8
2
 10
34.991991903884852
 20
18.171812551587308
 30
0.0
 11
36.325325236133068
 21
20.171812549960041
 31
0.0
  0
LINE
  5
81
  8
2
 10
34.991991903884838
 20
22.171812548331321
 30
0.0
 11
36.325325236133082
 21
20.17181254996003
 31
0.0
  0
LINE
  5
82
  8
2
 10
30.991991903884848
 20
18.171812551587308
 30
0.0
 11
34.991991903884852
 21
18.171812551587308
 31
0.0
  0
LINE
  5
83
  8
2
 10
30.99199190388487
 20
20.171812549960531
 30
0.0
 11
34.991991903884852
 21
20.171812549960531
 31
0.0
  0
LINE
  5
84
  8
2
 10
30.99199190388487
 20
22.171812548331321
 30
0.0
 11
34.991991903884852
 21
22.171812548331321
 31
0.0
  0
LINE
  5
85
  8
0
 10
31.59199190388485
 20
16.171812549959999
 30
0.0
 11
40.659941096315968
 21
16.17181254996003
 31
0.0
  0
LINE
  5
86
  8
0
 10
31.59199190388485
 20
24.171812549960009
 30
0.0
 11
40.659941096315933
 21
24.171812549960091
 31
0.0
  0
LINE
  5
87
  8
3
 10
31.201414446778148
 20
23.49531254996014
 30
0.0
 11
41.868491903884852
 21
23.495312549960179
 31
0.0
  0
LINE
  5
88
  8
3
 10
31.201414446778259
 20
16.848312549959861
 30
0.0
 11
41.868491903884852
 21
16.8483125499599
 31
0.0
  0
LINE
  5
89
  8
0
 10
31.59199190388485
 20
16.171812549959999
 30
0.0
 11
31.59199190388485
 21
24.171812549960009
 31
0.0
  0
LINE
  5
8A
  8
0
 10
30.991991903884848
 20
17.211043034501412
 30
0.0
 11
30.99199190388488
 21
23.13258206541871
 31
0.0
  0
LINE
  5
8B
  8
0
 10
42.391991903884907
 20
17.17181254996007
 30
0.0
 11
42.391991903884822
 21
23.171812549960059
 31
0.0
  0
LINE
  5
8C
  8
2
 10
34.991991903884852
 20
18.171812551587308
 30
0.0
 11
34.991991903884852
 21
22.171812548331321
 31
0.0
  0
LINE
  5
8D
  8
0
 10
30.99199190388488
 20
23.13258206541871
 30
0.0
 11
31.59199190388485
 21
24.171812549960059
 31
0.0
  0
LINE
  5
8E
  8
0
 10
30.991991903884848
 20
17.211043034501412
 30
0.0
 11
31.591991903884932
 21
16.171812549960059
 31
0.0
  0
LINE
  5
8F
  8
1
 10
43.991991903884852
 20
20.171812549960059
 30
0.0
 11
29.991991903884859
 21
20.17181254996003
 31
0.0
  0
LINE
  5
90
  8
0
 10
42.391991903884851
 20
23.171812549960059
 30
0.0
 11
40.659941096315933
 21
24.171812549960091
 31
0.0
  0
LINE
  5
91
  8
0
 10
40.659941096315947
 20
24.171812549960102
 30
0.0
 11
40.659941096315968
 21
16.17181254996003
 31
0.0
  0
LINE
  5
92
  8
0
 10
40.659941096315968
 20
16.17181254996003
 30
0.0
 11
42.3919919038849
 21
17.171812549960059
 31
0.0
  0
LINE
  5
93
  8
1
 10
41.491991903884788
 20
16.42181254996007
 30
0.0
 11
41.491991903884788
 21
23.921812549960102
 31
0.0
  0
ARC
  5
94
  8
2
 10
41.491991903884809
 20
20.17181254996007
 30
0.0
 40
2.75
 50
69.790454626246273
 51
290.20954537375587
  0
ARC
  5
95
  8
0
 10
41.491991903884788
 20
20.17181254996007
 30
0.0
 40
2.75
 50
56.944268849137693
 51
69.790454626243729
  0
LINE
  5
96
  8
0
 10
42.991991903884838
 20
17.866926435637499
 30
0.0
 11
42.991991903884859
 21
22.476698664283109
 31
0.0
  0
ARC
  5
97
  8
0
 10
41.491991903884788
 20
20.17181254996007
 30
0.0
 40
2.75
 50
290.20954537375633
 51
303.05573115086281
  0
TEXT
  5
186
  8
0
 62
     3
 10
0.0
 20
0.0
 30
0.0
 40
5.0
  1
BSF8X12
  7
STANDARD1
  0
ENDSEC
  0
EOF
