  0
SECTION
  2
HEADER
  9
$ACADVER
  1
AC1009
  9
$INSBASE
 10
0.0
 20
0.0
 30
0.0
  9
$EXTMIN
 10
0.0
 20
-1.4802182810368341
 30
0.0
  9
$EXTMAX
 10
60.532590915875588
 20
45.388848920869769
 30
0.0
  9
$LIMMIN
 10
0.0
 20
0.0
  9
$LIMMAX
 10
75.0
 20
54.0
  9
$ORTHOMODE
 70
     1
  9
$REGENMODE
 70
     1
  9
$FILLMODE
 70
     1
  9
$QTEXTMODE
 70
     0
  9
$MIRRTEXT
 70
     0
  9
$DRAGMODE
 70
     2
  9
$LTSCALE
 40
2.0
  9
$OSMODE
 70
  3071
  9
$ATTMODE
 70
     1
  9
$TEXTSIZE
 40
0.640000000000005
  9
$TRACEWID
 40
0.05
  9
$TEXTSTYLE
  7
STANDARD
  9
$CLAYER
  8
0
  9
$CELTYPE
  6
BYLAYER
  9
$CECOLOR
 62
   256
  9
$DIMSCALE
 40
0.2
  9
$DIMASZ
 40
3.0
  9
$DIMEXO
 40
2.0
  9
$DIMDLI
 40
0.38
  9
$DIMRND
 40
0.0
  9
$DIMDLE
 40
0.0
  9
$DIMEXE
 40
2.0
  9
$DIMTP
 40
0.0
  9
$DIMTM
 40
0.0
  9
$DIMTXT
 40
3.2000000000000002
  9
$DIMCEN
 40
0.0
  9
$DIMTSZ
 40
0.0
  9
$DIMTOL
 70
     0
  9
$DIMLIM
 70
     0
  9
$DIMTIH
 70
     0
  9
$DIMTOH
 70
     0
  9
$DIMSE1
 70
     0
  9
$DIMSE2
 70
     0
  9
$DIMTAD
 70
     1
  9
$DIMZIN
 70
     0
  9
$DIMBLK
  1

  9
$DIMASO
 70
     0
  9
$DIMSHO
 70
     0
  9
$DIMPOST
  1

  9
$DIMAPOST
  1

  9
$DIMALT
 70
     0
  9
$DIMALTD
 70
     2
  9
$DIMALTF
 40
25.399999999999999
  9
$DIMLFAC
 40
1.0
  9
$DIMTOFL
 70
     1
  9
$DIMTVP
 40
1.6000000000000001
  9
$DIMTIX
 70
     1
  9
$DIMSOXD
 70
     0
  9
$DIMSAH
 70
     0
  9
$DIMBLK1
  1

  9
$DIMBLK2
  1

  9
$DIMSTYLE
  2
STANDARD
  9
$DIMCLRD
 70
     0
  9
$DIMCLRE
 70
     0
  9
$DIMCLRT
 70
     0
  9
$DIMTFAC
 40
1.0
  9
$DIMGAP
 40
0.09
  9
$LUNITS
 70
     2
  9
$LUPREC
 70
     4
  9
$SKETCHINC
 40
0.1
  9
$FILLETRAD
 40
0.0
  9
$AUNITS
 70
     0
  9
$AUPREC
 70
     4
  9
$MENU
  1
E:\r13\win\SUPPORT\ACAD
  9
$ELEVATION
 40
0.0
  9
$PELEVATION
 40
0.0
  9
$THICKNESS
 40
0.0
  9
$LIMCHECK
 70
     0
  9
$BLIPMODE
 70
     0
  9
$CHAMFERA
 40
0.0
  9
$CHAMFERB
 40
0.0
  9
$SKPOLY
 70
     0
  9
$TDCREATE
 40
2449840.620682871
  9
$TDUPDATE
 40
2456598.3992202319
  9
$TDINDWG
 40
0.0012130903
  9
$TDUSRTIMER
 40
0.0012130903
  9
$USRTIMER
 70
     1
  9
$ANGBASE
 50
0.0
  9
$ANGDIR
 70
     0
  9
$PDMODE
 70
     0
  9
$PDSIZE
 40
0.0
  9
$PLINEWID
 40
0.0
  9
$COORDS
 70
     1
  9
$SPLFRAME
 70
     0
  9
$SPLINETYPE
 70
     6
  9
$SPLINESEGS
 70
     8
  9
$ATTDIA
 70
     0
  9
$ATTREQ
 70
     1
  9
$HANDLING
 70
     1
  9
$HANDSEED
  5
217
  9
$SURFTAB1
 70
     6
  9
$SURFTAB2
 70
     6
  9
$SURFTYPE
 70
     6
  9
$SURFU
 70
     6
  9
$SURFV
 70
     6
  9
$UCSNAME
  2

  9
$UCSORG
 10
0.0
 20
0.0
 30
0.0
  9
$UCSXDIR
 10
1.0
 20
0.0
 30
0.0
  9
$UCSYDIR
 10
0.0
 20
1.0
 30
0.0
  9
$PUCSNAME
  2

  9
$PUCSORG
 10
0.0
 20
0.0
 30
0.0
  9
$PUCSXDIR
 10
1.0
 20
0.0
 30
0.0
  9
$PUCSYDIR
 10
0.0
 20
1.0
 30
0.0
  9
$USERI1
 70
     0
  9
$USERI2
 70
     1
  9
$USERI3
 70
     0
  9
$USERI4
 70
     0
  9
$USERI5
 70
     0
  9
$USERR1
 40
0.0
  9
$USERR2
 40
0.0
  9
$USERR3
 40
0.0
  9
$USERR4
 40
0.0
  9
$USERR5
 40
0.0
  9
$WORLDVIEW
 70
     1
  9
$SHADEDGE
 70
     3
  9
$SHADEDIF
 70
    70
  9
$TILEMODE
 70
     1
  9
$MAXACTVP
 70
    16
  9
$PLIMCHECK
 70
     0
  9
$PEXTMIN
 10
1.0000000000000000E+020
 20
1.0000000000000000E+020
 30
1.0000000000000000E+020
  9
$PEXTMAX
 10
-1.0000000000000000E+020
 20
-1.0000000000000000E+020
 30
-1.0000000000000000E+020
  9
$PLIMMIN
 10
0.0
 20
0.0
  9
$PLIMMAX
 10
12.0
 20
9.0
  9
$UNITMODE
 70
     0
  9
$VISRETAIN
 70
     0
  9
$PLINEGEN
 70
     0
  9
$PSLTSCALE
 70
     0
  0
ENDSEC
  0
SECTION
  2
TABLES
  0
TABLE
  2
VPORT
 70
     1
  0
VPORT
  2
*ACTIVE
 70
     0
 10
0.0
 20
0.0
 11
1.0
 21
1.0
 12
39.036165471588582
 22
26.259658875478959
 13
0.0
 23
0.0
 14
2.0
 24
2.0
 15
2.0
 25
2.0
 16
0.0
 26
0.0
 36
1.0
 17
0.0
 27
0.0
 37
0.0
 40
55.978266843203883
 41
1.831871345029239
 42
50.0
 43
0.0
 44
0.0
 50
0.0
 51
0.0
 71
     0
 72
   500
 73
     1
 74
     0
 75
     0
 76
     0
 77
     0
 78
     2
  0
ENDTAB
  0
TABLE
  2
LTYPE
 70
     4
  0
LTYPE
  2
CONTINUOUS
 70
     0
  3
Solid Line
 72
    65
 73
     0
 40
0.0
  0
LTYPE
  2
CENTER
 70
     0
  3
____ _ ____ _ ____ _ ____ _ ____ _ ____ _ ____
 72
    65
 73
     4
 40
2.0
 49
1.25
 49
-0.25
 49
0.25
 49
-0.25
  0
LTYPE
  2
HIDDEN
 70
     0
  3
_ _ _ _ _ _ _ _ _ _ _ _ _ _ _ _ _ _ _ _ _ _ _
 72
    65
 73
     2
 40
0.375
 49
0.25
 49
-0.125
  0
LTYPE
  2
PHANTOM2
 70
     0
  3
___ _ _ ___ _ _ ___ _ _ ___ _ _
 72
    65
 73
     6
 40
1.25
 49
0.625
 49
-0.125
 49
0.125
 49
-0.125
 49
0.125
 49
-0.125
  0
ENDTAB
  0
TABLE
  2
LAYER
 70
     4
  0
LAYER
  2
0
 70
     0
 62
     7
  6
CONTINUOUS
  0
LAYER
  2
1
 70
     0
 62
     1
  6
CENTER
  0
LAYER
  2
2
 70
     0
 62
     2
  6
HIDDEN
  0
LAYER
  2
3
 70
     0
 62
     3
  6
CONTINUOUS
  0
ENDTAB
  0
TABLE
  2
STYLE
 70
     2
  0
STYLE
  2
STANDARD
 70
     0
 40
0.0
 41
1.0
 50
0.0
 71
     0
 42
0.640000000000005
  3
TXT
  4
BIGFONT
  0
STYLE
  2
STANDARD1
 70
     0
 40
0.0
 41
1.0
 50
0.0
 71
     0
 42
3.0
  3
txt
  4

  0
ENDTAB
  0
TABLE
  2
VIEW
 70
     1
  0
VIEW
  2
ALL
 70
     0
 40
54.0
 10
44.198319327731092
 20
27.0
 41
0.0
 11
0.0
 21
0.0
 31
1.0
 12
0.0
 22
0.0
 32
0.0
 42
0.0
 43
0.0
 44
0.0
 50
0.0
 71
     0
  0
ENDTAB
  0
TABLE
  2
UCS
 70
     0
  0
ENDTAB
  0
TABLE
  2
APPID
 70
     3
  0
APPID
  2
ACAD
 70
     0
  0
APPID
  2
ACAD_MLEADERVER
 70
     0
  0
APPID
  2
ACAD_NAV_VCDISPLAY
 70
     0
  0
ENDTAB
  0
TABLE
  2
DIMSTYLE
 70
     1
  0
DIMSTYLE
  2
STANDARD
 70
     0
  3

  4

  5

  6

  7

 40
1.0
 41
0.18
 42
0.0625
 43
0.38
 44
0.18
 45
0.0
 46
0.0
 47
0.0
 48
0.0
140
0.18
141
0.09
142
0.0
143
25.399999999999999
144
1.0
145
0.0
146
1.0
147
0.09
 71
     0
 72
     0
 73
     1
 74
     1
 75
     0
 76
     0
 77
     0
 78
     0
170
     0
171
     2
172
     0
173
     0
174
     0
175
     0
176
     0
177
     0
178
     0
  0
ENDTAB
  0
ENDSEC
  0
SECTION
  2
BLOCKS
  0
BLOCK
  8
0
  2
$MODEL_SPACE
 70
     0
 10
0.0
 20
0.0
 30
0.0
  3
$MODEL_SPACE
  1

  0
ENDBLK
  5
CB
  8
0
  0
BLOCK
 67
     1
  8
0
  2
$PAPER_SPACE
 70
     0
 10
0.0
 20
0.0
 30
0.0
  3
$PAPER_SPACE
  1

  0
ENDBLK
  5
C9
 67
     1
  8
0
  0
ENDSEC
  0
SECTION
  2
ENTITIES
  0
CIRCLE
  5
36
  8
3
 10
14.0
 20
27.713129496402878
 30
0.0
 40
1.6209999999999991
  0
CIRCLE
  5
37
  8
0
 10
14.0
 20
27.713129496402878
 30
0.0
 40
2.0
  0
LINE
  5
38
  8
0
 10
14.99999999918572
 20
28.290479765122889
 30
0.0
 11
14.99999999918572
 21
27.135779226743701
 31
0.0
  0
LINE
  5
39
  8
0
 10
14.99999999918481
 20
27.135779227682981
 30
0.0
 11
13.99999999918572
 21
26.55842895849322
 31
0.0
  0
LINE
  5
3A
  8
0
 10
13.999999999999719
 20
26.55842895896388
 30
0.0
 11
12.999999999999719
 21
27.135779228153311
 31
0.0
  0
LINE
  5
3B
  8
0
 10
13.00000000081371
 20
27.13577922768355
 30
0.0
 11
13.00000000081371
 21
28.290479766062742
 31
0.0
  0
LINE
  5
3C
  8
0
 10
13.00000000081371
 20
28.290479765122779
 30
0.0
 11
14.00000000081371
 21
28.86783003431254
 31
0.0
  0
LINE
  5
3D
  8
0
 10
13.999999999999719
 20
28.86783003384188
 30
0.0
 11
14.999999999999719
 21
28.290479764652449
 31
0.0
  0
LINE
  5
3E
  8
1
 10
17.0
 20
27.713129496402878
 30
0.0
 11
11.0
 21
27.713129496402878
 31
0.0
  0
LINE
  5
3F
  8
1
 10
14.0
 20
30.713129496402878
 30
0.0
 11
14.0
 21
24.713129496402878
 31
0.0
  0
LINE
  5
40
  8
1
 10
32.597495103235573
 20
27.713129496402878
 30
0.0
 11
40.347495103235573
 21
27.713129496402878
 31
0.0
  0
LINE
  5
41
  8
0
 10
33.597495103235573
 20
29.19351425413857
 30
0.0
 11
33.597495103235573
 21
26.23274473866736
 31
0.0
  0
LINE
  5
42
  8
0
 10
33.897495103235691
 20
25.713129496396629
 30
0.0
 11
38.481469699440296
 21
25.713129496396629
 31
0.0
  0
LINE
  5
43
  8
0
 10
33.897495103235627
 20
29.713129496409358
 30
0.0
 11
38.481469699439913
 21
29.713129496409358
 31
0.0
  0
LINE
  5
44
  8
0
 10
39.34749510323558
 20
29.213129496402871
 30
0.0
 11
39.34749510323558
 21
26.213129496402889
 31
0.0
  0
LINE
  5
45
  8
0
 10
33.897495103235627
 20
29.713129496409358
 30
0.0
 11
33.897495103235691
 21
25.713129496396629
 31
0.0
  0
LINE
  5
46
  8
0
 10
33.897495103235578
 20
25.713129496396508
 30
0.0
 11
33.59749510323568
 21
26.23274473866713
 31
0.0
  0
LINE
  5
47
  8
0
 10
33.897495103235627
 20
29.713129496409358
 30
0.0
 11
33.59749510323568
 21
29.19351425413868
 31
0.0
  0
LINE
  5
48
  8
3
 10
33.678679351213461
 20
26.092129496395401
 30
0.0
 11
39.137916955506761
 21
26.092129496395401
 31
0.0
  0
LINE
  5
49
  8
3
 10
33.678679351213461
 20
29.33412949641059
 30
0.0
 11
39.13791695550637
 21
29.334129496410601
 31
0.0
  0
LINE
  5
4A
  8
2
 10
35.597495103235573
 20
28.86783003384188
 30
0.0
 11
35.597495103235453
 21
26.55842895896388
 31
0.0
  0
LINE
  5
4B
  8
2
 10
33.597495103235573
 20
26.55842895896388
 30
0.0
 11
35.597495103235453
 21
26.55842895896388
 31
0.0
  0
LINE
  5
4C
  8
2
 10
33.597495103235573
 20
27.13577922768366
 30
0.0
 11
35.597495103235509
 21
27.13577922768366
 31
0.0
  0
LINE
  5
4D
  8
2
 10
33.597495103235623
 20
28.290479765122491
 30
0.0
 11
35.597495103235573
 21
28.290479765122491
 31
0.0
  0
LINE
  5
4E
  8
2
 10
33.597495103235623
 20
28.86783003384182
 30
0.0
 11
35.597495103235573
 21
28.86783003384188
 31
0.0
  0
LINE
  5
4F
  8
2
 10
35.597495103235453
 20
26.55842895896394
 30
0.0
 11
36.26416176935934
 21
27.713129496402988
 31
0.0
  0
LINE
  5
50
  8
2
 10
35.597495103235573
 20
28.86783003384188
 30
0.0
 11
36.26416176935934
 21
27.713129496402988
 31
0.0
  0
LINE
  5
51
  8
1
 10
38.847495103235573
 20
30.41312949640934
 30
0.0
 11
38.847495103235573
 21
25.01312949639642
 31
0.0
  0
ARC
  5
52
  8
2
 10
38.847495103235573
 20
27.713129496402878
 30
0.0
 40
1.25
 50
66.421821521792296
 51
293.57817847820769
  0
LINE
  5
53
  8
0
 10
39.597495103235687
 20
28.713129496402772
 30
0.0
 11
39.597495103235687
 21
26.713129496402988
 31
0.0
  0
ARC
  5
54
  8
0
 10
38.847495103235573
 20
27.713129496402878
 30
0.0
 40
1.25
 50
293.57817847820149
 51
306.86989764585132
  0
ARC
  5
55
  8
0
 10
38.847495103235588
 20
27.713129496402878
 30
0.0
 40
1.25
 50
53.13010235414864
 51
66.421821521792154
  0
LINE
  5
56
  8
0
 10
39.34749510323558
 20
29.213129496402878
 30
0.0
 11
38.481469699439913
 21
29.713129496409358
 31
0.0
  0
LINE
  5
57
  8
0
 10
39.34749510323558
 20
26.213129496402889
 30
0.0
 11
38.481469699439913
 21
25.713129496396409
 31
0.0
  0
LINE
  5
58
  8
0
 10
38.481469699439899
 20
29.713129496409358
 30
0.0
 11
38.481469699440296
 21
25.713129496396629
 31
0.0
  0
LINE
  5
62
  8
1
 10
57.532590915875588
 20
30.713129496402878
 30
0.0
 11
57.532590915875588
 21
24.713129496402878
 31
0.0
  0
LINE
  5
63
  8
1
 10
54.532590915875588
 20
27.713129496402878
 30
0.0
 11
60.532590915875588
 21
27.713129496402878
 31
0.0
  0
CIRCLE
  5
64
  8
0
 10
57.532590915875588
 20
27.713129496402878
 30
0.0
 40
2.0
  0
CIRCLE
  5
65
  8
3
 10
57.532590915875588
 20
27.713129496402878
 30
0.0
 40
1.6209999999999991
  0
CIRCLE
  5
66
  8
0
 10
57.532590915875581
 20
27.713129496402878
 30
0.0
 40
1.0
  0
CIRCLE
  5
67
  8
0
 10
57.532590915875581
 20
27.713129496402878
 30
0.0
 40
1.1455999999999991
  0
LINE
  5
68
  8
0
 10
38.481469699439899
 20
44.688848920869788
 30
0.0
 11
38.481469699440296
 21
40.688848920857062
 31
0.0
  0
LINE
  5
69
  8
0
 10
39.34749510323558
 20
41.188848920863322
 30
0.0
 11
38.481469699439913
 21
40.688848920856842
 31
0.0
  0
LINE
  5
6A
  8
0
 10
39.34749510323558
 20
44.188848920863308
 30
0.0
 11
38.481469699439913
 21
44.688848920869781
 31
0.0
  0
ARC
  5
6B
  8
0
 10
38.847495103235588
 20
42.688848920863308
 30
0.0
 40
1.25
 50
53.13010235414864
 51
66.421821521792154
  0
ARC
  5
6C
  8
0
 10
38.847495103235573
 20
42.688848920863308
 30
0.0
 40
1.25
 50
293.57817847820149
 51
306.86989764585132
  0
LINE
  5
6D
  8
0
 10
39.597495103235687
 20
43.688848920863187
 30
0.0
 11
39.597495103235687
 21
41.688848920863421
 31
0.0
  0
ARC
  5
6E
  8
2
 10
38.847495103235573
 20
42.688848920863308
 30
0.0
 40
1.25
 50
66.421821521792296
 51
293.57817847820769
  0
LINE
  5
6F
  8
1
 10
38.847495103235573
 20
45.388848920869769
 30
0.0
 11
38.847495103235573
 21
39.98884892085686
 31
0.0
  0
LINE
  5
70
  8
2
 10
35.597495103235552
 20
43.688848920048763
 30
0.0
 11
35.59749510323546
 21
41.688848921676758
 31
0.0
  0
LINE
  5
71
  8
3
 10
33.678679351213461
 20
44.309848920871019
 30
0.0
 11
39.13791695550637
 21
44.309848920871019
 31
0.0
  0
LINE
  5
72
  8
3
 10
33.678679351213461
 20
41.06784892085583
 30
0.0
 11
39.137916955506761
 21
41.06784892085583
 31
0.0
  0
LINE
  5
73
  8
0
 10
33.897495103235627
 20
44.688848920869788
 30
0.0
 11
33.59749510323568
 21
44.16923367859912
 31
0.0
  0
LINE
  5
74
  8
0
 10
33.897495103235578
 20
40.688848920856941
 30
0.0
 11
33.59749510323568
 21
41.208464163127559
 31
0.0
  0
LINE
  5
75
  8
0
 10
33.897495103235627
 20
44.688848920869788
 30
0.0
 11
33.897495103235691
 21
40.688848920857062
 31
0.0
  0
LINE
  5
76
  8
0
 10
39.34749510323558
 20
44.1888489208633
 30
0.0
 11
39.34749510323558
 21
41.188848920863322
 31
0.0
  0
LINE
  5
77
  8
0
 10
33.897495103235627
 20
44.688848920869788
 30
0.0
 11
38.481469699439913
 21
44.688848920869788
 31
0.0
  0
LINE
  5
78
  8
0
 10
33.897495103235691
 20
40.688848920857062
 30
0.0
 11
38.481469699440296
 21
40.688848920857062
 31
0.0
  0
LINE
  5
79
  8
0
 10
33.597495103235573
 20
44.169233678598999
 30
0.0
 11
33.597495103235573
 21
41.208464163127793
 31
0.0
  0
LINE
  5
7A
  8
1
 10
32.597495103235573
 20
42.688848920863308
 30
0.0
 11
40.347495103235573
 21
42.688848920863308
 31
0.0
  0
LINE
  5
7B
  8
2
 10
33.597495103235573
 20
43.688848920048869
 30
0.0
 11
35.597495103235559
 21
43.688848920048763
 31
0.0
  0
LINE
  5
7C
  8
2
 10
33.597495103235559
 20
42.68884892086318
 30
0.0
 11
35.597495103235509
 21
42.688848920863073
 31
0.0
  0
LINE
  5
7D
  8
2
 10
33.597495103235573
 20
41.688848921676851
 30
0.0
 11
35.59749510323546
 21
41.688848921676751
 31
0.0
  0
LINE
  5
7E
  8
2
 10
36.264161769359269
 20
42.6888489208633
 30
0.0
 11
35.597495103235552
 21
43.688848920048763
 31
0.0
  0
LINE
  5
7F
  8
2
 10
36.264161769359269
 20
42.6888489208633
 30
0.0
 11
35.59749510323546
 21
41.688848921676751
 31
0.0
  0
LINE
  5
80
  8
2
 10
36.264161769359269
 20
9.8345323741007107
 30
0.0
 11
35.59749510323546
 21
8.8345323749141613
 31
0.0
  0
LINE
  5
81
  8
2
 10
36.264161769359269
 20
9.8345323741007107
 30
0.0
 11
35.597495103235552
 21
10.83453237328616
 31
0.0
  0
LINE
  5
82
  8
2
 10
33.597495103235573
 20
8.8345323749142608
 30
0.0
 11
35.59749510323546
 21
8.8345323749141613
 31
0.0
  0
LINE
  5
83
  8
2
 10
33.597495103235559
 20
9.8345323741005828
 30
0.0
 11
35.597495103235509
 21
9.8345323741004833
 31
0.0
  0
LINE
  5
84
  8
2
 10
33.597495103235573
 20
10.834532373286271
 30
0.0
 11
35.597495103235559
 21
10.83453237328616
 31
0.0
  0
LINE
  5
85
  8
1
 10
32.597495103235573
 20
9.8345323741007178
 30
0.0
 11
40.347495103235573
 21
9.8345323741007178
 31
0.0
  0
LINE
  5
86
  8
0
 10
33.597495103235573
 20
11.31491713183641
 30
0.0
 11
33.597495103235573
 21
8.3541476163651964
 31
0.0
  0
LINE
  5
87
  8
0
 10
33.897495103235691
 20
7.834532374094465
 30
0.0
 11
38.481469699440296
 21
7.834532374094465
 31
0.0
  0
LINE
  5
88
  8
0
 10
33.897495103235627
 20
11.8345323741072
 30
0.0
 11
38.481469699439913
 21
11.8345323741072
 31
0.0
  0
LINE
  5
89
  8
0
 10
39.34749510323558
 20
11.3345323741007
 30
0.0
 11
39.34749510323558
 21
8.3345323741007231
 31
0.0
  0
LINE
  5
8A
  8
0
 10
33.897495103235627
 20
11.8345323741072
 30
0.0
 11
33.897495103235691
 21
7.834532374094465
 31
0.0
  0
LINE
  5
8B
  8
0
 10
33.897495103235578
 20
7.8345323740943513
 30
0.0
 11
33.59749510323568
 21
8.3541476163649691
 31
0.0
  0
LINE
  5
8C
  8
0
 10
33.897495103235627
 20
11.8345323741072
 30
0.0
 11
33.59749510323568
 21
11.31491713183652
 31
0.0
  0
LINE
  5
8D
  8
3
 10
33.678679351213461
 20
8.2135323740932336
 30
0.0
 11
39.137916955506761
 21
8.2135323740932336
 31
0.0
  0
LINE
  5
8E
  8
3
 10
33.678679351213461
 20
11.455532374108429
 30
0.0
 11
39.13791695550637
 21
11.455532374108429
 31
0.0
  0
LINE
  5
8F
  8
2
 10
35.597495103235552
 20
10.83453237328616
 30
0.0
 11
35.59749510323546
 21
8.8345323749141684
 31
0.0
  0
LINE
  5
90
  8
1
 10
38.847495103235573
 20
12.534532374107171
 30
0.0
 11
38.847495103235573
 21
7.1345323740942632
 31
0.0
  0
ARC
  5
91
  8
2
 10
38.847495103235573
 20
9.8345323741007178
 30
0.0
 40
1.25
 50
66.421821521792296
 51
293.57817847820769
  0
LINE
  5
92
  8
0
 10
39.597495103235687
 20
10.834532374100601
 30
0.0
 11
39.597495103235687
 21
8.8345323741008315
 31
0.0
  0
ARC
  5
93
  8
0
 10
38.847495103235573
 20
9.8345323741007178
 30
0.0
 40
1.25
 50
293.57817847820149
 51
306.86989764585132
  0
ARC
  5
94
  8
0
 10
38.847495103235588
 20
9.8345323741007178
 30
0.0
 40
1.25
 50
53.13010235414864
 51
66.421821521792154
  0
LINE
  5
95
  8
0
 10
39.34749510323558
 20
11.334532374100711
 30
0.0
 11
38.481469699439913
 21
11.834532374107191
 31
0.0
  0
LINE
  5
96
  8
0
 10
39.34749510323558
 20
8.3345323741007231
 30
0.0
 11
38.481469699439913
 21
7.8345323740942439
 31
0.0
  0
LINE
  5
97
  8
0
 10
38.481469699439899
 20
11.8345323741072
 30
0.0
 11
38.481469699440296
 21
7.834532374094465
 31
0.0
  0
TEXT
  5
186
  8
0
 62
     3
 10
0.0
 20
0.0
 30
0.0
 40
5.0
  1
BSF4X6
  7
STANDARD1
  0
ENDSEC
  0
EOF
