  0
SECTION
  2
HEADER
  9
$ACADVER
  1
AC1009
  9
$INSBASE
 10
0.0
 20
0.0
 30
0.0
  9
$EXTMIN
 10
0.0
 20
-1.4802182810368341
 30
0.0
  9
$EXTMAX
 10
62.238248282453661
 20
46.119964028783443
 30
0.0
  9
$LIMMIN
 10
0.0
 20
0.0
  9
$LIMMAX
 10
75.0
 20
54.0
  9
$ORTHOMODE
 70
     1
  9
$REGENMODE
 70
     1
  9
$FILLMODE
 70
     1
  9
$QTEXTMODE
 70
     0
  9
$MIRRTEXT
 70
     0
  9
$DRAGMODE
 70
     2
  9
$LTSCALE
 40
2.0
  9
$OSMODE
 70
  3071
  9
$ATTMODE
 70
     1
  9
$TEXTSIZE
 40
0.640000000000005
  9
$TRACEWID
 40
0.05
  9
$TEXTSTYLE
  7
STANDARD
  9
$CLAYER
  8
0
  9
$CELTYPE
  6
BYLAYER
  9
$CECOLOR
 62
   256
  9
$DIMSCALE
 40
0.2
  9
$DIMASZ
 40
3.0
  9
$DIMEXO
 40
2.0
  9
$DIMDLI
 40
0.38
  9
$DIMRND
 40
0.0
  9
$DIMDLE
 40
0.0
  9
$DIMEXE
 40
2.0
  9
$DIMTP
 40
0.0
  9
$DIMTM
 40
0.0
  9
$DIMTXT
 40
3.2000000000000002
  9
$DIMCEN
 40
0.0
  9
$DIMTSZ
 40
0.0
  9
$DIMTOL
 70
     0
  9
$DIMLIM
 70
     0
  9
$DIMTIH
 70
     0
  9
$DIMTOH
 70
     0
  9
$DIMSE1
 70
     0
  9
$DIMSE2
 70
     0
  9
$DIMTAD
 70
     1
  9
$DIMZIN
 70
     0
  9
$DIMBLK
  1

  9
$DIMASO
 70
     0
  9
$DIMSHO
 70
     0
  9
$DIMPOST
  1

  9
$DIMAPOST
  1

  9
$DIMALT
 70
     0
  9
$DIMALTD
 70
     2
  9
$DIMALTF
 40
25.399999999999999
  9
$DIMLFAC
 40
1.0
  9
$DIMTOFL
 70
     1
  9
$DIMTVP
 40
1.6000000000000001
  9
$DIMTIX
 70
     1
  9
$DIMSOXD
 70
     0
  9
$DIMSAH
 70
     0
  9
$DIMBLK1
  1

  9
$DIMBLK2
  1

  9
$DIMSTYLE
  2
STANDARD
  9
$DIMCLRD
 70
     0
  9
$DIMCLRE
 70
     0
  9
$DIMCLRT
 70
     0
  9
$DIMTFAC
 40
1.0
  9
$DIMGAP
 40
0.09
  9
$LUNITS
 70
     2
  9
$LUPREC
 70
     4
  9
$SKETCHINC
 40
0.1
  9
$FILLETRAD
 40
0.0
  9
$AUNITS
 70
     0
  9
$AUPREC
 70
     4
  9
$MENU
  1
E:\r13\win\SUPPORT\ACAD
  9
$ELEVATION
 40
0.0
  9
$PELEVATION
 40
0.0
  9
$THICKNESS
 40
0.0
  9
$LIMCHECK
 70
     0
  9
$BLIPMODE
 70
     0
  9
$CHAMFERA
 40
0.0
  9
$CHAMFERB
 40
0.0
  9
$SKPOLY
 70
     0
  9
$TDCREATE
 40
2449840.620717593
  9
$TDUPDATE
 40
2456598.3991931481
  9
$TDINDWG
 40
0.0046128009
  9
$TDUSRTIMER
 40
0.0046128009
  9
$USRTIMER
 70
     1
  9
$ANGBASE
 50
0.0
  9
$ANGDIR
 70
     0
  9
$PDMODE
 70
     0
  9
$PDSIZE
 40
0.0
  9
$PLINEWID
 40
0.0
  9
$COORDS
 70
     1
  9
$SPLFRAME
 70
     0
  9
$SPLINETYPE
 70
     6
  9
$SPLINESEGS
 70
     8
  9
$ATTDIA
 70
     0
  9
$ATTREQ
 70
     1
  9
$HANDLING
 70
     1
  9
$HANDSEED
  5
21C
  9
$SURFTAB1
 70
     6
  9
$SURFTAB2
 70
     6
  9
$SURFTYPE
 70
     6
  9
$SURFU
 70
     6
  9
$SURFV
 70
     6
  9
$UCSNAME
  2

  9
$UCSORG
 10
0.0
 20
0.0
 30
0.0
  9
$UCSXDIR
 10
1.0
 20
0.0
 30
0.0
  9
$UCSYDIR
 10
0.0
 20
1.0
 30
0.0
  9
$PUCSNAME
  2

  9
$PUCSORG
 10
0.0
 20
0.0
 30
0.0
  9
$PUCSXDIR
 10
1.0
 20
0.0
 30
0.0
  9
$PUCSYDIR
 10
0.0
 20
1.0
 30
0.0
  9
$USERI1
 70
     0
  9
$USERI2
 70
     1
  9
$USERI3
 70
     0
  9
$USERI4
 70
     0
  9
$USERI5
 70
     0
  9
$USERR1
 40
0.0
  9
$USERR2
 40
0.0
  9
$USERR3
 40
0.0
  9
$USERR4
 40
0.0
  9
$USERR5
 40
0.0
  9
$WORLDVIEW
 70
     1
  9
$SHADEDGE
 70
     3
  9
$SHADEDIF
 70
    70
  9
$TILEMODE
 70
     1
  9
$MAXACTVP
 70
    16
  9
$PLIMCHECK
 70
     0
  9
$PEXTMIN
 10
1.0000000000000000E+020
 20
1.0000000000000000E+020
 30
1.0000000000000000E+020
  9
$PEXTMAX
 10
-1.0000000000000000E+020
 20
-1.0000000000000000E+020
 30
-1.0000000000000000E+020
  9
$PLIMMIN
 10
0.0
 20
0.0
  9
$PLIMMAX
 10
12.0
 20
9.0
  9
$UNITMODE
 70
     0
  9
$VISRETAIN
 70
     0
  9
$PLINEGEN
 70
     0
  9
$PSLTSCALE
 70
     0
  0
ENDSEC
  0
SECTION
  2
TABLES
  0
TABLE
  2
VPORT
 70
     1
  0
VPORT
  2
*ACTIVE
 70
     0
 10
0.0
 20
0.0
 11
1.0
 21
1.0
 12
39.036165471588582
 22
26.259658875478959
 13
0.0
 23
0.0
 14
2.0
 24
2.0
 15
2.0
 25
2.0
 16
0.0
 26
0.0
 36
1.0
 17
0.0
 27
0.0
 37
0.0
 40
55.978266843203883
 41
1.831871345029239
 42
50.0
 43
0.0
 44
0.0
 50
0.0
 51
0.0
 71
     0
 72
   500
 73
     1
 74
     0
 75
     0
 76
     0
 77
     0
 78
     2
  0
ENDTAB
  0
TABLE
  2
LTYPE
 70
     4
  0
LTYPE
  2
CONTINUOUS
 70
     0
  3
Solid Line
 72
    65
 73
     0
 40
0.0
  0
LTYPE
  2
CENTER
 70
     0
  3
____ _ ____ _ ____ _ ____ _ ____ _ ____ _ ____
 72
    65
 73
     4
 40
2.0
 49
1.25
 49
-0.25
 49
0.25
 49
-0.25
  0
LTYPE
  2
HIDDEN
 70
     0
  3
_ _ _ _ _ _ _ _ _ _ _ _ _ _ _ _ _ _ _ _ _ _ _
 72
    65
 73
     2
 40
0.375
 49
0.25
 49
-0.125
  0
LTYPE
  2
PHANTOM2
 70
     0
  3
___ _ _ ___ _ _ ___ _ _ ___ _ _
 72
    65
 73
     6
 40
1.25
 49
0.625
 49
-0.125
 49
0.125
 49
-0.125
 49
0.125
 49
-0.125
  0
ENDTAB
  0
TABLE
  2
LAYER
 70
     4
  0
LAYER
  2
0
 70
     0
 62
     7
  6
CONTINUOUS
  0
LAYER
  2
1
 70
     0
 62
     1
  6
CENTER
  0
LAYER
  2
2
 70
     0
 62
     2
  6
HIDDEN
  0
LAYER
  2
3
 70
     0
 62
     3
  6
CONTINUOUS
  0
ENDTAB
  0
TABLE
  2
STYLE
 70
     2
  0
STYLE
  2
STANDARD
 70
     0
 40
0.0
 41
1.0
 50
0.0
 71
     0
 42
0.640000000000005
  3
TXT
  4
BIGFONT
  0
STYLE
  2
STANDARD1
 70
     0
 40
0.0
 41
1.0
 50
0.0
 71
     0
 42
3.0
  3
txt
  4

  0
ENDTAB
  0
TABLE
  2
VIEW
 70
     1
  0
VIEW
  2
ALL
 70
     0
 40
54.0
 10
44.198319327731092
 20
27.0
 41
0.0
 11
0.0
 21
0.0
 31
1.0
 12
0.0
 22
0.0
 32
0.0
 42
0.0
 43
0.0
 44
0.0
 50
0.0
 71
     0
  0
ENDTAB
  0
TABLE
  2
UCS
 70
     0
  0
ENDTAB
  0
TABLE
  2
APPID
 70
     3
  0
APPID
  2
ACAD
 70
     0
  0
APPID
  2
ACAD_MLEADERVER
 70
     0
  0
APPID
  2
ACAD_NAV_VCDISPLAY
 70
     0
  0
ENDTAB
  0
TABLE
  2
DIMSTYLE
 70
     1
  0
DIMSTYLE
  2
STANDARD
 70
     0
  3

  4

  5

  6

  7

 40
1.0
 41
0.18
 42
0.0625
 43
0.38
 44
0.18
 45
0.0
 46
0.0
 47
0.0
 48
0.0
140
0.18
141
0.09
142
0.0
143
25.399999999999999
144
1.0
145
0.0
146
1.0
147
0.09
 71
     0
 72
     0
 73
     1
 74
     1
 75
     0
 76
     0
 77
     0
 78
     0
170
     0
171
     2
172
     0
173
     0
174
     0
175
     0
176
     0
177
     0
178
     0
  0
ENDTAB
  0
ENDSEC
  0
SECTION
  2
BLOCKS
  0
BLOCK
  8
0
  2
$MODEL_SPACE
 70
     0
 10
0.0
 20
0.0
 30
0.0
  3
$MODEL_SPACE
  1

  0
ENDBLK
  5
CB
  8
0
  0
BLOCK
 67
     1
  8
0
  2
$PAPER_SPACE
 70
     0
 10
0.0
 20
0.0
 30
0.0
  3
$PAPER_SPACE
  1

  0
ENDBLK
  5
C9
 67
     1
  8
0
  0
ENDSEC
  0
SECTION
  2
ENTITIES
  0
CIRCLE
  5
36
  8
3
 10
13.36331542688491
 20
26.809352517985609
 30
0.0
 40
1.6209999999999991
  0
CIRCLE
  5
37
  8
0
 10
13.36331542688491
 20
26.809352517985609
 30
0.0
 40
2.0
  0
LINE
  5
38
  8
0
 10
14.363315426070629
 20
27.38670278670563
 30
0.0
 11
14.363315426070629
 21
26.232002248326442
 31
0.0
  0
LINE
  5
39
  8
0
 10
14.36331542606972
 20
26.232002249265719
 30
0.0
 11
13.363315426070621
 21
25.65465198007595
 31
0.0
  0
LINE
  5
3A
  8
0
 10
13.36331542688462
 20
25.654651980546621
 30
0.0
 11
12.36331542688462
 21
26.232002249736041
 31
0.0
  0
LINE
  5
3B
  8
0
 10
12.36331542769862
 20
26.232002249266291
 30
0.0
 11
12.36331542769862
 21
27.386702787645469
 31
0.0
  0
LINE
  5
3C
  8
0
 10
12.36331542769862
 20
27.386702786705509
 30
0.0
 11
13.36331542769862
 21
27.96405305589527
 31
0.0
  0
LINE
  5
3D
  8
0
 10
13.36331542688462
 20
27.964053055424611
 30
0.0
 11
14.36331542688462
 21
27.38670278623519
 31
0.0
  0
LINE
  5
3E
  8
1
 10
16.36331542688491
 20
26.809352517985609
 30
0.0
 11
10.36331542688491
 21
26.809352517985609
 31
0.0
  0
LINE
  5
3F
  8
1
 10
13.36331542688491
 20
29.809352517985609
 30
0.0
 11
13.36331542688491
 21
23.809352517985609
 31
0.0
  0
LINE
  5
40
  8
1
 10
26.880823025138621
 20
26.809352517985609
 30
0.0
 11
44.630823025138497
 21
26.809352517985619
 31
0.0
  0
LINE
  5
41
  8
0
 10
27.880823025138621
 20
28.289737275721301
 30
0.0
 11
27.880823025138621
 21
25.328967760250091
 31
0.0
  0
LINE
  5
42
  8
0
 10
28.18082302513875
 20
24.809352517979359
 30
0.0
 11
42.76479762134322
 21
24.809352517979359
 31
0.0
  0
LINE
  5
43
  8
0
 10
28.18082302513869
 20
28.809352517992089
 30
0.0
 11
42.764797621342851
 21
28.809352517992089
 31
0.0
  0
LINE
  5
44
  8
0
 10
43.630823025138497
 20
28.309352517985602
 30
0.0
 11
43.630823025138497
 21
25.309352517985619
 31
0.0
  0
LINE
  5
45
  8
0
 10
28.18082302513869
 20
28.809352517992089
 30
0.0
 11
28.18082302513875
 21
24.809352517979359
 31
0.0
  0
LINE
  5
46
  8
0
 10
28.180823025138629
 20
24.809352517979249
 30
0.0
 11
27.880823025138739
 21
25.32896776024986
 31
0.0
  0
LINE
  5
47
  8
0
 10
28.18082302513869
 20
28.809352517992089
 30
0.0
 11
27.880823025138739
 21
28.289737275721421
 31
0.0
  0
LINE
  5
48
  8
3
 10
27.962007273116509
 20
25.188352517978132
 30
0.0
 11
43.421244877409691
 21
25.188352517978132
 31
0.0
  0
LINE
  5
49
  8
3
 10
27.962007273116509
 20
28.43035251799332
 30
0.0
 11
43.421244877409308
 21
28.430352517993331
 31
0.0
  0
LINE
  5
4A
  8
2
 10
29.880823025138621
 20
27.964053055424611
 30
0.0
 11
29.880823025138511
 21
25.654651980546621
 31
0.0
  0
LINE
  5
4B
  8
2
 10
27.880823025138621
 20
25.654651980546621
 30
0.0
 11
29.880823025138511
 21
25.654651980546621
 31
0.0
  0
LINE
  5
4C
  8
2
 10
27.880823025138621
 20
26.232002249266401
 30
0.0
 11
29.880823025138561
 21
26.232002249266401
 31
0.0
  0
LINE
  5
4D
  8
2
 10
27.880823025138682
 20
27.386702786705229
 30
0.0
 11
29.880823025138621
 21
27.386702786705229
 31
0.0
  0
LINE
  5
4E
  8
2
 10
27.880823025138682
 20
27.96405305542455
 30
0.0
 11
29.880823025138621
 21
27.964053055424611
 31
0.0
  0
LINE
  5
4F
  8
2
 10
29.880823025138511
 20
25.654651980546671
 30
0.0
 11
30.547489691262399
 21
26.809352517985729
 31
0.0
  0
LINE
  5
50
  8
2
 10
29.880823025138621
 20
27.964053055424611
 30
0.0
 11
30.547489691262399
 21
26.809352517985729
 31
0.0
  0
LINE
  5
51
  8
1
 10
43.130823025138497
 20
29.509352517992081
 30
0.0
 11
43.130823025138497
 21
24.109352517979161
 31
0.0
  0
ARC
  5
52
  8
2
 10
43.130823025138497
 20
26.809352517985609
 30
0.0
 40
1.25
 50
66.421821521792296
 51
293.57817847820769
  0
LINE
  5
53
  8
0
 10
43.880823025138618
 20
27.809352517985499
 30
0.0
 11
43.880823025138618
 21
25.809352517985729
 31
0.0
  0
ARC
  5
54
  8
0
 10
43.130823025138497
 20
26.809352517985609
 30
0.0
 40
1.25
 50
293.57817847820149
 51
306.86989764585132
  0
ARC
  5
55
  8
0
 10
43.130823025138511
 20
26.809352517985619
 30
0.0
 40
1.25
 50
53.13010235414864
 51
66.421821521792154
  0
LINE
  5
56
  8
0
 10
43.630823025138497
 20
28.309352517985609
 30
0.0
 11
42.764797621342851
 21
28.809352517992089
 31
0.0
  0
LINE
  5
57
  8
0
 10
43.630823025138497
 20
25.309352517985619
 30
0.0
 11
42.764797621342851
 21
24.80935251797915
 31
0.0
  0
LINE
  5
58
  8
0
 10
42.764797621342829
 20
28.8093525179921
 30
0.0
 11
42.76479762134322
 21
24.809352517979359
 31
0.0
  0
LINE
  5
62
  8
1
 10
59.238248282453647
 20
29.809352517985609
 30
0.0
 11
59.238248282453647
 21
23.809352517985609
 31
0.0
  0
LINE
  5
63
  8
1
 10
56.238248282453647
 20
26.809352517985609
 30
0.0
 11
62.238248282453661
 21
26.809352517985609
 31
0.0
  0
CIRCLE
  5
64
  8
0
 10
59.238248282453647
 20
26.809352517985609
 30
0.0
 40
2.0
  0
CIRCLE
  5
65
  8
3
 10
59.238248282453647
 20
26.809352517985609
 30
0.0
 40
1.6209999999999991
  0
CIRCLE
  5
66
  8
0
 10
59.238248282453647
 20
26.809352517985619
 30
0.0
 40
1.0
  0
CIRCLE
  5
67
  8
0
 10
59.238248282453647
 20
26.809352517985619
 30
0.0
 40
1.1455999999999991
  0
LINE
  5
68
  8
0
 10
42.764797621342829
 20
45.419964028783447
 30
0.0
 11
42.76479762134322
 21
41.419964028770721
 31
0.0
  0
LINE
  5
69
  8
0
 10
43.630823025138497
 20
41.919964028776988
 30
0.0
 11
42.764797621342851
 21
41.419964028770508
 31
0.0
  0
LINE
  5
6A
  8
0
 10
43.630823025138497
 20
44.919964028776981
 30
0.0
 11
42.764797621342851
 21
45.419964028783447
 31
0.0
  0
ARC
  5
6B
  8
0
 10
43.130823025138511
 20
43.419964028776981
 30
0.0
 40
1.25
 50
53.13010235414864
 51
66.421821521792154
  0
ARC
  5
6C
  8
0
 10
43.130823025138497
 20
43.419964028776981
 30
0.0
 40
1.25
 50
293.57817847820149
 51
306.86989764585132
  0
LINE
  5
6D
  8
0
 10
43.880823025138618
 20
44.419964028776867
 30
0.0
 11
43.880823025138618
 21
42.419964028777088
 31
0.0
  0
ARC
  5
6E
  8
2
 10
43.130823025138497
 20
43.419964028776981
 30
0.0
 40
1.25
 50
66.421821521792296
 51
293.57817847820769
  0
LINE
  5
6F
  8
1
 10
43.130823025138497
 20
46.119964028783443
 30
0.0
 11
43.130823025138497
 21
40.719964028770526
 31
0.0
  0
LINE
  5
70
  8
2
 10
29.880823025138611
 20
44.419964027962429
 30
0.0
 11
29.880823025138518
 21
42.419964029590432
 31
0.0
  0
LINE
  5
71
  8
3
 10
27.962007273116509
 20
45.040964028784693
 30
0.0
 11
43.421244877409308
 21
45.040964028784693
 31
0.0
  0
LINE
  5
72
  8
3
 10
27.962007273116509
 20
41.79896402876949
 30
0.0
 11
43.421244877409691
 21
41.79896402876949
 31
0.0
  0
LINE
  5
73
  8
0
 10
28.18082302513869
 20
45.419964028783447
 30
0.0
 11
27.880823025138739
 21
44.900348786512779
 31
0.0
  0
LINE
  5
74
  8
0
 10
28.180823025138629
 20
41.419964028770607
 30
0.0
 11
27.880823025138739
 21
41.939579271041232
 31
0.0
  0
LINE
  5
75
  8
0
 10
28.18082302513869
 20
45.419964028783447
 30
0.0
 11
28.18082302513875
 21
41.419964028770721
 31
0.0
  0
LINE
  5
76
  8
0
 10
43.630823025138497
 20
44.91996402877696
 30
0.0
 11
43.630823025138497
 21
41.919964028776988
 31
0.0
  0
LINE
  5
77
  8
0
 10
28.18082302513869
 20
45.419964028783447
 30
0.0
 11
42.764797621342851
 21
45.419964028783447
 31
0.0
  0
LINE
  5
78
  8
0
 10
28.18082302513875
 20
41.419964028770721
 30
0.0
 11
42.76479762134322
 21
41.419964028770721
 31
0.0
  0
LINE
  5
79
  8
0
 10
27.880823025138621
 20
44.900348786512673
 30
0.0
 11
27.880823025138621
 21
41.93957927104146
 31
0.0
  0
LINE
  5
7A
  8
1
 10
26.880823025138621
 20
43.419964028776981
 30
0.0
 11
44.630823025138497
 21
43.419964028776981
 31
0.0
  0
LINE
  5
7B
  8
2
 10
27.880823025138621
 20
44.419964027962529
 30
0.0
 11
29.880823025138611
 21
44.419964027962429
 31
0.0
  0
LINE
  5
7C
  8
2
 10
27.880823025138628
 20
43.419964028776853
 30
0.0
 11
29.880823025138561
 21
43.419964028776747
 31
0.0
  0
LINE
  5
7D
  8
2
 10
27.880823025138621
 20
42.419964029590531
 30
0.0
 11
29.880823025138511
 21
42.419964029590432
 31
0.0
  0
LINE
  5
7E
  8
2
 10
30.547489691262321
 20
43.419964028776981
 30
0.0
 11
29.880823025138611
 21
44.419964027962429
 31
0.0
  0
LINE
  5
7F
  8
2
 10
30.547489691262331
 20
43.419964028776988
 30
0.0
 11
29.880823025138518
 21
42.419964029590432
 31
0.0
  0
LINE
  5
80
  8
2
 10
30.547489691262331
 20
9.3866906474820198
 30
0.0
 11
29.880823025138518
 21
8.3866906482954633
 31
0.0
  0
LINE
  5
81
  8
2
 10
30.547489691262321
 20
9.3866906474820127
 30
0.0
 11
29.880823025138611
 21
10.38669064666747
 31
0.0
  0
LINE
  5
82
  8
2
 10
27.880823025138621
 20
8.3866906482955628
 30
0.0
 11
29.880823025138511
 21
8.3866906482954633
 31
0.0
  0
LINE
  5
83
  8
2
 10
27.880823025138628
 20
9.3866906474818848
 30
0.0
 11
29.880823025138561
 21
9.3866906474817782
 31
0.0
  0
LINE
  5
84
  8
2
 10
27.880823025138621
 20
10.38669064666756
 30
0.0
 11
29.880823025138611
 21
10.38669064666747
 31
0.0
  0
LINE
  5
85
  8
1
 10
26.880823025138621
 20
9.3866906474820127
 30
0.0
 11
44.630823025138497
 21
9.3866906474820127
 31
0.0
  0
LINE
  5
86
  8
0
 10
27.880823025138621
 20
10.867075405217699
 30
0.0
 11
27.880823025138621
 21
7.9063058897464913
 31
0.0
  0
LINE
  5
87
  8
0
 10
28.18082302513875
 20
7.386690647475759
 30
0.0
 11
42.76479762134322
 21
7.386690647475759
 31
0.0
  0
LINE
  5
88
  8
0
 10
28.18082302513869
 20
11.386690647488489
 30
0.0
 11
42.764797621342851
 21
11.386690647488489
 31
0.0
  0
LINE
  5
89
  8
0
 10
43.630823025138497
 20
10.886690647482
 30
0.0
 11
43.630823025138497
 21
7.886690647482026
 31
0.0
  0
LINE
  5
8A
  8
0
 10
28.18082302513869
 20
11.386690647488489
 30
0.0
 11
28.18082302513875
 21
7.386690647475759
 31
0.0
  0
LINE
  5
8B
  8
0
 10
28.180823025138629
 20
7.3866906474756462
 30
0.0
 11
27.880823025138739
 21
7.906305889746263
 31
0.0
  0
LINE
  5
8C
  8
0
 10
28.18082302513869
 20
11.386690647488489
 30
0.0
 11
27.880823025138739
 21
10.86707540521782
 31
0.0
  0
LINE
  5
8D
  8
3
 10
27.962007273116509
 20
7.7656906474745284
 30
0.0
 11
43.421244877409691
 21
7.7656906474745284
 31
0.0
  0
LINE
  5
8E
  8
3
 10
27.962007273116509
 20
11.007690647489721
 30
0.0
 11
43.421244877409308
 21
11.007690647489721
 31
0.0
  0
LINE
  5
8F
  8
2
 10
29.880823025138611
 20
10.386690646667461
 30
0.0
 11
29.880823025138518
 21
8.3866906482954633
 31
0.0
  0
LINE
  5
90
  8
1
 10
43.130823025138497
 20
12.086690647488471
 30
0.0
 11
43.130823025138497
 21
6.6866906474755581
 31
0.0
  0
ARC
  5
91
  8
2
 10
43.130823025138497
 20
9.3866906474820127
 30
0.0
 40
1.25
 50
66.421821521792296
 51
293.57817847820769
  0
LINE
  5
92
  8
0
 10
43.880823025138618
 20
10.386690647481901
 30
0.0
 11
43.880823025138618
 21
8.3866906474821263
 31
0.0
  0
ARC
  5
93
  8
0
 10
43.130823025138497
 20
9.3866906474820127
 30
0.0
 40
1.25
 50
293.57817847820149
 51
306.86989764585132
  0
ARC
  5
94
  8
0
 10
43.130823025138511
 20
9.3866906474820127
 30
0.0
 40
1.25
 50
53.13010235414864
 51
66.421821521792154
  0
LINE
  5
95
  8
0
 10
43.630823025138497
 20
10.886690647482011
 30
0.0
 11
42.764797621342851
 21
11.386690647488489
 31
0.0
  0
LINE
  5
96
  8
0
 10
43.630823025138497
 20
7.886690647482026
 30
0.0
 11
42.764797621342851
 21
7.3866906474755458
 31
0.0
  0
LINE
  5
97
  8
0
 10
42.764797621342829
 20
11.386690647488489
 30
0.0
 11
42.76479762134322
 21
7.386690647475759
 31
0.0
  0
TEXT
  5
18B
  8
0
 62
     3
 10
0.0
 20
0.0
 30
0.0
 40
5.0
  1
BSF4X16-SUS
  7
STANDARD1
  0
ENDSEC
  0
EOF
