  0
SECTION
  2
HEADER
  9
$ACADVER
  1
AC1009
  9
$INSBASE
 10
0.0
 20
0.0
 30
0.0
  9
$EXTMIN
 10
0.0
 20
-1.4802182810368341
 30
0.0
  9
$EXTMAX
 10
166.42960165205059
 20
120.6740107913669
 30
0.0
  9
$LIMMIN
 10
0.0
 20
0.0
  9
$LIMMAX
 10
187.5
 20
135.0
  9
$ORTHOMODE
 70
     1
  9
$REGENMODE
 70
     1
  9
$FILLMODE
 70
     1
  9
$QTEXTMODE
 70
     0
  9
$MIRRTEXT
 70
     0
  9
$DRAGMODE
 70
     2
  9
$LTSCALE
 40
5.0
  9
$OSMODE
 70
  3071
  9
$ATTMODE
 70
     1
  9
$TEXTSIZE
 40
2.5000000000000488
  9
$TRACEWID
 40
0.05
  9
$TEXTSTYLE
  7
STANDARD
  9
$CLAYER
  8
0
  9
$CELTYPE
  6
BYLAYER
  9
$CECOLOR
 62
   256
  9
$DIMSCALE
 40
0.5
  9
$DIMASZ
 40
3.0
  9
$DIMEXO
 40
2.0
  9
$DIMDLI
 40
0.38
  9
$DIMRND
 40
0.0
  9
$DIMDLE
 40
0.0
  9
$DIMEXE
 40
2.0
  9
$DIMTP
 40
0.0
  9
$DIMTM
 40
0.0
  9
$DIMTXT
 40
3.2000000000000002
  9
$DIMCEN
 40
0.0
  9
$DIMTSZ
 40
0.0
  9
$DIMTOL
 70
     0
  9
$DIMLIM
 70
     0
  9
$DIMTIH
 70
     0
  9
$DIMTOH
 70
     0
  9
$DIMSE1
 70
     0
  9
$DIMSE2
 70
     0
  9
$DIMTAD
 70
     1
  9
$DIMZIN
 70
     0
  9
$DIMBLK
  1

  9
$DIMASO
 70
     0
  9
$DIMSHO
 70
     0
  9
$DIMPOST
  1

  9
$DIMAPOST
  1

  9
$DIMALT
 70
     0
  9
$DIMALTD
 70
     2
  9
$DIMALTF
 40
25.399999999999999
  9
$DIMLFAC
 40
1.0
  9
$DIMTOFL
 70
     1
  9
$DIMTVP
 40
1.6000000000000001
  9
$DIMTIX
 70
     1
  9
$DIMSOXD
 70
     0
  9
$DIMSAH
 70
     0
  9
$DIMBLK1
  1

  9
$DIMBLK2
  1

  9
$DIMSTYLE
  2
STANDARD
  9
$DIMCLRD
 70
     0
  9
$DIMCLRE
 70
     0
  9
$DIMCLRT
 70
     0
  9
$DIMTFAC
 40
1.0
  9
$DIMGAP
 40
0.09
  9
$LUNITS
 70
     2
  9
$LUPREC
 70
     4
  9
$SKETCHINC
 40
0.1
  9
$FILLETRAD
 40
0.0
  9
$AUNITS
 70
     0
  9
$AUPREC
 70
     4
  9
$MENU
  1
E:\r13\win\SUPPORT\ACAD
  9
$ELEVATION
 40
0.0
  9
$PELEVATION
 40
0.0
  9
$THICKNESS
 40
0.0
  9
$LIMCHECK
 70
     0
  9
$BLIPMODE
 70
     0
  9
$CHAMFERA
 40
0.0
  9
$CHAMFERB
 40
0.0
  9
$SKPOLY
 70
     0
  9
$TDCREATE
 40
2449840.6210532412
  9
$TDUPDATE
 40
2456598.3990221531
  9
$TDINDWG
 40
0.0009192245
  9
$TDUSRTIMER
 40
0.0009192245
  9
$USRTIMER
 70
     1
  9
$ANGBASE
 50
0.0
  9
$ANGDIR
 70
     0
  9
$PDMODE
 70
     0
  9
$PDSIZE
 40
0.0
  9
$PLINEWID
 40
0.0
  9
$COORDS
 70
     1
  9
$SPLFRAME
 70
     0
  9
$SPLINETYPE
 70
     6
  9
$SPLINESEGS
 70
     8
  9
$ATTDIA
 70
     0
  9
$ATTREQ
 70
     1
  9
$HANDLING
 70
     1
  9
$HANDSEED
  5
217
  9
$SURFTAB1
 70
     6
  9
$SURFTAB2
 70
     6
  9
$SURFTYPE
 70
     6
  9
$SURFU
 70
     6
  9
$SURFV
 70
     6
  9
$UCSNAME
  2

  9
$UCSORG
 10
0.0
 20
0.0
 30
0.0
  9
$UCSXDIR
 10
1.0
 20
0.0
 30
0.0
  9
$UCSYDIR
 10
0.0
 20
1.0
 30
0.0
  9
$PUCSNAME
  2

  9
$PUCSORG
 10
0.0
 20
0.0
 30
0.0
  9
$PUCSXDIR
 10
1.0
 20
0.0
 30
0.0
  9
$PUCSYDIR
 10
0.0
 20
1.0
 30
0.0
  9
$USERI1
 70
     0
  9
$USERI2
 70
     1
  9
$USERI3
 70
     0
  9
$USERI4
 70
     0
  9
$USERI5
 70
     0
  9
$USERR1
 40
0.0
  9
$USERR2
 40
0.0
  9
$USERR3
 40
0.0
  9
$USERR4
 40
0.0
  9
$USERR5
 40
0.0
  9
$WORLDVIEW
 70
     1
  9
$SHADEDGE
 70
     3
  9
$SHADEDIF
 70
    70
  9
$TILEMODE
 70
     1
  9
$MAXACTVP
 70
    16
  9
$PLIMCHECK
 70
     0
  9
$PEXTMIN
 10
1.0000000000000000E+020
 20
1.0000000000000000E+020
 30
1.0000000000000000E+020
  9
$PEXTMAX
 10
-1.0000000000000000E+020
 20
-1.0000000000000000E+020
 30
-1.0000000000000000E+020
  9
$PLIMMIN
 10
0.0
 20
0.0
  9
$PLIMMAX
 10
12.0
 20
9.0
  9
$UNITMODE
 70
     0
  9
$VISRETAIN
 70
     0
  9
$PLINEGEN
 70
     0
  9
$PSLTSCALE
 70
     0
  0
ENDSEC
  0
SECTION
  2
TABLES
  0
TABLE
  2
VPORT
 70
     1
  0
VPORT
  2
*ACTIVE
 70
     0
 10
0.0
 20
0.0
 11
1.0
 21
1.0
 12
97.52905416604365
 22
66.75636307133405
 13
0.0
 23
0.0
 14
5.0
 24
5.0
 15
5.0
 25
5.0
 16
0.0
 26
0.0
 36
1.0
 17
0.0
 27
0.0
 37
0.0
 40
137.71137496815999
 41
1.831871345029239
 42
50.0
 43
0.0
 44
0.0
 50
0.0
 51
0.0
 71
     0
 72
   500
 73
     1
 74
     0
 75
     0
 76
     0
 77
     0
 78
     2
  0
ENDTAB
  0
TABLE
  2
LTYPE
 70
     4
  0
LTYPE
  2
CONTINUOUS
 70
     0
  3
Solid Line
 72
    65
 73
     0
 40
0.0
  0
LTYPE
  2
CENTER
 70
     0
  3
____ _ ____ _ ____ _ ____ _ ____ _ ____ _ ____
 72
    65
 73
     4
 40
2.0
 49
1.25
 49
-0.25
 49
0.25
 49
-0.25
  0
LTYPE
  2
HIDDEN
 70
     0
  3
_ _ _ _ _ _ _ _ _ _ _ _ _ _ _ _ _ _ _ _ _ _ _
 72
    65
 73
     2
 40
0.375
 49
0.25
 49
-0.125
  0
LTYPE
  2
PHANTOM2
 70
     0
  3
___ _ _ ___ _ _ ___ _ _ ___ _ _
 72
    65
 73
     6
 40
1.25
 49
0.625
 49
-0.125
 49
0.125
 49
-0.125
 49
0.125
 49
-0.125
  0
ENDTAB
  0
TABLE
  2
LAYER
 70
     4
  0
LAYER
  2
0
 70
     0
 62
     7
  6
CONTINUOUS
  0
LAYER
  2
1
 70
     0
 62
     1
  6
CENTER
  0
LAYER
  2
2
 70
     0
 62
     2
  6
HIDDEN
  0
LAYER
  2
3
 70
     0
 62
     3
  6
CONTINUOUS
  0
ENDTAB
  0
TABLE
  2
STYLE
 70
     2
  0
STYLE
  2
STANDARD
 70
     0
 40
0.0
 41
1.0
 50
0.0
 71
     0
 42
2.5000000000000488
  3
TXT
  4
BIGFONT
  0
STYLE
  2
STANDARD1
 70
     0
 40
0.0
 41
1.0
 50
0.0
 71
     0
 42
3.0
  3
txt
  4

  0
ENDTAB
  0
TABLE
  2
VIEW
 70
     1
  0
VIEW
  2
ALL
 70
     0
 40
135.0
 10
110.4957983193277
 20
67.5
 41
0.0
 11
0.0
 21
0.0
 31
1.0
 12
0.0
 22
0.0
 32
0.0
 42
0.0
 43
0.0
 44
0.0
 50
0.0
 71
     0
  0
ENDTAB
  0
TABLE
  2
UCS
 70
     0
  0
ENDTAB
  0
TABLE
  2
APPID
 70
     3
  0
APPID
  2
ACAD
 70
     0
  0
APPID
  2
ACAD_MLEADERVER
 70
     0
  0
APPID
  2
ACAD_NAV_VCDISPLAY
 70
     0
  0
ENDTAB
  0
TABLE
  2
DIMSTYLE
 70
     1
  0
DIMSTYLE
  2
STANDARD
 70
     0
  3

  4

  5

  6

  7

 40
1.0
 41
0.18
 42
0.0625
 43
0.38
 44
0.18
 45
0.0
 46
0.0
 47
0.0
 48
0.0
140
0.18
141
0.09
142
0.0
143
25.399999999999999
144
1.0
145
0.0
146
1.0
147
0.09
 71
     0
 72
     0
 73
     1
 74
     1
 75
     0
 76
     0
 77
     0
 78
     0
170
     0
171
     2
172
     0
173
     0
174
     0
175
     0
176
     0
177
     0
178
     0
  0
ENDTAB
  0
ENDSEC
  0
SECTION
  2
BLOCKS
  0
BLOCK
  8
0
  2
$MODEL_SPACE
 70
     0
 10
0.0
 20
0.0
 30
0.0
  3
$MODEL_SPACE
  1

  0
ENDBLK
  5
CB
  8
0
  0
BLOCK
 67
     1
  8
0
  2
$PAPER_SPACE
 70
     0
 10
0.0
 20
0.0
 30
0.0
  3
$PAPER_SPACE
  1

  0
ENDBLK
  5
C9
 67
     1
  8
0
  0
ENDSEC
  0
SECTION
  2
ENTITIES
  0
LINE
  5
36
  8
0
 10
34.999999999998288
 20
74.814395674935724
 30
0.0
 11
38.999999999998302
 21
72.504994598178016
 31
0.0
  0
LINE
  5
37
  8
0
 10
31.000000003254289
 20
72.50499460005932
 30
0.0
 11
35.000000003254293
 21
74.814395676818378
 31
0.0
  0
LINE
  5
38
  8
0
 10
31.000000003254289
 20
67.886192450302417
 30
0.0
 11
31.000000003254289
 21
72.504994603819171
 31
0.0
  0
LINE
  5
39
  8
0
 10
34.999999999998288
 20
65.576791375423738
 30
0.0
 11
30.999999999998298
 21
67.886192452181433
 31
0.0
  0
LINE
  5
3A
  8
0
 10
38.999999996738659
 20
67.886192450300143
 30
0.0
 11
34.999999996742297
 21
65.576791373541084
 31
0.0
  0
LINE
  5
3B
  8
0
 10
38.999999996742311
 20
72.504994600059774
 30
0.0
 11
38.999999996742311
 21
67.886192446543021
 31
0.0
  0
CIRCLE
  5
3C
  8
3
 10
35.0
 20
70.195593525179845
 30
0.0
 40
6.9175000000000004
  0
CIRCLE
  5
3D
  8
0
 10
35.0
 20
70.195593525179845
 30
0.0
 40
8.0
  0
LINE
  5
3E
  8
2
 10
86.892432050644828
 20
74.814395674936904
 30
0.0
 11
89.559098715140678
 21
70.195593525179788
 31
0.0
  0
LINE
  5
3F
  8
0
 10
81.992432050644894
 20
78.195593525178936
 30
0.0
 11
101.86134313740079
 21
78.195593525178936
 31
0.0
  0
LINE
  5
40
  8
3
 10
81.367450384246766
 20
77.113093525178328
 30
0.0
 11
103.73628813659521
 21
77.113093525178343
 31
0.0
  0
LINE
  5
41
  8
0
 10
81.992432050644865
 20
78.195593525178936
 30
0.0
 11
80.892432050644871
 21
76.290337636853053
 31
0.0
  0
LINE
  5
42
  8
2
 10
80.892432050644842
 20
74.814395674936975
 30
0.0
 11
86.892432050644828
 21
74.814395674936904
 31
0.0
  0
LINE
  5
43
  8
2
 10
80.892432050644842
 20
72.50499460005733
 30
0.0
 11
86.892432050644871
 21
72.50499460005733
 31
0.0
  0
LINE
  5
44
  8
2
 10
86.892432050644828
 20
65.576791375422772
 30
0.0
 11
89.559098715140678
 21
70.195593525179902
 31
0.0
  0
LINE
  5
45
  8
2
 10
80.892432050644842
 20
67.88619245030236
 30
0.0
 11
86.892432050644871
 21
67.88619245030236
 31
0.0
  0
LINE
  5
46
  8
2
 10
80.892432050644842
 20
65.576791375422715
 30
0.0
 11
86.892432050644828
 21
65.576791375422772
 31
0.0
  0
LINE
  5
47
  8
0
 10
81.992432050644865
 20
62.195593525180747
 30
0.0
 11
80.892432050644871
 21
64.100849413506637
 31
0.0
  0
LINE
  5
48
  8
3
 10
81.367450384246766
 20
63.278093525181362
 30
0.0
 11
103.73628813659521
 21
63.278093525181362
 31
0.0
  0
LINE
  5
49
  8
0
 10
81.992432050644894
 20
62.195593525180747
 30
0.0
 11
101.86134313740079
 21
62.195593525180747
 31
0.0
  0
LINE
  5
4A
  8
0
 10
81.992432050644837
 20
62.195593525180747
 30
0.0
 11
81.992432050644837
 21
78.195593525178936
 31
0.0
  0
LINE
  5
4B
  8
2
 10
86.892432050644828
 20
65.576791375422772
 30
0.0
 11
86.892432050644828
 21
74.814395674936904
 31
0.0
  0
LINE
  5
4C
  8
0
 10
80.892432050644842
 20
64.10084941350658
 30
0.0
 11
80.892432050644871
 21
76.290337636853053
 31
0.0
  0
LINE
  5
4D
  8
0
 10
104.8924320506448
 20
63.945593525179838
 30
0.0
 11
104.8924320506448
 21
76.445593525179845
 31
0.0
  0
LINE
  5
4E
  8
1
 10
45.499999999999993
 20
70.195593525179845
 30
0.0
 11
24.5
 21
70.195593525179845
 31
0.0
  0
LINE
  5
4F
  8
1
 10
35.0
 20
80.695593525179845
 30
0.0
 11
35.0
 21
59.695593525179838
 31
0.0
  0
LINE
  5
50
  8
1
 10
78.392432050644857
 20
70.195593525179845
 30
0.0
 11
107.3924320506448
 21
70.195593525179845
 31
0.0
  0
LINE
  5
51
  8
0
 10
104.8924320506448
 20
76.445593525179845
 30
0.0
 11
101.86134313740079
 21
78.195593525178936
 31
0.0
  0
LINE
  5
52
  8
0
 10
104.8924320506448
 20
63.945593525179838
 30
0.0
 11
101.86134313740079
 21
62.195593525180747
 31
0.0
  0
LINE
  5
53
  8
0
 10
101.86134313740079
 20
62.195593525180747
 30
0.0
 11
101.86134313740079
 21
78.19559352517895
 31
0.0
  0
LINE
  5
54
  8
0
 10
105.8924320506448
 20
75.391745947886491
 30
0.0
 11
105.8924320506448
 21
64.999441102473227
 31
0.0
  0
ARC
  5
55
  8
0
 10
102.8924320506449
 20
70.195593525179859
 30
0.0
 40
6.0
 50
60.00000000000032
 51
70.528779365509948
  0
LINE
  5
56
  8
1
 10
102.8924320506449
 20
61.695593525179852
 30
0.0
 11
102.8924320506449
 21
78.695593525179859
 31
0.0
  0
ARC
  5
57
  8
0
 10
102.8924320506449
 20
70.195593525179859
 30
0.0
 40
6.0
 50
289.4712206344899
 51
299.9999999999996
  0
ARC
  5
58
  8
2
 10
102.8924320506449
 20
70.195593525179845
 30
0.0
 40
6.0
 50
70.528779365509436
 51
289.47122063449041
  0
LINE
  5
62
  8
1
 10
155.92960165205059
 20
80.695593525179845
 30
0.0
 11
155.92960165205059
 21
59.695593525179838
 31
0.0
  0
LINE
  5
63
  8
1
 10
166.42960165205059
 20
70.195593525179845
 30
0.0
 11
145.42960165205059
 21
70.195593525179845
 31
0.0
  0
CIRCLE
  5
64
  8
0
 10
155.92960165205059
 20
70.195593525179845
 30
0.0
 40
8.0
  0
CIRCLE
  5
65
  8
3
 10
155.92960165205059
 20
70.195593525179845
 30
0.0
 40
6.9175000000000004
  0
CIRCLE
  5
66
  8
0
 10
155.92960165205059
 20
70.195593525179845
 30
0.0
 40
5.1961524227067306
  0
CIRCLE
  5
67
  8
0
 10
155.92960165205059
 20
70.195593525179845
 30
0.0
 40
5.6568542494926239
  0
ARC
  5
68
  8
2
 10
102.8924320506449
 20
112.1740107913669
 30
0.0
 40
6.0
 50
70.528779365509436
 51
289.47122063449041
  0
ARC
  5
69
  8
0
 10
102.8924320506449
 20
112.1740107913669
 30
0.0
 40
6.0
 50
289.4712206344899
 51
299.9999999999996
  0
LINE
  5
6A
  8
1
 10
102.8924320506449
 20
103.6740107913669
 30
0.0
 11
102.8924320506449
 21
120.6740107913669
 31
0.0
  0
ARC
  5
6B
  8
0
 10
102.8924320506449
 20
112.1740107913669
 30
0.0
 40
6.0
 50
60.00000000000032
 51
70.528779365509948
  0
LINE
  5
6C
  8
0
 10
105.8924320506448
 20
117.3701632140735
 30
0.0
 11
105.8924320506448
 21
106.97785836866019
 31
0.0
  0
LINE
  5
6D
  8
0
 10
101.86134313740079
 20
104.17401079136781
 30
0.0
 11
101.86134313740079
 21
120.174010791366
 31
0.0
  0
LINE
  5
6E
  8
0
 10
104.8924320506448
 20
105.9240107913669
 30
0.0
 11
101.86134313740079
 21
104.17401079136781
 31
0.0
  0
LINE
  5
6F
  8
0
 10
104.8924320506448
 20
118.4240107913669
 30
0.0
 11
101.86134313740079
 21
120.174010791366
 31
0.0
  0
LINE
  5
70
  8
1
 10
78.392432050644857
 20
112.1740107913669
 30
0.0
 11
107.3924320506448
 21
112.1740107913669
 31
0.0
  0
LINE
  5
71
  8
0
 10
104.8924320506448
 20
105.9240107913669
 30
0.0
 11
104.8924320506448
 21
118.4240107913669
 31
0.0
  0
LINE
  5
72
  8
0
 10
80.892432050644842
 20
106.0792666796936
 30
0.0
 11
80.892432050644871
 21
118.2687549030401
 31
0.0
  0
LINE
  5
73
  8
2
 10
86.892432050644828
 20
108.1740107946212
 30
0.0
 11
86.892432050644828
 21
116.1740107881092
 31
0.0
  0
LINE
  5
74
  8
0
 10
81.992432050644837
 20
104.17401079136781
 30
0.0
 11
81.992432050644837
 21
120.174010791366
 31
0.0
  0
LINE
  5
75
  8
0
 10
81.992432050644894
 20
104.17401079136781
 30
0.0
 11
101.86134313740079
 21
104.17401079136781
 31
0.0
  0
LINE
  5
76
  8
3
 10
81.367450384246766
 20
105.2565107913684
 30
0.0
 11
103.73628813659521
 21
105.2565107913684
 31
0.0
  0
LINE
  5
77
  8
0
 10
81.992432050644865
 20
104.17401079136781
 30
0.0
 11
80.892432050644871
 21
106.0792666796937
 31
0.0
  0
LINE
  5
78
  8
0
 10
81.992432050644865
 20
120.174010791366
 30
0.0
 11
80.892432050644871
 21
118.2687549030401
 31
0.0
  0
LINE
  5
79
  8
3
 10
81.367450384246766
 20
119.09151079136529
 30
0.0
 11
103.73628813659521
 21
119.09151079136539
 31
0.0
  0
LINE
  5
7A
  8
0
 10
81.992432050644894
 20
120.174010791366
 30
0.0
 11
101.86134313740079
 21
120.174010791366
 31
0.0
  0
LINE
  5
7B
  8
2
 10
80.892432050644857
 20
116.1740107881092
 30
0.0
 11
86.892432050644828
 21
116.1740107881092
 31
0.0
  0
LINE
  5
7C
  8
2
 10
80.892432050644842
 20
112.1740107913669
 30
0.0
 11
86.892432050644828
 21
112.1740107913669
 31
0.0
  0
LINE
  5
7D
  8
2
 10
80.892432050644842
 20
108.1740107946212
 30
0.0
 11
86.892432050644828
 21
108.1740107946212
 31
0.0
  0
LINE
  5
7E
  8
2
 10
86.892432050644828
 20
116.1740107881092
 30
0.0
 11
89.559098715140635
 21
112.1740107913669
 31
0.0
  0
LINE
  5
7F
  8
2
 10
86.892432050644828
 20
108.1740107946212
 30
0.0
 11
89.559098715140635
 21
112.1740107913669
 31
0.0
  0
LINE
  5
80
  8
0
 10
81.992432050644894
 20
32.588579136689731
 30
0.0
 11
101.86134313740079
 21
32.588579136689731
 31
0.0
  0
LINE
  5
81
  8
3
 10
81.367450384246766
 20
31.506079136689131
 30
0.0
 11
103.73628813659521
 21
31.506079136689142
 31
0.0
  0
LINE
  5
82
  8
0
 10
81.992432050644865
 20
32.588579136689731
 30
0.0
 11
80.892432050644871
 21
30.683323248363848
 31
0.0
  0
LINE
  5
83
  8
0
 10
81.992432050644865
 20
16.58857913669155
 30
0.0
 11
80.892432050644871
 21
18.493835025017429
 31
0.0
  0
LINE
  5
84
  8
3
 10
81.367450384246766
 20
17.67107913669216
 30
0.0
 11
103.73628813659521
 21
17.67107913669216
 31
0.0
  0
LINE
  5
85
  8
0
 10
81.992432050644894
 20
16.58857913669155
 30
0.0
 11
101.86134313740079
 21
16.58857913669155
 31
0.0
  0
LINE
  5
86
  8
0
 10
81.992432050644837
 20
16.58857913669155
 30
0.0
 11
81.992432050644837
 21
32.588579136689731
 31
0.0
  0
LINE
  5
87
  8
0
 10
80.892432050644842
 20
18.493835025017379
 30
0.0
 11
80.892432050644871
 21
30.683323248363848
 31
0.0
  0
LINE
  5
88
  8
0
 10
104.8924320506448
 20
18.33857913669064
 30
0.0
 11
104.8924320506448
 21
30.83857913669064
 31
0.0
  0
LINE
  5
89
  8
1
 10
78.392432050644857
 20
24.58857913669064
 30
0.0
 11
107.3924320506448
 21
24.58857913669064
 31
0.0
  0
LINE
  5
8A
  8
0
 10
104.8924320506448
 20
30.83857913669064
 30
0.0
 11
101.86134313740079
 21
32.588579136689731
 31
0.0
  0
LINE
  5
8B
  8
0
 10
104.8924320506448
 20
18.33857913669064
 30
0.0
 11
101.86134313740079
 21
16.58857913669155
 31
0.0
  0
LINE
  5
8C
  8
0
 10
101.86134313740079
 20
16.58857913669155
 30
0.0
 11
101.86134313740079
 21
32.588579136689752
 31
0.0
  0
LINE
  5
8D
  8
0
 10
105.8924320506448
 20
29.78473155939729
 30
0.0
 11
105.8924320506448
 21
19.392426713984019
 31
0.0
  0
ARC
  5
8E
  8
0
 10
102.8924320506449
 20
24.588579136690662
 30
0.0
 40
6.0
 50
60.00000000000032
 51
70.528779365509948
  0
LINE
  5
8F
  8
1
 10
102.8924320506449
 20
16.088579136690662
 30
0.0
 11
102.8924320506449
 21
33.088579136690647
 31
0.0
  0
ARC
  5
90
  8
0
 10
102.8924320506449
 20
24.588579136690662
 30
0.0
 40
6.0
 50
289.4712206344899
 51
299.9999999999996
  0
ARC
  5
91
  8
2
 10
102.8924320506449
 20
24.58857913669064
 30
0.0
 40
6.0
 50
70.528779365509436
 51
289.47122063449041
  0
LINE
  5
92
  8
2
 10
86.892432050644828
 20
20.58857913994494
 30
0.0
 11
86.892432050644828
 21
28.58857913343298
 31
0.0
  0
LINE
  5
93
  8
2
 10
80.892432050644857
 20
28.588579133432951
 30
0.0
 11
86.892432050644828
 21
28.588579133432962
 31
0.0
  0
LINE
  5
94
  8
2
 10
80.892432050644842
 20
24.58857913669063
 30
0.0
 11
86.892432050644828
 21
24.58857913669064
 31
0.0
  0
LINE
  5
95
  8
2
 10
80.892432050644842
 20
20.58857913994493
 30
0.0
 11
86.892432050644828
 21
20.58857913994493
 31
0.0
  0
LINE
  5
96
  8
2
 10
86.892432050644828
 20
28.588579133432962
 30
0.0
 11
89.559098715140635
 21
24.58857913669063
 31
0.0
  0
LINE
  5
97
  8
2
 10
86.892432050644828
 20
20.58857913994494
 30
0.0
 11
89.559098715140635
 21
24.58857913669064
 31
0.0
  0
TEXT
  5
186
  8
0
 62
     3
 10
0.0
 20
0.0
 30
0.0
 40
5.0
  1
BSF16X25
  7
STANDARD1
  0
ENDSEC
  0
EOF
