  0
SECTION
  2
HEADER
  9
$ACADVER
  1
AC1009
  9
$INSBASE
 10
0.0
 20
0.0
 30
0.0
  9
$EXTMIN
 10
0.0
 20
-1.4802182810368341
 30
0.0
  9
$EXTMAX
 10
152.99579831932769
 20
112.4995503597122
 30
0.0
  9
$LIMMIN
 10
0.0
 20
0.0
  9
$LIMMAX
 10
187.5
 20
135.0
  9
$ORTHOMODE
 70
     1
  9
$REGENMODE
 70
     1
  9
$FILLMODE
 70
     1
  9
$QTEXTMODE
 70
     0
  9
$MIRRTEXT
 70
     0
  9
$DRAGMODE
 70
     2
  9
$LTSCALE
 40
5.0
  9
$OSMODE
 70
  3071
  9
$ATTMODE
 70
     1
  9
$TEXTSIZE
 40
2.5000000000000488
  9
$TRACEWID
 40
0.05
  9
$TEXTSTYLE
  7
STANDARD
  9
$CLAYER
  8
0
  9
$CELTYPE
  6
BYLAYER
  9
$CECOLOR
 62
   256
  9
$DIMSCALE
 40
0.5
  9
$DIMASZ
 40
3.0
  9
$DIMEXO
 40
2.0
  9
$DIMDLI
 40
0.38
  9
$DIMRND
 40
0.0
  9
$DIMDLE
 40
0.0
  9
$DIMEXE
 40
2.0
  9
$DIMTP
 40
0.0
  9
$DIMTM
 40
0.0
  9
$DIMTXT
 40
3.2000000000000002
  9
$DIMCEN
 40
0.0
  9
$DIMTSZ
 40
0.0
  9
$DIMTOL
 70
     0
  9
$DIMLIM
 70
     0
  9
$DIMTIH
 70
     0
  9
$DIMTOH
 70
     0
  9
$DIMSE1
 70
     0
  9
$DIMSE2
 70
     0
  9
$DIMTAD
 70
     1
  9
$DIMZIN
 70
     0
  9
$DIMBLK
  1

  9
$DIMASO
 70
     0
  9
$DIMSHO
 70
     0
  9
$DIMPOST
  1

  9
$DIMAPOST
  1

  9
$DIMALT
 70
     0
  9
$DIMALTD
 70
     2
  9
$DIMALTF
 40
25.399999999999999
  9
$DIMLFAC
 40
1.0
  9
$DIMTOFL
 70
     1
  9
$DIMTVP
 40
1.6000000000000001
  9
$DIMTIX
 70
     1
  9
$DIMSOXD
 70
     0
  9
$DIMSAH
 70
     0
  9
$DIMBLK1
  1

  9
$DIMBLK2
  1

  9
$DIMSTYLE
  2
STANDARD
  9
$DIMCLRD
 70
     0
  9
$DIMCLRE
 70
     0
  9
$DIMCLRT
 70
     0
  9
$DIMTFAC
 40
1.0
  9
$DIMGAP
 40
0.09
  9
$LUNITS
 70
     2
  9
$LUPREC
 70
     4
  9
$SKETCHINC
 40
0.1
  9
$FILLETRAD
 40
0.0
  9
$AUNITS
 70
     0
  9
$AUPREC
 70
     4
  9
$MENU
  1
E:\r13\win\SUPPORT\ACAD
  9
$ELEVATION
 40
0.0
  9
$PELEVATION
 40
0.0
  9
$THICKNESS
 40
0.0
  9
$LIMCHECK
 70
     0
  9
$BLIPMODE
 70
     0
  9
$CHAMFERA
 40
0.0
  9
$CHAMFERB
 40
0.0
  9
$SKPOLY
 70
     0
  9
$TDCREATE
 40
2449840.6209259261
  9
$TDUPDATE
 40
2456598.3987903241
  9
$TDINDWG
 40
0.00022875
  9
$TDUSRTIMER
 40
0.00022875
  9
$USRTIMER
 70
     1
  9
$ANGBASE
 50
0.0
  9
$ANGDIR
 70
     0
  9
$PDMODE
 70
     0
  9
$PDSIZE
 40
0.0
  9
$PLINEWID
 40
0.0
  9
$COORDS
 70
     1
  9
$SPLFRAME
 70
     0
  9
$SPLINETYPE
 70
     6
  9
$SPLINESEGS
 70
     8
  9
$ATTDIA
 70
     0
  9
$ATTREQ
 70
     1
  9
$HANDLING
 70
     1
  9
$HANDSEED
  5
219
  9
$SURFTAB1
 70
     6
  9
$SURFTAB2
 70
     6
  9
$SURFTYPE
 70
     6
  9
$SURFU
 70
     6
  9
$SURFV
 70
     6
  9
$UCSNAME
  2

  9
$UCSORG
 10
0.0
 20
0.0
 30
0.0
  9
$UCSXDIR
 10
1.0
 20
0.0
 30
0.0
  9
$UCSYDIR
 10
0.0
 20
1.0
 30
0.0
  9
$PUCSNAME
  2

  9
$PUCSORG
 10
0.0
 20
0.0
 30
0.0
  9
$PUCSXDIR
 10
1.0
 20
0.0
 30
0.0
  9
$PUCSYDIR
 10
0.0
 20
1.0
 30
0.0
  9
$USERI1
 70
     0
  9
$USERI2
 70
     1
  9
$USERI3
 70
     0
  9
$USERI4
 70
     0
  9
$USERI5
 70
     0
  9
$USERR1
 40
0.0
  9
$USERR2
 40
0.0
  9
$USERR3
 40
0.0
  9
$USERR4
 40
0.0
  9
$USERR5
 40
0.0
  9
$WORLDVIEW
 70
     1
  9
$SHADEDGE
 70
     3
  9
$SHADEDIF
 70
    70
  9
$TILEMODE
 70
     1
  9
$MAXACTVP
 70
    16
  9
$PLIMCHECK
 70
     0
  9
$PEXTMIN
 10
1.0000000000000000E+020
 20
1.0000000000000000E+020
 30
1.0000000000000000E+020
  9
$PEXTMAX
 10
-1.0000000000000000E+020
 20
-1.0000000000000000E+020
 30
-1.0000000000000000E+020
  9
$PLIMMIN
 10
0.0
 20
0.0
  9
$PLIMMAX
 10
12.0
 20
9.0
  9
$UNITMODE
 70
     0
  9
$VISRETAIN
 70
     0
  9
$PLINEGEN
 70
     0
  9
$PSLTSCALE
 70
     0
  0
ENDSEC
  0
SECTION
  2
TABLES
  0
TABLE
  2
VPORT
 70
     1
  0
VPORT
  2
*ACTIVE
 70
     0
 10
0.0
 20
0.0
 11
1.0
 21
1.0
 12
97.52905416604365
 22
66.75636307133405
 13
0.0
 23
0.0
 14
5.0
 24
5.0
 15
5.0
 25
5.0
 16
0.0
 26
0.0
 36
1.0
 17
0.0
 27
0.0
 37
0.0
 40
137.71137496815999
 41
1.831871345029239
 42
50.0
 43
0.0
 44
0.0
 50
0.0
 51
0.0
 71
     0
 72
   500
 73
     1
 74
     0
 75
     0
 76
     0
 77
     0
 78
     2
  0
ENDTAB
  0
TABLE
  2
LTYPE
 70
     4
  0
LTYPE
  2
CONTINUOUS
 70
     0
  3
Solid Line
 72
    65
 73
     0
 40
0.0
  0
LTYPE
  2
CENTER
 70
     0
  3
____ _ ____ _ ____ _ ____ _ ____ _ ____ _ ____
 72
    65
 73
     4
 40
2.0
 49
1.25
 49
-0.25
 49
0.25
 49
-0.25
  0
LTYPE
  2
HIDDEN
 70
     0
  3
_ _ _ _ _ _ _ _ _ _ _ _ _ _ _ _ _ _ _ _ _ _ _
 72
    65
 73
     2
 40
0.375
 49
0.25
 49
-0.125
  0
LTYPE
  2
PHANTOM2
 70
     0
  3
___ _ _ ___ _ _ ___ _ _ ___ _ _
 72
    65
 73
     6
 40
1.25
 49
0.625
 49
-0.125
 49
0.125
 49
-0.125
 49
0.125
 49
-0.125
  0
ENDTAB
  0
TABLE
  2
LAYER
 70
     4
  0
LAYER
  2
0
 70
     0
 62
     7
  6
CONTINUOUS
  0
LAYER
  2
1
 70
     0
 62
     1
  6
CENTER
  0
LAYER
  2
2
 70
     0
 62
     2
  6
HIDDEN
  0
LAYER
  2
3
 70
     0
 62
     3
  6
CONTINUOUS
  0
ENDTAB
  0
TABLE
  2
STYLE
 70
     2
  0
STYLE
  2
STANDARD
 70
     0
 40
0.0
 41
1.0
 50
0.0
 71
     0
 42
2.5000000000000488
  3
TXT
  4
BIGFONT
  0
STYLE
  2
STANDARD1
 70
     0
 40
0.0
 41
1.0
 50
0.0
 71
     0
 42
3.0
  3
txt
  4

  0
ENDTAB
  0
TABLE
  2
VIEW
 70
     1
  0
VIEW
  2
ALL
 70
     0
 40
135.0
 10
110.4957983193277
 20
67.5
 41
0.0
 11
0.0
 21
0.0
 31
1.0
 12
0.0
 22
0.0
 32
0.0
 42
0.0
 43
0.0
 44
0.0
 50
0.0
 71
     0
  0
ENDTAB
  0
TABLE
  2
UCS
 70
     0
  0
ENDTAB
  0
TABLE
  2
APPID
 70
     3
  0
APPID
  2
ACAD
 70
     0
  0
APPID
  2
ACAD_MLEADERVER
 70
     0
  0
APPID
  2
ACAD_NAV_VCDISPLAY
 70
     0
  0
ENDTAB
  0
TABLE
  2
DIMSTYLE
 70
     1
  0
DIMSTYLE
  2
STANDARD
 70
     0
  3

  4

  5

  6

  7

 40
1.0
 41
0.18
 42
0.0625
 43
0.38
 44
0.18
 45
0.0
 46
0.0
 47
0.0
 48
0.0
140
0.18
141
0.09
142
0.0
143
25.399999999999999
144
1.0
145
0.0
146
1.0
147
0.09
 71
     0
 72
     0
 73
     1
 74
     1
 75
     0
 76
     0
 77
     0
 78
     0
170
     0
171
     2
172
     0
173
     0
174
     0
175
     0
176
     0
177
     0
178
     0
  0
ENDTAB
  0
ENDSEC
  0
SECTION
  2
BLOCKS
  0
BLOCK
  8
0
  2
$MODEL_SPACE
 70
     0
 10
0.0
 20
0.0
 30
0.0
  3
$MODEL_SPACE
  1

  0
ENDBLK
  5
CD
  8
0
  0
BLOCK
 67
     1
  8
0
  2
$PAPER_SPACE
 70
     0
 10
0.0
 20
0.0
 30
0.0
  3
$PAPER_SPACE
  1

  0
ENDBLK
  5
CB
 67
     1
  8
0
  0
ENDSEC
  0
SECTION
  2
ENTITIES
  0
CIRCLE
  5
36
  8
0
 10
35.0
 20
67.016636690647488
 30
0.0
 40
5.0
  0
CIRCLE
  5
37
  8
3
 10
35.0
 20
67.016636690647488
 30
0.0
 40
4.1879999999998736
  0
LINE
  5
38
  8
0
 10
37.499999997964331
 20
68.460012362447273
 30
0.0
 11
37.499999997964331
 21
65.5732610164996
 31
0.0
  0
LINE
  5
39
  8
0
 10
37.499999997962497
 20
65.573261018847461
 30
0.0
 11
34.999999997964331
 21
64.12988534587339
 31
0.0
  0
LINE
  5
3A
  8
0
 10
34.999999999999773
 20
64.129885347049822
 30
0.0
 11
32.499999999999773
 21
65.573261020023438
 31
0.0
  0
LINE
  5
3B
  8
0
 10
32.500000002033403
 20
65.57326101884928
 30
0.0
 11
32.500000002033403
 21
68.460012364796967
 31
0.0
  0
LINE
  5
3C
  8
0
 10
32.500000002033403
 20
68.460012362447273
 30
0.0
 11
35.000000002033403
 21
69.903388035421358
 31
0.0
  0
LINE
  5
3D
  8
0
 10
34.999999999999773
 20
69.903388034244927
 30
0.0
 11
37.499999999999773
 21
68.460012361271311
 31
0.0
  0
LINE
  5
3E
  8
1
 10
42.5
 20
67.016636690647488
 30
0.0
 11
27.5
 21
67.016636690647488
 31
0.0
  0
LINE
  5
3F
  8
1
 10
35.0
 20
74.516636690647488
 30
0.0
 11
35.0
 21
59.516636690647488
 31
0.0
  0
LINE
  5
40
  8
2
 10
86.254829124471613
 20
69.903388034245765
 30
0.0
 11
87.921495789781645
 21
67.016636690647431
 31
0.0
  0
LINE
  5
41
  8
2
 10
86.254829124471613
 20
64.129885347049083
 30
0.0
 11
87.921495789781616
 21
67.016636690647431
 31
0.0
  0
LINE
  5
42
  8
0
 10
95.389765615010489
 20
62.016636690647431
 30
0.0
 11
83.054829124471624
 21
62.016636690647488
 31
0.0
  0
LINE
  5
43
  8
0
 10
95.389765615010646
 20
72.016636690647417
 30
0.0
 11
83.054829124471567
 21
72.016636690647431
 31
0.0
  0
LINE
  5
44
  8
3
 10
96.866829124471664
 20
62.828636690647429
 30
0.0
 11
82.586020705889695
 21
62.828636690647564
 31
0.0
  0
LINE
  5
45
  8
3
 10
96.866829124471664
 20
71.204636690647362
 30
0.0
 11
82.58602070588951
 21
71.204636690647419
 31
0.0
  0
LINE
  5
46
  8
0
 10
97.554829124471695
 20
70.766636690647488
 30
0.0
 11
97.554829124471624
 21
63.266636690647459
 31
0.0
  0
LINE
  5
47
  8
0
 10
82.254829124471556
 20
70.630996044592393
 30
0.0
 11
82.254829124471684
 21
63.402277336702859
 31
0.0
  0
LINE
  5
48
  8
2
 10
86.254829124471556
 20
69.90338803424612
 30
0.0
 11
86.254829124471613
 21
64.129885347049083
 31
0.0
  0
LINE
  5
49
  8
0
 10
83.054829124471567
 20
72.016636690647431
 30
0.0
 11
83.054829124471624
 21
62.016636690647488
 31
0.0
  0
LINE
  5
4A
  8
0
 10
83.054829124471624
 20
72.016636690647431
 30
0.0
 11
82.254829124471556
 21
70.630996044592393
 31
0.0
  0
LINE
  5
4B
  8
0
 10
83.054829124471624
 20
62.016636690647658
 30
0.0
 11
82.254829124471556
 21
63.402277336702809
 31
0.0
  0
LINE
  5
4C
  8
2
 10
86.254829124471556
 20
69.90338803424612
 30
0.0
 11
82.254829124471556
 21
69.90338803424612
 31
0.0
  0
LINE
  5
4D
  8
2
 10
86.254829124471556
 20
68.460012362446548
 30
0.0
 11
82.254829124471556
 21
68.460012362446548
 31
0.0
  0
LINE
  5
4E
  8
2
 10
86.254829124471556
 20
65.573261018848655
 30
0.0
 11
82.254829124471556
 21
65.573261018848655
 31
0.0
  0
LINE
  5
4F
  8
2
 10
86.254829124471556
 20
64.129885347049083
 30
0.0
 11
82.254829124471556
 21
64.129885347049083
 31
0.0
  0
LINE
  5
50
  8
1
 10
79.754829124471613
 20
67.016636690647488
 30
0.0
 11
100.05482912447169
 21
67.016636690647488
 31
0.0
  0
LINE
  5
51
  8
0
 10
97.554829124471624
 20
70.766636690647488
 30
0.0
 11
95.389765615010674
 21
72.016636690647402
 31
0.0
  0
LINE
  5
52
  8
0
 10
97.554829124471624
 20
63.266636690647481
 30
0.0
 11
95.389765615010674
 21
62.016636690647552
 31
0.0
  0
LINE
  5
53
  8
0
 10
95.389765615010489
 20
62.016636690647431
 30
0.0
 11
95.389765615010674
 21
72.016636690647417
 31
0.0
  0
LINE
  5
54
  8
0
 10
98.254829124471641
 20
70.018302894607956
 30
0.0
 11
98.254829124471641
 21
64.014970486687048
 31
0.0
  0
ARC
  5
55
  8
0
 10
96.454829124471303
 20
67.016636690647488
 30
0.0
 40
3.5
 50
59.050276921133921
 51
71.68230158879463
  0
LINE
  5
56
  8
1
 10
96.454829124471303
 20
61.016636690647488
 30
0.0
 11
96.454829124471317
 21
73.016636690647474
 31
0.0
  0
ARC
  5
57
  8
0
 10
96.454829124471303
 20
67.016636690647488
 30
0.0
 40
3.5
 50
288.31769841120399
 51
300.94972307886621
  0
ARC
  5
58
  8
2
 10
96.454829124471317
 20
67.016636690647488
 30
0.0
 40
3.5
 50
71.682301588794999
 51
288.31769841120359
  0
LINE
  5
62
  8
1
 10
145.49579831932769
 20
74.516636690647488
 30
0.0
 11
145.49579831932769
 21
59.516636690647488
 31
0.0
  0
LINE
  5
63
  8
1
 10
152.99579831932769
 20
67.016636690647488
 30
0.0
 11
137.99579831932769
 21
67.016636690647488
 31
0.0
  0
CIRCLE
  5
64
  8
3
 10
145.49579831932769
 20
67.016636690647488
 30
0.0
 40
4.1879999999998736
  0
CIRCLE
  5
65
  8
0
 10
145.49579831932769
 20
67.016636690647488
 30
0.0
 40
5.0
  0
CIRCLE
  5
66
  8
0
 10
145.49579831932769
 20
67.016636690647488
 30
0.0
 40
3.0016662039601409
  0
CIRCLE
  5
67
  8
0
 10
145.49579831932769
 20
67.016636690647488
 30
0.0
 40
3.3226495451670668
  0
ARC
  5
68
  8
2
 10
96.454829124471317
 20
106.4995503597122
 30
0.0
 40
3.5
 50
71.682301588794999
 51
288.31769841120359
  0
ARC
  5
69
  8
0
 10
96.454829124471303
 20
106.4995503597122
 30
0.0
 40
3.5
 50
288.31769841120399
 51
300.94972307886621
  0
LINE
  5
6A
  8
1
 10
96.454829124471303
 20
100.4995503597122
 30
0.0
 11
96.454829124471317
 21
112.4995503597122
 31
0.0
  0
ARC
  5
6B
  8
0
 10
96.454829124471303
 20
106.4995503597122
 30
0.0
 40
3.5
 50
59.050276921133921
 51
71.68230158879463
  0
LINE
  5
6C
  8
0
 10
98.254829124471641
 20
109.5012165636727
 30
0.0
 11
98.254829124471641
 21
103.49788415575181
 31
0.0
  0
LINE
  5
6D
  8
0
 10
95.389765615010489
 20
101.4995503597122
 30
0.0
 11
95.389765615010674
 21
111.4995503597121
 31
0.0
  0
LINE
  5
6E
  8
0
 10
97.554829124471624
 20
102.7495503597122
 30
0.0
 11
95.389765615010674
 21
101.4995503597123
 31
0.0
  0
LINE
  5
6F
  8
0
 10
97.554829124471624
 20
110.2495503597122
 30
0.0
 11
95.389765615010674
 21
111.4995503597121
 31
0.0
  0
LINE
  5
70
  8
1
 10
79.754829124471613
 20
106.4995503597122
 30
0.0
 11
100.05482912447169
 21
106.4995503597122
 31
0.0
  0
LINE
  5
71
  8
0
 10
83.054829124471624
 20
101.4995503597124
 30
0.0
 11
82.254829124471556
 21
102.8851910057675
 31
0.0
  0
LINE
  5
72
  8
0
 10
83.054829124471624
 20
111.4995503597121
 30
0.0
 11
82.254829124471556
 21
110.11390971365709
 31
0.0
  0
LINE
  5
73
  8
0
 10
83.054829124471567
 20
111.4995503597121
 30
0.0
 11
83.054829124471624
 21
101.4995503597122
 31
0.0
  0
LINE
  5
74
  8
2
 10
86.254829124471556
 20
108.9995503576767
 30
0.0
 11
86.254829124471613
 21
103.9995503617457
 31
0.0
  0
LINE
  5
75
  8
0
 10
82.254829124471556
 20
110.11390971365709
 30
0.0
 11
82.254829124471684
 21
102.8851910057676
 31
0.0
  0
LINE
  5
76
  8
0
 10
97.554829124471695
 20
110.2495503597122
 30
0.0
 11
97.554829124471624
 21
102.7495503597122
 31
0.0
  0
LINE
  5
77
  8
3
 10
96.866829124471664
 20
110.68755035971211
 30
0.0
 11
82.58602070588951
 21
110.68755035971211
 31
0.0
  0
LINE
  5
78
  8
3
 10
96.866829124471664
 20
102.3115503597122
 30
0.0
 11
82.586020705889695
 21
102.3115503597123
 31
0.0
  0
LINE
  5
79
  8
0
 10
95.389765615010646
 20
111.4995503597121
 30
0.0
 11
83.054829124471567
 21
111.4995503597121
 31
0.0
  0
LINE
  5
7A
  8
0
 10
95.389765615010489
 20
101.4995503597121
 30
0.0
 11
83.054829124471624
 21
101.4995503597122
 31
0.0
  0
LINE
  5
7B
  8
2
 10
82.25482912447157
 20
108.9995503576766
 30
0.0
 11
86.254829124471556
 21
108.9995503576767
 31
0.0
  0
LINE
  5
7C
  8
2
 10
82.254829124471598
 20
106.4995503597131
 30
0.0
 11
86.254829124471584
 21
106.4995503597132
 31
0.0
  0
LINE
  5
7D
  8
2
 10
82.254829124471655
 20
103.9995503617457
 30
0.0
 11
86.254829124471613
 21
103.9995503617457
 31
0.0
  0
LINE
  5
7E
  8
2
 10
86.254829124471613
 20
103.9995503617457
 30
0.0
 11
87.921495789781616
 21
106.4995503597122
 31
0.0
  0
LINE
  5
7F
  8
2
 10
87.921495789781588
 20
106.4995503597122
 30
0.0
 11
86.254829124471556
 21
108.9995503576767
 31
0.0
  0
LINE
  5
80
  8
2
 10
86.254829124471556
 20
108.9995503576767
 30
0.0
 11
86.254829124471556
 21
103.9995503617457
 31
0.0
  0
LINE
  5
81
  8
2
 10
86.254829124471556
 20
28.907374098683899
 30
0.0
 11
86.254829124471556
 21
23.907374102752879
 31
0.0
  0
LINE
  5
82
  8
2
 10
87.921495789781588
 20
26.407374100719441
 30
0.0
 11
86.254829124471556
 21
28.907374098683899
 31
0.0
  0
LINE
  5
83
  8
2
 10
86.254829124471613
 20
23.907374102752971
 30
0.0
 11
87.921495789781616
 21
26.407374100719419
 31
0.0
  0
LINE
  5
84
  8
2
 10
82.254829124471655
 20
23.907374102752939
 30
0.0
 11
86.254829124471613
 21
23.907374102752971
 31
0.0
  0
LINE
  5
85
  8
2
 10
82.254829124471598
 20
26.407374100720361
 30
0.0
 11
86.254829124471584
 21
26.407374100720421
 31
0.0
  0
LINE
  5
86
  8
2
 10
82.25482912447157
 20
28.907374098683881
 30
0.0
 11
86.254829124471556
 21
28.907374098683899
 31
0.0
  0
LINE
  5
87
  8
0
 10
95.389765615010489
 20
21.40737410071938
 30
0.0
 11
83.054829124471624
 21
21.407374100719441
 31
0.0
  0
LINE
  5
88
  8
0
 10
95.389765615010646
 20
31.40737410071937
 30
0.0
 11
83.054829124471567
 21
31.40737410071938
 31
0.0
  0
LINE
  5
89
  8
3
 10
96.866829124471664
 20
22.219374100719381
 30
0.0
 11
82.586020705889695
 21
22.219374100719509
 31
0.0
  0
LINE
  5
8A
  8
3
 10
96.866829124471664
 20
30.595374100719312
 30
0.0
 11
82.58602070588951
 21
30.595374100719368
 31
0.0
  0
LINE
  5
8B
  8
0
 10
97.554829124471695
 20
30.157374100719441
 30
0.0
 11
97.554829124471624
 21
22.657374100719409
 31
0.0
  0
LINE
  5
8C
  8
0
 10
82.254829124471556
 20
30.021733454664339
 30
0.0
 11
82.254829124471684
 21
22.793014746774819
 31
0.0
  0
LINE
  5
8D
  8
2
 10
86.254829124471556
 20
28.907374098683899
 30
0.0
 11
86.254829124471613
 21
23.907374102752971
 31
0.0
  0
LINE
  5
8E
  8
0
 10
83.054829124471567
 20
31.40737410071938
 30
0.0
 11
83.054829124471624
 21
21.407374100719441
 31
0.0
  0
LINE
  5
8F
  8
0
 10
83.054829124471624
 20
31.40737410071938
 30
0.0
 11
82.254829124471556
 21
30.021733454664339
 31
0.0
  0
LINE
  5
90
  8
0
 10
83.054829124471624
 20
21.407374100719611
 30
0.0
 11
82.254829124471556
 21
22.793014746774759
 31
0.0
  0
LINE
  5
91
  8
1
 10
79.754829124471613
 20
26.407374100719441
 30
0.0
 11
100.05482912447169
 21
26.407374100719441
 31
0.0
  0
LINE
  5
92
  8
0
 10
97.554829124471624
 20
30.157374100719441
 30
0.0
 11
95.389765615010674
 21
31.407374100719348
 31
0.0
  0
LINE
  5
93
  8
0
 10
97.554829124471624
 20
22.657374100719419
 30
0.0
 11
95.389765615010674
 21
21.407374100719512
 31
0.0
  0
LINE
  5
94
  8
0
 10
95.389765615010489
 20
21.407374100719402
 30
0.0
 11
95.389765615010674
 21
31.40737410071937
 31
0.0
  0
LINE
  5
95
  8
0
 10
98.254829124471641
 20
29.409040304679898
 30
0.0
 11
98.254829124471641
 21
23.405707896759001
 31
0.0
  0
ARC
  5
96
  8
0
 10
96.454829124471303
 20
26.407374100719441
 30
0.0
 40
3.5
 50
59.050276921133921
 51
71.68230158879463
  0
LINE
  5
97
  8
1
 10
96.454829124471303
 20
20.407374100719451
 30
0.0
 11
96.454829124471317
 21
32.407374100719437
 31
0.0
  0
ARC
  5
98
  8
0
 10
96.454829124471303
 20
26.407374100719441
 30
0.0
 40
3.5
 50
288.31769841120399
 51
300.94972307886621
  0
ARC
  5
99
  8
2
 10
96.454829124471317
 20
26.407374100719441
 30
0.0
 40
3.5
 50
71.682301588794999
 51
288.31769841120359
  0
TEXT
  5
188
  8
0
 62
     3
 10
0.0
 20
0.0
 30
0.0
 40
5.0
  1
BSF10X16
  7
STANDARD1
  0
ENDSEC
  0
EOF
