  0
SECTION
  2
HEADER
  9
$ACADVER
  1
AC1009
  9
$INSBASE
 10
0.0
 20
0.0
 30
0.0
  9
$EXTMIN
 10
0.0
 20
-2.960436562073669
 30
0.0
  9
$EXTMAX
 10
269.5
 20
165.0
 30
0.0
  9
$LIMMIN
 10
0.0
 20
0.0
  9
$LIMMAX
 10
385.0
 20
270.0
  9
$ORTHOMODE
 70
     1
  9
$REGENMODE
 70
     1
  9
$FILLMODE
 70
     1
  9
$QTEXTMODE
 70
     0
  9
$MIRRTEXT
 70
     0
  9
$DRAGMODE
 70
     2
  9
$LTSCALE
 40
10.0
  9
$OSMODE
 70
  3071
  9
$ATTMODE
 70
     1
  9
$TEXTSIZE
 40
0.2
  9
$TRACEWID
 40
0.05
  9
$TEXTSTYLE
  7
STANDARD
  9
$CLAYER
  8
0
  9
$CELTYPE
  6
BYLAYER
  9
$CECOLOR
 62
   256
  9
$DIMSCALE
 40
1.0
  9
$DIMASZ
 40
3.0
  9
$DIMEXO
 40
2.0
  9
$DIMDLI
 40
0.38
  9
$DIMRND
 40
0.0
  9
$DIMDLE
 40
0.0
  9
$DIMEXE
 40
2.0
  9
$DIMTP
 40
0.0
  9
$DIMTM
 40
0.0
  9
$DIMTXT
 40
3.0
  9
$DIMCEN
 40
0.0
  9
$DIMTSZ
 40
0.0
  9
$DIMTOL
 70
     0
  9
$DIMLIM
 70
     0
  9
$DIMTIH
 70
     0
  9
$DIMTOH
 70
     0
  9
$DIMSE1
 70
     0
  9
$DIMSE2
 70
     0
  9
$DIMTAD
 70
     1
  9
$DIMZIN
 70
     0
  9
$DIMBLK
  1

  9
$DIMASO
 70
     0
  9
$DIMSHO
 70
     0
  9
$DIMPOST
  1

  9
$DIMAPOST
  1

  9
$DIMALT
 70
     0
  9
$DIMALTD
 70
     2
  9
$DIMALTF
 40
25.399999999999999
  9
$DIMLFAC
 40
1.0
  9
$DIMTOFL
 70
     1
  9
$DIMTVP
 40
1.6000000000000001
  9
$DIMTIX
 70
     1
  9
$DIMSOXD
 70
     0
  9
$DIMSAH
 70
     0
  9
$DIMBLK1
  1

  9
$DIMBLK2
  1

  9
$DIMSTYLE
  2
STANDARD
  9
$DIMCLRD
 70
     0
  9
$DIMCLRE
 70
     0
  9
$DIMCLRT
 70
     0
  9
$DIMTFAC
 40
1.0
  9
$DIMGAP
 40
0.09
  9
$LUNITS
 70
     2
  9
$LUPREC
 70
     4
  9
$SKETCHINC
 40
0.1
  9
$FILLETRAD
 40
0.0
  9
$AUNITS
 70
     0
  9
$AUPREC
 70
     4
  9
$MENU
  1
E:\r13\win\SUPPORT\ACAD
  9
$ELEVATION
 40
0.0
  9
$PELEVATION
 40
0.0
  9
$THICKNESS
 40
0.0
  9
$LIMCHECK
 70
     0
  9
$BLIPMODE
 70
     0
  9
$CHAMFERA
 40
0.0
  9
$CHAMFERB
 40
0.0
  9
$SKPOLY
 70
     0
  9
$TDCREATE
 40
2449840.6117476849
  9
$TDUPDATE
 40
2456598.3979947921
  9
$TDINDWG
 40
0.0014531597
  9
$TDUSRTIMER
 40
0.0014531597
  9
$USRTIMER
 70
     1
  9
$ANGBASE
 50
0.0
  9
$ANGDIR
 70
     0
  9
$PDMODE
 70
     0
  9
$PDSIZE
 40
0.0
  9
$PLINEWID
 40
0.0
  9
$COORDS
 70
     1
  9
$SPLFRAME
 70
     0
  9
$SPLINETYPE
 70
     6
  9
$SPLINESEGS
 70
     8
  9
$ATTDIA
 70
     0
  9
$ATTREQ
 70
     1
  9
$HANDLING
 70
     1
  9
$HANDSEED
  5
2C9
  9
$SURFTAB1
 70
     6
  9
$SURFTAB2
 70
     6
  9
$SURFTYPE
 70
     6
  9
$SURFU
 70
     6
  9
$SURFV
 70
     6
  9
$UCSNAME
  2

  9
$UCSORG
 10
0.0
 20
0.0
 30
0.0
  9
$UCSXDIR
 10
1.0
 20
0.0
 30
0.0
  9
$UCSYDIR
 10
0.0
 20
1.0
 30
0.0
  9
$PUCSNAME
  2

  9
$PUCSORG
 10
0.0
 20
0.0
 30
0.0
  9
$PUCSXDIR
 10
1.0
 20
0.0
 30
0.0
  9
$PUCSYDIR
 10
0.0
 20
1.0
 30
0.0
  9
$USERI1
 70
     3
  9
$USERI2
 70
     1
  9
$USERI3
 70
     0
  9
$USERI4
 70
     0
  9
$USERI5
 70
     0
  9
$USERR1
 40
1.0
  9
$USERR2
 40
3.0
  9
$USERR3
 40
3.0
  9
$USERR4
 40
3.0
  9
$USERR5
 40
10.0
  9
$WORLDVIEW
 70
     1
  9
$SHADEDGE
 70
     3
  9
$SHADEDIF
 70
    70
  9
$TILEMODE
 70
     1
  9
$MAXACTVP
 70
    16
  9
$PLIMCHECK
 70
     0
  9
$PEXTMIN
 10
1.0000000000000000E+020
 20
1.0000000000000000E+020
 30
1.0000000000000000E+020
  9
$PEXTMAX
 10
-1.0000000000000000E+020
 20
-1.0000000000000000E+020
 30
-1.0000000000000000E+020
  9
$PLIMMIN
 10
0.0
 20
0.0
  9
$PLIMMAX
 10
12.0
 20
9.0
  9
$UNITMODE
 70
     0
  9
$VISRETAIN
 70
     0
  9
$PLINEGEN
 70
     0
  9
$PSLTSCALE
 70
     0
  0
ENDSEC
  0
SECTION
  2
TABLES
  0
TABLE
  2
VPORT
 70
     1
  0
VPORT
  2
*ACTIVE
 70
     0
 10
0.0
 20
0.0
 11
1.0
 21
1.0
 12
200.05795575583809
 22
133.5127261426681
 13
0.0
 23
0.0
 14
5.0
 24
5.0
 15
20.0
 25
20.0
 16
0.0
 26
0.0
 36
1.0
 17
0.0
 27
0.0
 37
0.0
 40
275.42274993631997
 41
1.831871345029239
 42
50.0
 43
0.0
 44
0.0
 50
0.0
 51
0.0
 71
     0
 72
   100
 73
     1
 74
     0
 75
     0
 76
     0
 77
     0
 78
     2
  0
ENDTAB
  0
TABLE
  2
LTYPE
 70
     4
  0
LTYPE
  2
CONTINUOUS
 70
     0
  3
Solid Line
 72
    65
 73
     0
 40
0.0
  0
LTYPE
  2
CENTER
 70
     0
  3
____ _ ____ _ ____ _ ____ _ ____ _ ____ _ ____
 72
    65
 73
     4
 40
2.0
 49
1.25
 49
-0.25
 49
0.25
 49
-0.25
  0
LTYPE
  2
HIDDEN
 70
     0
  3
_ _ _ _ _ _ _ _ _ _ _ _ _ _ _ _ _ _ _ _ _ _ _
 72
    65
 73
     2
 40
0.375
 49
0.25
 49
-0.125
  0
LTYPE
  2
PHANTOM2
 70
     0
  3
___ _ _ ___ _ _ ___ _ _ ___ _ _
 72
    65
 73
     6
 40
1.25
 49
0.625
 49
-0.125
 49
0.125
 49
-0.125
 49
0.125
 49
-0.125
  0
ENDTAB
  0
TABLE
  2
LAYER
 70
     5
  0
LAYER
  2
0
 70
     0
 62
     7
  6
CONTINUOUS
  0
LAYER
  2
3
 70
     0
 62
     3
  6
CONTINUOUS
  0
LAYER
  2
ITTEN
 70
     0
 62
     1
  6
CENTER
  0
LAYER
  2
JISSEN
 70
     0
 62
     7
  6
CONTINUOUS
  0
LAYER
  2
TENSEN
 70
     0
 62
     2
  6
HIDDEN
  0
ENDTAB
  0
TABLE
  2
STYLE
 70
     2
  0
STYLE
  2
STANDARD
 70
     0
 40
0.0
 41
1.0
 50
0.0
 71
     0
 42
0.2
  3
TXT
  4
BIGFONT
  0
STYLE
  2
STANDARD1
 70
     0
 40
0.0
 41
1.0
 50
0.0
 71
     0
 42
3.0
  3
txt
  4

  0
ENDTAB
  0
TABLE
  2
VIEW
 70
     1
  0
VIEW
  2
ALL
 70
     0
 40
540.0
 10
441.98319299999991
 20
270.0
 41
0.0
 11
0.0
 21
0.0
 31
1.0
 12
0.0
 22
0.0
 32
0.0
 42
0.0
 43
0.0
 44
0.0
 50
0.0
 71
     0
  0
ENDTAB
  0
TABLE
  2
UCS
 70
     0
  0
ENDTAB
  0
TABLE
  2
APPID
 70
     3
  0
APPID
  2
ACAD
 70
     0
  0
APPID
  2
ACAD_MLEADERVER
 70
     0
  0
APPID
  2
ACAD_NAV_VCDISPLAY
 70
     0
  0
ENDTAB
  0
TABLE
  2
DIMSTYLE
 70
     1
  0
DIMSTYLE
  2
STANDARD
 70
     0
  3

  4

  5

  6

  7

 40
1.0
 41
0.18
 42
0.0625
 43
0.38
 44
0.18
 45
0.0
 46
0.0
 47
0.0
 48
0.0
140
0.18
141
0.09
142
0.0
143
25.399999999999999
144
1.0
145
0.0
146
1.0
147
0.09
 71
     0
 72
     0
 73
     1
 74
     1
 75
     0
 76
     0
 77
     0
 78
     0
170
     0
171
     2
172
     0
173
     0
174
     0
175
     0
176
     0
177
     0
178
     0
  0
ENDTAB
  0
ENDSEC
  0
SECTION
  2
BLOCKS
  0
BLOCK
  8
0
  2
$MODEL_SPACE
 70
     0
 10
0.0
 20
0.0
 30
0.0
  3
$MODEL_SPACE
  1

  0
ENDBLK
  5
17B
  8
0
  0
BLOCK
 67
     1
  8
0
  2
$PAPER_SPACE
 70
     0
 10
0.0
 20
0.0
 30
0.0
  3
$PAPER_SPACE
  1

  0
ENDBLK
  5
179
 67
     1
  8
0
  0
BLOCK
  8
0
  2
STDGX5
 70
     0
 10
0.0
 20
0.0
 30
0.0
  3
STDGX5
  1

  0
ENDBLK
  5
3E
  8
0
  0
ENDSEC
  0
SECTION
  2
ENTITIES
  0
INSERT
  5
48
  8
0
  2
STDGX5
 10
0.0
 20
0.0
 30
0.0
  0
CIRCLE
  5
49
  8
TENSEN
 10
120.0
 20
140.0
 30
0.0
 40
10.0
  0
LINE
  5
4A
  8
JISSEN
 10
121.8
 20
140.0
 30
0.0
 11
120.933975
 21
138.5
 31
0.0
  0
LINE
  5
4B
  8
JISSEN
 10
121.8
 20
140.0
 30
0.0
 11
120.933975
 21
141.5
 31
0.0
  0
LINE
  5
4C
  8
JISSEN
 10
118.2
 20
140.0
 30
0.0
 11
119.066025
 21
141.5
 31
0.0
  0
LINE
  5
4D
  8
JISSEN
 10
118.2
 20
140.0
 30
0.0
 11
119.066025
 21
138.5
 31
0.0
  0
LINE
  5
4E
  8
JISSEN
 10
119.066025
 20
141.5
 30
0.0
 11
120.933975
 21
141.5
 31
0.0
  0
LINE
  5
4F
  8
JISSEN
 10
119.066025
 20
138.5
 30
0.0
 11
120.933975
 21
138.5
 31
0.0
  0
CIRCLE
  5
50
  8
JISSEN
 10
120.0
 20
140.0
 30
0.0
 40
2.1339749999999991
  0
CIRCLE
  5
51
  8
JISSEN
 10
120.0
 20
140.0
 30
0.0
 40
3.0
  0
LINE
  5
52
  8
ITTEN
 10
120.0
 20
165.0
 30
0.0
 11
120.0
 21
115.0
 31
0.0
  0
CIRCLE
  5
53
  8
JISSEN
 10
120.0
 20
140.0
 30
0.0
 40
20.0
  0
LINE
  5
54
  8
ITTEN
 10
95.0
 20
140.0
 30
0.0
 11
145.0
 21
140.0
 31
0.0
  0
CIRCLE
  5
55
  8
JISSEN
 10
120.0
 20
140.0
 30
0.0
 40
19.0
  0
LINE
  5
56
  8
ITTEN
 10
205.0
 20
140.0
 30
0.0
 11
269.5
 21
140.0
 31
0.0
  0
LINE
  5
57
  8
JISSEN
 10
219.0
 20
160.0
 30
0.0
 11
211.0
 21
160.0
 31
0.0
  0
LINE
  5
58
  8
JISSEN
 10
264.5
 20
131.0
 30
0.0
 11
264.5
 21
149.0
 31
0.0
  0
LINE
  5
59
  8
JISSEN
 10
221.0
 20
150.0
 30
0.0
 11
251.5
 21
150.0
 31
0.0
  0
LINE
  5
5A
  8
JISSEN
 10
211.0
 20
160.0
 30
0.0
 11
210.0
 21
159.0
 31
0.0
  0
LINE
  5
5B
  8
JISSEN
 10
219.0
 20
160.0
 30
0.0
 11
220.0
 21
159.0
 31
0.0
  0
LINE
  5
5C
  8
JISSEN
 10
211.0
 20
120.0
 30
0.0
 11
211.0
 21
160.0
 31
0.0
  0
LINE
  5
5D
  8
JISSEN
 10
219.0
 20
160.0
 30
0.0
 11
219.0
 21
120.0
 31
0.0
  0
LINE
  5
5E
  8
JISSEN
 10
221.0
 20
130.0
 30
0.0
 11
221.0
 21
150.0
 31
0.0
  0
LINE
  5
5F
  8
JISSEN
 10
220.0
 20
149.5
 30
0.0
 11
221.0
 21
149.5
 31
0.0
  0
LINE
  5
60
  8
JISSEN
 10
263.5
 20
150.0
 30
0.0
 11
264.5
 21
149.0
 31
0.0
  0
LINE
  5
61
  8
JISSEN
 10
263.5
 20
150.0
 30
0.0
 11
263.5
 21
130.0
 31
0.0
  0
LINE
  5
62
  8
TENSEN
 10
219.80000000000001
 20
155.0
 30
0.0
 11
220.0
 21
155.0
 31
0.0
  0
LINE
  5
63
  8
JISSEN
 10
251.5
 20
130.0
 30
0.0
 11
251.5
 21
150.0
 31
0.0
  0
LINE
  5
64
  8
JISSEN
 10
254.09999999999999
 20
130.33702500000001
 30
0.0
 11
254.09999999999999
 21
145.584686
 31
0.0
  0
LINE
  5
65
  8
JISSEN
 10
254.09999999999999
 20
150.0
 30
0.0
 11
254.50654299999999
 21
150.0
 31
0.0
  0
LINE
  5
66
  8
3
 10
211.0
 20
140.0
 30
0.0
 11
219.0
 21
144.61880199999999
 31
0.0
  0
LINE
  5
67
  8
3
 10
214.464102
 20
140.0
 30
0.0
 11
219.0
 21
142.61880199999999
 31
0.0
  0
LINE
  5
68
  8
3
 10
217.92820299999991
 20
140.0
 30
0.0
 11
219.0
 21
140.61880199999999
 31
0.0
  0
LINE
  5
69
  8
3
 10
211.0
 20
142.0
 30
0.0
 11
219.0
 21
146.61880199999999
 31
0.0
  0
LINE
  5
6A
  8
3
 10
211.0
 20
144.0
 30
0.0
 11
219.0
 21
148.61880199999999
 31
0.0
  0
LINE
  5
6B
  8
3
 10
211.0
 20
146.0
 30
0.0
 11
219.0
 21
150.61880199999999
 31
0.0
  0
LINE
  5
6C
  8
3
 10
211.0
 20
148.0
 30
0.0
 11
219.0
 21
152.61880199999999
 31
0.0
  0
LINE
  5
6D
  8
3
 10
211.0
 20
150.0
 30
0.0
 11
219.0
 21
154.61880199999999
 31
0.0
  0
LINE
  5
6E
  8
3
 10
211.0
 20
152.0
 30
0.0
 11
219.0
 21
156.61880199999999
 31
0.0
  0
LINE
  5
6F
  8
3
 10
211.0
 20
154.0
 30
0.0
 11
219.0
 21
158.6188019999999
 31
0.0
  0
LINE
  5
70
  8
3
 10
211.0
 20
156.0
 30
0.0
 11
217.92820299999991
 21
160.0
 31
0.0
  0
LINE
  5
71
  8
3
 10
211.0
 20
158.0
 30
0.0
 11
214.464102
 21
160.0
 31
0.0
  0
LINE
  5
72
  8
3
 10
214.87564399999999
 20
140.0
 30
0.0
 11
211.0
 21
142.237604
 31
0.0
  0
LINE
  5
73
  8
3
 10
219.0
 20
139.61880199999999
 30
0.0
 11
211.0
 21
144.237604
 31
0.0
  0
LINE
  5
74
  8
3
 10
219.0
 20
141.61880199999999
 30
0.0
 11
211.0
 21
146.237604
 31
0.0
  0
LINE
  5
75
  8
3
 10
219.0
 20
143.61880199999999
 30
0.0
 11
211.0
 21
148.237604
 31
0.0
  0
LINE
  5
76
  8
3
 10
219.0
 20
145.61880199999999
 30
0.0
 11
211.0
 21
150.237604
 31
0.0
  0
LINE
  5
77
  8
3
 10
219.0
 20
147.61880199999999
 30
0.0
 11
211.0
 21
152.237604
 31
0.0
  0
LINE
  5
78
  8
3
 10
219.0
 20
149.61880199999999
 30
0.0
 11
211.0
 21
154.237604
 31
0.0
  0
LINE
  5
79
  8
3
 10
219.0
 20
151.61880199999999
 30
0.0
 11
211.0
 21
156.237604
 31
0.0
  0
LINE
  5
7A
  8
3
 10
219.0
 20
153.61880199999999
 30
0.0
 11
211.0
 21
158.237604
 31
0.0
  0
LINE
  5
7B
  8
3
 10
219.0
 20
155.61880199999999
 30
0.0
 11
211.41154299999999
 21
160.0
 31
0.0
  0
LINE
  5
7C
  8
3
 10
219.0
 20
157.61880199999999
 30
0.0
 11
214.87564399999999
 21
160.0
 31
0.0
  0
LINE
  5
7D
  8
3
 10
219.0
 20
159.61880199999999
 30
0.0
 11
218.33974599999999
 21
160.0
 31
0.0
  0
POLYLINE
  5
82
  8
JISSEN
 66
     1
 10
0.0
 20
0.0
 30
0.0
  0
VERTEX
  5
83
  8
JISSEN
 10
256.10000000000002
 20
145.34999999999999
 30
0.0
 42
0.046632
  0
VERTEX
  5
84
  8
JISSEN
 10
258.55649899999997
 20
145.57939200000001
 30
0.0
 42
0.069389
  0
VERTEX
  5
85
  8
JISSEN
 10
260.11050499999999
 20
146.165616
 30
0.0
 42
0.105882
 70
     2
 50
28.606845
  0
VERTEX
  5
86
  8
JISSEN
 10
261.282355
 20
147.17338699999999
 30
0.0
 42
0.163832
 50
28.606845
  0
VERTEX
  5
87
  8
JISSEN
 10
261.60602499999999
 20
148.13468700000001
 30
0.0
 42
0.163832
  0
VERTEX
  5
88
  8
JISSEN
 10
261.282355
 20
149.09598700000001
 30
0.0
 42
0.091773
  0
VERTEX
  5
89
  8
JISSEN
 10
260.28872200000001
 20
150.0
 30
0.0
 42
0.066502
 70
     2
 50
151.39315500000001
  0
SEQEND
  5
8A
  8
JISSEN
  0
POLYLINE
  5
8B
  8
JISSEN
 66
     1
 10
0.0
 20
0.0
 30
0.0
  0
VERTEX
  5
8C
  8
JISSEN
 10
254.09999999999999
 20
145.566813
 30
0.0
 42
0.054045
 50
331.39315499999998
  0
VERTEX
  5
8D
  8
JISSEN
 10
256.10000000000002
 20
145.34999999999999
 30
0.0
 42
0.0556
  0
SEQEND
  5
8E
  8
JISSEN
  0
LINE
  5
8F
  8
JISSEN
 10
254.09999999999999
 20
145.584686
 30
0.0
 11
253.40000000000001
 21
144.88468599999999
 31
0.0
  0
LINE
  5
90
  8
JISSEN
 10
253.40000000000001
 20
131.21987300000001
 30
0.0
 11
253.40000000000001
 21
149.033333
 31
0.0
  0
LINE
  5
91
  8
JISSEN
 10
253.40000000000001
 20
148.78012699999999
 30
0.0
 11
254.09999999999999
 21
150.0
 31
0.0
  0
ARC
  5
92
  8
JISSEN
 10
252.44999999999999
 20
149.033333
 30
0.0
 40
0.95
 50
0.0
 51
180.0
  0
LINE
  5
93
  8
TENSEN
 10
219.80000000000001
 20
125.0
 30
0.0
 11
219.80000000000001
 21
155.0
 31
0.0
  0
LINE
  5
94
  8
JISSEN
 10
220.0
 20
121.0
 30
0.0
 11
220.0
 21
159.0
 31
0.0
  0
LINE
  5
95
  8
JISSEN
 10
210.0
 20
159.0
 30
0.0
 11
210.0
 21
121.0
 31
0.0
  0
ARC
  5
96
  8
JISSEN
 10
257.08437500000002
 20
146.47672499999999
 30
0.0
 40
4.3656249999999988
 50
10.910769999999999
 51
147.559752
  0
LINE
  5
97
  8
JISSEN
 10
254.09999999999999
 20
150.0
 30
0.0
 11
254.09999999999999
 21
149.66297499999999
 31
0.0
  0
LINE
  5
98
  8
JISSEN
 10
259.66220700000002
 20
150.0
 30
0.0
 11
263.5
 21
150.0
 31
0.0
  0
LINE
  5
99
  8
JISSEN
 10
259.66220700000002
 20
130.0
 30
0.0
 11
263.5
 21
130.0
 31
0.0
  0
LINE
  5
9A
  8
JISSEN
 10
254.09999999999999
 20
130.0
 30
0.0
 11
254.09999999999999
 21
130.33702500000001
 31
0.0
  0
ARC
  5
9B
  8
JISSEN
 10
257.08437500000002
 20
133.52327500000001
 30
0.0
 40
4.3656249999999988
 50
212.440248
 51
349.08922999999999
  0
ARC
  5
9C
  8
JISSEN
 10
252.44999999999999
 20
130.966667
 30
0.0
 40
0.95
 50
180.0
 51
0.0
  0
LINE
  5
9D
  8
JISSEN
 10
253.40000000000001
 20
131.21987300000001
 30
0.0
 11
254.09999999999999
 21
130.0
 31
0.0
  0
LINE
  5
9E
  8
JISSEN
 10
254.09999999999999
 20
134.415314
 30
0.0
 11
253.40000000000001
 21
135.11531400000001
 31
0.0
  0
POLYLINE
  5
9F
  8
JISSEN
 66
     1
 10
0.0
 20
0.0
 30
0.0
  0
VERTEX
  5
A0
  8
JISSEN
 10
254.09999999999999
 20
134.433187
 30
0.0
 42
-0.054045
  0
VERTEX
  5
A1
  8
JISSEN
 10
256.10000000000002
 20
134.65000000000001
 30
0.0
 42
-0.0556
  0
SEQEND
  5
A2
  8
JISSEN
  0
POLYLINE
  5
A3
  8
JISSEN
 66
     1
 10
0.0
 20
0.0
 30
0.0
  0
VERTEX
  5
A4
  8
JISSEN
 10
256.10000000000002
 20
134.65000000000001
 30
0.0
 42
-0.046632
  0
VERTEX
  5
A5
  8
JISSEN
 10
258.55649899999997
 20
134.42060799999999
 30
0.0
 42
-0.069389
  0
VERTEX
  5
A6
  8
JISSEN
 10
260.11050499999999
 20
133.834384
 30
0.0
 42
-0.105882
 70
     2
 50
28.606845
  0
VERTEX
  5
A7
  8
JISSEN
 10
261.282355
 20
132.82661300000001
 30
0.0
 42
-0.163832
  0
VERTEX
  5
A8
  8
JISSEN
 10
261.60602499999999
 20
131.86531299999999
 30
0.0
 42
-0.163832
  0
VERTEX
  5
A9
  8
JISSEN
 10
261.282355
 20
130.90401299999999
 30
0.0
 42
-0.091773
  0
VERTEX
  5
AA
  8
JISSEN
 10
260.28872200000001
 20
130.0
 30
0.0
 42
-0.066502
 70
     2
 50
151.39315500000001
  0
SEQEND
  5
AB
  8
JISSEN
  0
LINE
  5
AE
  8
JISSEN
 10
254.09999999999999
 20
130.0
 30
0.0
 11
254.50654299999999
 21
130.0
 31
0.0
  0
LINE
  5
AF
  8
TENSEN
 10
219.80000000000001
 20
125.0
 30
0.0
 11
220.0
 21
125.0
 31
0.0
  0
LINE
  5
B0
  8
JISSEN
 10
263.5
 20
130.0
 30
0.0
 11
264.5
 21
131.0
 31
0.0
  0
LINE
  5
B1
  8
JISSEN
 10
220.0
 20
130.5
 30
0.0
 11
221.0
 21
130.5
 31
0.0
  0
LINE
  5
B2
  8
JISSEN
 10
219.0
 20
120.0
 30
0.0
 11
220.0
 21
121.0
 31
0.0
  0
LINE
  5
B3
  8
JISSEN
 10
211.0
 20
120.0
 30
0.0
 11
210.0
 21
121.0
 31
0.0
  0
LINE
  5
B4
  8
JISSEN
 10
221.0
 20
130.0
 30
0.0
 11
251.5
 21
130.0
 31
0.0
  0
LINE
  5
B5
  8
JISSEN
 10
219.0
 20
120.0
 30
0.0
 11
211.0
 21
120.0
 31
0.0
  0
LINE
  5
B8
  8
3
 10
219.0
 20
137.61880199999999
 30
0.0
 11
214.87564399999999
 21
140.0
 31
0.0
  0
LINE
  5
B9
  8
3
 10
219.0
 20
135.61880199999999
 30
0.0
 11
211.0
 21
140.237604
 31
0.0
  0
LINE
  5
BA
  8
3
 10
219.0
 20
133.61880199999999
 30
0.0
 11
211.0
 21
138.237604
 31
0.0
  0
LINE
  5
BB
  8
3
 10
219.0
 20
131.61880199999999
 30
0.0
 11
211.0
 21
136.237604
 31
0.0
  0
LINE
  5
BC
  8
3
 10
219.0
 20
129.61880199999999
 30
0.0
 11
211.0
 21
134.237604
 31
0.0
  0
LINE
  5
BD
  8
3
 10
219.0
 20
127.618802
 30
0.0
 11
211.0
 21
132.237604
 31
0.0
  0
LINE
  5
BE
  8
3
 10
219.0
 20
125.618802
 30
0.0
 11
211.0
 21
130.237604
 31
0.0
  0
LINE
  5
BF
  8
3
 10
219.0
 20
123.618802
 30
0.0
 11
211.0
 21
128.237604
 31
0.0
  0
LINE
  5
C0
  8
3
 10
219.0
 20
121.618802
 30
0.0
 11
211.0
 21
126.237604
 31
0.0
  0
LINE
  5
C1
  8
3
 10
218.33974599999999
 20
120.0
 30
0.0
 11
211.0
 21
124.237604
 31
0.0
  0
LINE
  5
C2
  8
3
 10
214.87564399999999
 20
120.0
 30
0.0
 11
211.0
 21
122.237604
 31
0.0
  0
LINE
  5
C3
  8
3
 10
211.0
 20
138.0
 30
0.0
 11
214.464102
 21
140.0
 31
0.0
  0
LINE
  5
C4
  8
3
 10
211.0
 20
136.0
 30
0.0
 11
217.92820299999991
 21
140.0
 31
0.0
  0
LINE
  5
C5
  8
3
 10
211.0
 20
134.0
 30
0.0
 11
219.0
 21
138.61880199999999
 31
0.0
  0
LINE
  5
C6
  8
3
 10
211.0
 20
132.0
 30
0.0
 11
219.0
 21
136.61880199999999
 31
0.0
  0
LINE
  5
C7
  8
3
 10
211.0
 20
130.0
 30
0.0
 11
219.0
 21
134.61880199999999
 31
0.0
  0
LINE
  5
C8
  8
3
 10
211.0
 20
128.0
 30
0.0
 11
219.0
 21
132.61880199999999
 31
0.0
  0
LINE
  5
C9
  8
3
 10
211.0
 20
126.0
 30
0.0
 11
219.0
 21
130.61880199999999
 31
0.0
  0
LINE
  5
CA
  8
3
 10
211.0
 20
124.0
 30
0.0
 11
219.0
 21
128.61880199999999
 31
0.0
  0
LINE
  5
CB
  8
3
 10
211.0
 20
122.0
 30
0.0
 11
219.0
 21
126.618802
 31
0.0
  0
LINE
  5
CC
  8
3
 10
217.92820299999991
 20
120.0
 30
0.0
 11
219.0
 21
120.618802
 31
0.0
  0
LINE
  5
CD
  8
3
 10
214.464102
 20
120.0
 30
0.0
 11
219.0
 21
122.618802
 31
0.0
  0
LINE
  5
CE
  8
3
 10
211.0
 20
120.0
 30
0.0
 11
219.0
 21
124.618802
 31
0.0
  0
INSERT
  5
CF
  8
0
  2
STDGX5
 10
0.0
 20
0.0
 30
0.0
  0
LINE
  5
E2
  8
0
 10
248.7109495064756
 20
130.0
 30
0.0
 11
245.18440989230629
 21
150.0
 31
0.0
  0
LINE
  5
E3
  8
0
 10
243.71094950647571
 20
130.0
 30
0.0
 11
240.18440989230641
 21
150.0
 31
0.0
  0
LINE
  5
E4
  8
0
 10
238.7109495064756
 20
130.0
 30
0.0
 11
235.18440989230629
 21
150.0
 31
0.0
  0
LINE
  5
E5
  8
0
 10
233.71094950647571
 20
130.0
 30
0.0
 11
230.18440989230629
 21
150.0
 31
0.0
  0
LINE
  5
E6
  8
0
 10
228.71094950647571
 20
130.0
 30
0.0
 11
225.18440989230641
 21
150.0
 31
0.0
  0
TEXT
  5
238
  8
0
 62
     3
 10
0.0
 20
0.0
 30
0.0
 40
10.0
  1
BS1-20X25
  7
STANDARD1
  0
ENDSEC
  0
EOF
