  0
SECTION
  2
HEADER
  9
$ACADVER
  1
AC1009
  9
$INSBASE
 10
0.0
 20
0.0
 30
0.0
  9
$EXTMIN
 10
0.0
 20
-2.960436562073669
 30
0.0
  9
$EXTMAX
 10
193.00903052295351
 20
76.124489336417042
 30
0.0
  9
$LIMMIN
 10
0.0
 20
0.0
  9
$LIMMAX
 10
385.0
 20
270.0
  9
$ORTHOMODE
 70
     1
  9
$REGENMODE
 70
     1
  9
$FILLMODE
 70
     1
  9
$QTEXTMODE
 70
     0
  9
$MIRRTEXT
 70
     0
  9
$DRAGMODE
 70
     2
  9
$LTSCALE
 40
10.0
  9
$OSMODE
 70
  3071
  9
$ATTMODE
 70
     1
  9
$TEXTSIZE
 40
0.2
  9
$TRACEWID
 40
0.05
  9
$TEXTSTYLE
  7
STANDARD
  9
$CLAYER
  8
0
  9
$CELTYPE
  6
BYLAYER
  9
$CECOLOR
 62
   256
  9
$DIMSCALE
 40
1.0
  9
$DIMASZ
 40
3.0
  9
$DIMEXO
 40
2.0
  9
$DIMDLI
 40
0.38
  9
$DIMRND
 40
0.0
  9
$DIMDLE
 40
0.0
  9
$DIMEXE
 40
2.0
  9
$DIMTP
 40
0.0
  9
$DIMTM
 40
0.0
  9
$DIMTXT
 40
3.0
  9
$DIMCEN
 40
0.0
  9
$DIMTSZ
 40
0.0
  9
$DIMTOL
 70
     0
  9
$DIMLIM
 70
     0
  9
$DIMTIH
 70
     0
  9
$DIMTOH
 70
     0
  9
$DIMSE1
 70
     0
  9
$DIMSE2
 70
     0
  9
$DIMTAD
 70
     1
  9
$DIMZIN
 70
     0
  9
$DIMBLK
  1

  9
$DIMASO
 70
     0
  9
$DIMSHO
 70
     0
  9
$DIMPOST
  1

  9
$DIMAPOST
  1

  9
$DIMALT
 70
     0
  9
$DIMALTD
 70
     2
  9
$DIMALTF
 40
25.399999999999999
  9
$DIMLFAC
 40
1.0
  9
$DIMTOFL
 70
     1
  9
$DIMTVP
 40
1.6000000000000001
  9
$DIMTIX
 70
     1
  9
$DIMSOXD
 70
     0
  9
$DIMSAH
 70
     0
  9
$DIMBLK1
  1

  9
$DIMBLK2
  1

  9
$DIMSTYLE
  2
STANDARD
  9
$DIMCLRD
 70
     0
  9
$DIMCLRE
 70
     0
  9
$DIMCLRT
 70
     0
  9
$DIMTFAC
 40
1.0
  9
$DIMGAP
 40
0.09
  9
$LUNITS
 70
     2
  9
$LUPREC
 70
     4
  9
$SKETCHINC
 40
0.1
  9
$FILLETRAD
 40
0.0
  9
$AUNITS
 70
     0
  9
$AUPREC
 70
     4
  9
$MENU
  1
E:\r13\win\SUPPORT\ACAD
  9
$ELEVATION
 40
0.0
  9
$PELEVATION
 40
0.0
  9
$THICKNESS
 40
0.0
  9
$LIMCHECK
 70
     0
  9
$BLIPMODE
 70
     0
  9
$CHAMFERA
 40
0.0
  9
$CHAMFERB
 40
0.0
  9
$SKPOLY
 70
     0
  9
$TDCREATE
 40
2449840.6117476849
  9
$TDUPDATE
 40
2456598.3980408339
  9
$TDINDWG
 40
0.0072494329
  9
$TDUSRTIMER
 40
0.0072494329
  9
$USRTIMER
 70
     1
  9
$ANGBASE
 50
0.0
  9
$ANGDIR
 70
     0
  9
$PDMODE
 70
     0
  9
$PDSIZE
 40
0.0
  9
$PLINEWID
 40
0.0
  9
$COORDS
 70
     1
  9
$SPLFRAME
 70
     0
  9
$SPLINETYPE
 70
     6
  9
$SPLINESEGS
 70
     8
  9
$ATTDIA
 70
     0
  9
$ATTREQ
 70
     1
  9
$HANDLING
 70
     1
  9
$HANDSEED
  5
38E
  9
$SURFTAB1
 70
     6
  9
$SURFTAB2
 70
     6
  9
$SURFTYPE
 70
     6
  9
$SURFU
 70
     6
  9
$SURFV
 70
     6
  9
$UCSNAME
  2

  9
$UCSORG
 10
0.0
 20
0.0
 30
0.0
  9
$UCSXDIR
 10
1.0
 20
0.0
 30
0.0
  9
$UCSYDIR
 10
0.0
 20
1.0
 30
0.0
  9
$PUCSNAME
  2

  9
$PUCSORG
 10
0.0
 20
0.0
 30
0.0
  9
$PUCSXDIR
 10
1.0
 20
0.0
 30
0.0
  9
$PUCSYDIR
 10
0.0
 20
1.0
 30
0.0
  9
$USERI1
 70
     3
  9
$USERI2
 70
     1
  9
$USERI3
 70
     0
  9
$USERI4
 70
     0
  9
$USERI5
 70
     0
  9
$USERR1
 40
1.0
  9
$USERR2
 40
3.0
  9
$USERR3
 40
3.0
  9
$USERR4
 40
3.0
  9
$USERR5
 40
10.0
  9
$WORLDVIEW
 70
     1
  9
$SHADEDGE
 70
     3
  9
$SHADEDIF
 70
    70
  9
$TILEMODE
 70
     1
  9
$MAXACTVP
 70
    16
  9
$PLIMCHECK
 70
     0
  9
$PEXTMIN
 10
1.0000000000000000E+020
 20
1.0000000000000000E+020
 30
1.0000000000000000E+020
  9
$PEXTMAX
 10
-1.0000000000000000E+020
 20
-1.0000000000000000E+020
 30
-1.0000000000000000E+020
  9
$PLIMMIN
 10
0.0
 20
0.0
  9
$PLIMMAX
 10
12.0
 20
9.0
  9
$UNITMODE
 70
     0
  9
$VISRETAIN
 70
     0
  9
$PLINEGEN
 70
     0
  9
$PSLTSCALE
 70
     0
  0
ENDSEC
  0
SECTION
  2
TABLES
  0
TABLE
  2
VPORT
 70
     1
  0
VPORT
  2
*ACTIVE
 70
     0
 10
0.0
 20
0.0
 11
1.0
 21
1.0
 12
200.05795575583809
 22
133.5127261426681
 13
0.0
 23
0.0
 14
5.0
 24
5.0
 15
20.0
 25
20.0
 16
0.0
 26
0.0
 36
1.0
 17
0.0
 27
0.0
 37
0.0
 40
275.42274993631997
 41
1.831871345029239
 42
50.0
 43
0.0
 44
0.0
 50
0.0
 51
0.0
 71
     0
 72
   100
 73
     1
 74
     0
 75
     0
 76
     0
 77
     0
 78
     2
  0
ENDTAB
  0
TABLE
  2
LTYPE
 70
     4
  0
LTYPE
  2
CONTINUOUS
 70
     0
  3
Solid Line
 72
    65
 73
     0
 40
0.0
  0
LTYPE
  2
CENTER
 70
     0
  3
____ _ ____ _ ____ _ ____ _ ____ _ ____ _ ____
 72
    65
 73
     4
 40
2.0
 49
1.25
 49
-0.25
 49
0.25
 49
-0.25
  0
LTYPE
  2
HIDDEN
 70
     0
  3
_ _ _ _ _ _ _ _ _ _ _ _ _ _ _ _ _ _ _ _ _ _ _
 72
    65
 73
     2
 40
0.375
 49
0.25
 49
-0.125
  0
LTYPE
  2
PHANTOM2
 70
     0
  3
___ _ _ ___ _ _ ___ _ _ ___ _ _
 72
    65
 73
     6
 40
1.25
 49
0.625
 49
-0.125
 49
0.125
 49
-0.125
 49
0.125
 49
-0.125
  0
ENDTAB
  0
TABLE
  2
LAYER
 70
     6
  0
LAYER
  2
0
 70
     0
 62
     7
  6
CONTINUOUS
  0
LAYER
  2
3
 70
     0
 62
     3
  6
CONTINUOUS
  0
LAYER
  2
ITTEN
 70
     0
 62
     1
  6
CENTER
  0
LAYER
  2
JISSEN
 70
     0
 62
     7
  6
CONTINUOUS
  0
LAYER
  2
TENSEN
 70
     0
 62
     2
  6
HIDDEN
  0
LAYER
  2
2
 70
     0
 62
     2
  6
HIDDEN
  0
ENDTAB
  0
TABLE
  2
STYLE
 70
     2
  0
STYLE
  2
STANDARD
 70
     0
 40
0.0
 41
1.0
 50
0.0
 71
     0
 42
0.2
  3
TXT
  4
BIGFONT
  0
STYLE
  2
STANDARD1
 70
     0
 40
0.0
 41
1.0
 50
0.0
 71
     0
 42
3.0
  3
txt
  4

  0
ENDTAB
  0
TABLE
  2
VIEW
 70
     1
  0
VIEW
  2
ALL
 70
     0
 40
540.0
 10
441.98319299999991
 20
270.0
 41
0.0
 11
0.0
 21
0.0
 31
1.0
 12
0.0
 22
0.0
 32
0.0
 42
0.0
 43
0.0
 44
0.0
 50
0.0
 71
     0
  0
ENDTAB
  0
TABLE
  2
UCS
 70
     0
  0
ENDTAB
  0
TABLE
  2
APPID
 70
     4
  0
APPID
  2
ACAD
 70
     0
  0
APPID
  2
ACAD_MLEADERVER
 70
     0
  0
APPID
  2
ACAD_NAV_VCDISPLAY
 70
     0
  0
APPID
  2
CONTENTBLOCKICON
 70
     0
  0
ENDTAB
  0
TABLE
  2
DIMSTYLE
 70
     1
  0
DIMSTYLE
  2
STANDARD
 70
     0
  3

  4

  5

  6

  7

 40
1.0
 41
0.18
 42
0.0625
 43
0.38
 44
0.18
 45
0.0
 46
0.0
 47
0.0
 48
0.0
140
0.18
141
0.09
142
0.0
143
25.399999999999999
144
1.0
145
0.0
146
1.0
147
0.09
 71
     0
 72
     0
 73
     1
 74
     1
 75
     0
 76
     0
 77
     0
 78
     0
170
     0
171
     2
172
     0
173
     0
174
     0
175
     0
176
     0
177
     0
178
     0
  0
ENDTAB
  0
ENDSEC
  0
SECTION
  2
BLOCKS
  0
BLOCK
  8
0
  2
$MODEL_SPACE
 70
     0
 10
0.0
 20
0.0
 30
0.0
  3
$MODEL_SPACE
  1

  0
ENDBLK
  5
17B
  8
0
  0
BLOCK
 67
     1
  8
0
  2
$PAPER_SPACE
 70
     0
 10
0.0
 20
0.0
 30
0.0
  3
$PAPER_SPACE
  1

  0
ENDBLK
  5
179
 67
     1
  8
0
  0
BLOCK
  8
0
  2
A
 70
     0
 10
0.0
 20
0.0
 30
0.0
  3
A
  1

  0
LINE
  5
1A5
  8
0
 62
     0
 10
133.0335193956553
 20
224.74182211805029
 30
0.0
 11
131.84239322619791
 21
225.4295192737053
 31
0.0
  0
LINE
  5
1A6
  8
0
 62
     0
 10
133.03351939565539
 20
213.19481627370541
 30
0.0
 11
124.5335193956554
 21
218.1022929737054
 31
0.0
  0
LINE
  5
1A7
  8
0
 62
     0
 10
133.03351939565539
 20
215.50421727370539
 30
0.0
 11
124.5335193956554
 21
220.41169397370541
 31
0.0
  0
LINE
  5
1A8
  8
0
 62
     0
 10
133.03351939565539
 20
217.8136182737054
 30
0.0
 11
124.5335193956554
 21
222.72109497370539
 31
0.0
  0
LINE
  5
1A9
  8
0
 62
     0
 10
133.03351939565539
 20
220.12301927370541
 30
0.0
 11
124.5335193956554
 21
225.0304959737054
 31
0.0
  0
LINE
  5
1AA
  8
0
 62
     0
 10
133.03351939565539
 20
222.43242027370539
 30
0.0
 11
127.84239271729351
 21
225.4295192737053
 31
0.0
  0
LINE
  5
1AB
  8
0
 62
     0
 10
133.03351939565539
 20
210.88541527370541
 30
0.0
 11
124.5335193956554
 21
215.79289197370539
 31
0.0
  0
LINE
  5
1AC
  8
0
 62
     0
 10
133.03351939565539
 20
208.5760142737054
 30
0.0
 11
124.5335193956554
 21
213.4834909737055
 31
0.0
  0
LINE
  5
1AD
  8
0
 62
     0
 10
133.03351939565539
 20
206.26661327370539
 30
0.0
 11
124.5335193956554
 21
211.17408997370541
 31
0.0
  0
LINE
  5
1AE
  8
0
 62
     0
 10
133.03351939565539
 20
203.95721227370541
 30
0.0
 11
124.5335193956554
 21
208.8646889737054
 31
0.0
  0
LINE
  5
1AF
  8
0
 62
     0
 10
133.0335193956553
 20
201.6478110353041
 30
0.0
 11
124.5335193956554
 21
206.55528814058641
 31
0.0
  0
LINE
  5
1B0
  8
0
 62
     0
 10
131.143662785343
 20
200.42951927370541
 30
0.0
 11
124.5335193956554
 21
204.24588707716461
 31
0.0
  0
LINE
  5
1B1
  8
0
 62
     0
 10
127.14366278496421
 20
200.42951927370541
 30
0.0
 11
124.5335193956554
 21
201.93648615870691
 31
0.0
  0
ENDBLK
  5
1B2
  8
0
  0
BLOCK
  8
0
  2
B
 70
     0
 10
0.0
 20
0.0
 30
0.0
  3
B
  1

  0
LINE
  5
1B5
  8
0
 62
     0
 10
143.21627068258411
 20
213.48349157370541
 30
0.0
 11
151.716270682584
 21
218.3909682737054
 31
0.0
  0
LINE
  5
1B6
  8
0
 62
     0
 10
143.21627068258411
 20
215.79289257370539
 30
0.0
 11
151.716270682584
 21
220.70036927370541
 31
0.0
  0
LINE
  5
1B7
  8
0
 62
     0
 10
143.21627068258411
 20
218.1022935737054
 30
0.0
 11
151.716270682584
 21
223.00977027370541
 31
0.0
  0
LINE
  5
1B8
  8
0
 62
     0
 10
143.21627068258411
 20
220.41169391699279
 30
0.0
 11
151.716270682584
 21
225.31917221186629
 31
0.0
  0
LINE
  5
1B9
  8
0
 62
     0
 10
143.21627068258411
 20
222.7210953860733
 30
0.0
 11
147.9073975020184
 21
225.4295192737053
 31
0.0
  0
LINE
  5
1BA
  8
0
 62
     0
 10
143.21627068258411
 20
208.86468957370539
 30
0.0
 11
151.716270682584
 21
213.77216627370541
 31
0.0
  0
LINE
  5
1BB
  8
0
 62
     0
 10
143.21627068258411
 20
211.1740905737054
 30
0.0
 11
151.716270682584
 21
216.08156727370539
 31
0.0
  0
LINE
  5
1BC
  8
0
 62
     0
 10
143.21627068258411
 20
206.5552885737055
 30
0.0
 11
151.716270682584
 21
211.4627652737054
 31
0.0
  0
LINE
  5
1BD
  8
0
 62
     0
 10
143.21627068258411
 20
204.2458875737054
 30
0.0
 11
151.716270682584
 21
209.15336427370539
 31
0.0
  0
LINE
  5
1BE
  8
0
 62
     0
 10
143.21627068258411
 20
201.93648657370539
 30
0.0
 11
151.716270682584
 21
206.84396327370541
 31
0.0
  0
LINE
  5
1BF
  8
0
 62
     0
 10
144.60612737443861
 20
200.42951927370541
 30
0.0
 11
151.716270682584
 21
204.5345622737054
 31
0.0
  0
LINE
  5
1C0
  8
0
 62
     0
 10
148.60612729289639
 20
200.42951927370541
 30
0.0
 11
151.716270682584
 21
202.2251612737054
 31
0.0
  0
ENDBLK
  5
1C1
  8
0
  0
ENDSEC
  0
SECTION
  2
ENTITIES
  0
CIRCLE
  5
49
  8
TENSEN
 10
43.509030522953481
 20
51.124489336417042
 30
0.0
 40
10.0
  0
LINE
  5
52
  8
ITTEN
 10
43.509030522953481
 20
76.124489336417042
 30
0.0
 11
43.509030522953481
 21
26.124489336417039
 31
0.0
  0
CIRCLE
  5
53
  8
JISSEN
 10
43.509030522953481
 20
51.124489336417042
 30
0.0
 40
20.0
  0
LINE
  5
54
  8
ITTEN
 10
18.509030522953481
 20
51.124489336417042
 30
0.0
 11
68.509030522953481
 21
51.124489336417042
 31
0.0
  0
LINE
  5
56
  8
ITTEN
 10
107.0090305229534
 20
51.124489336417042
 30
0.0
 11
193.00903052295351
 21
51.124489336417042
 31
0.0
  0
LINE
  5
57
  8
JISSEN
 10
142.5090305229534
 20
71.124489336417042
 30
0.0
 11
134.50903052295351
 21
71.124489336417042
 31
0.0
  0
LINE
  5
58
  8
JISSEN
 10
188.00903052295351
 20
42.124489336417042
 30
0.0
 11
188.00903052295351
 21
60.124489336417042
 31
0.0
  0
LINE
  5
59
  8
JISSEN
 10
144.5090305229534
 20
61.124489336417042
 30
0.0
 11
175.00903052295351
 21
61.124489336417042
 31
0.0
  0
LINE
  5
5A
  8
JISSEN
 10
134.50903052295351
 20
71.124489336417042
 30
0.0
 11
133.50903052295351
 21
70.124489336417042
 31
0.0
  0
LINE
  5
5B
  8
JISSEN
 10
142.5090305229534
 20
71.124489336417042
 30
0.0
 11
143.5090305229534
 21
70.124489336417042
 31
0.0
  0
LINE
  5
5C
  8
JISSEN
 10
134.50903052295351
 20
31.124489336417039
 30
0.0
 11
134.50903052295351
 21
71.124489336417042
 31
0.0
  0
LINE
  5
5D
  8
JISSEN
 10
142.5090305229534
 20
71.124489336417042
 30
0.0
 11
142.5090305229534
 21
31.124489336417039
 31
0.0
  0
LINE
  5
5E
  8
JISSEN
 10
144.5090305229534
 20
41.124489336417042
 30
0.0
 11
144.5090305229534
 21
61.124489336417042
 31
0.0
  0
LINE
  5
5F
  8
JISSEN
 10
143.5090305229534
 20
60.624489336417042
 30
0.0
 11
144.5090305229534
 21
60.624489336417042
 31
0.0
  0
LINE
  5
60
  8
JISSEN
 10
187.00903052295351
 20
61.124489336417042
 30
0.0
 11
188.00903052295351
 21
60.124489336417042
 31
0.0
  0
LINE
  5
61
  8
JISSEN
 10
187.00903052295351
 20
61.124489336417042
 30
0.0
 11
187.00903052295351
 21
41.124489336417042
 31
0.0
  0
LINE
  5
62
  8
TENSEN
 10
143.30903052295349
 20
66.124489336417042
 30
0.0
 11
143.5090305229534
 21
66.124489336417042
 31
0.0
  0
LINE
  5
63
  8
JISSEN
 10
175.00903052295351
 20
41.124489336417042
 30
0.0
 11
175.00903052295351
 21
61.124489336417042
 31
0.0
  0
LINE
  5
64
  8
JISSEN
 10
177.60903052295339
 20
41.461514336417054
 30
0.0
 11
177.60903052295339
 21
56.709175336417047
 31
0.0
  0
LINE
  5
65
  8
JISSEN
 10
177.60903052295339
 20
61.124489336417042
 30
0.0
 11
178.0155735229535
 21
61.124489336417042
 31
0.0
  0
LINE
  5
66
  8
3
 10
134.50903052295351
 20
51.124489336417042
 30
0.0
 11
142.5090305229534
 21
55.74329133641703
 31
0.0
  0
LINE
  5
67
  8
3
 10
137.97313252295351
 20
51.124489336417042
 30
0.0
 11
142.5090305229534
 21
53.74329133641703
 31
0.0
  0
LINE
  5
68
  8
3
 10
141.43723352295339
 20
51.124489336417042
 30
0.0
 11
142.5090305229534
 21
51.74329133641703
 31
0.0
  0
LINE
  5
69
  8
3
 10
134.50903052295351
 20
53.124489336417042
 30
0.0
 11
142.5090305229534
 21
57.74329133641703
 31
0.0
  0
LINE
  5
6A
  8
3
 10
134.50903052295351
 20
55.124489336417042
 30
0.0
 11
142.5090305229534
 21
59.74329133641703
 31
0.0
  0
LINE
  5
6B
  8
3
 10
134.50903052295351
 20
57.124489336417042
 30
0.0
 11
142.5090305229534
 21
61.74329133641703
 31
0.0
  0
LINE
  5
6C
  8
3
 10
134.50903052295351
 20
59.124489336417042
 30
0.0
 11
142.5090305229534
 21
63.74329133641703
 31
0.0
  0
LINE
  5
6D
  8
3
 10
134.50903052295351
 20
61.124489336417042
 30
0.0
 11
142.5090305229534
 21
65.74329133641703
 31
0.0
  0
LINE
  5
6E
  8
3
 10
134.50903052295351
 20
63.124489336417042
 30
0.0
 11
142.5090305229534
 21
67.74329133641703
 31
0.0
  0
LINE
  5
6F
  8
3
 10
134.50903052295351
 20
65.124489336417042
 30
0.0
 11
142.5090305229534
 21
69.74329133641703
 31
0.0
  0
LINE
  5
70
  8
3
 10
134.50903052295351
 20
67.124489336417042
 30
0.0
 11
141.43723352295339
 21
71.124489336417042
 31
0.0
  0
LINE
  5
71
  8
3
 10
134.50903052295351
 20
69.124489336417042
 30
0.0
 11
137.97313252295351
 21
71.124489336417042
 31
0.0
  0
LINE
  5
72
  8
3
 10
138.3846745229535
 20
51.124489336417042
 30
0.0
 11
134.50903052295351
 21
53.36209333641704
 31
0.0
  0
LINE
  5
73
  8
3
 10
142.5090305229534
 20
50.74329133641703
 30
0.0
 11
134.50903052295351
 21
55.36209333641704
 31
0.0
  0
LINE
  5
74
  8
3
 10
142.5090305229534
 20
52.74329133641703
 30
0.0
 11
134.50903052295351
 21
57.362093336417047
 31
0.0
  0
LINE
  5
75
  8
3
 10
142.5090305229534
 20
54.74329133641703
 30
0.0
 11
134.50903052295351
 21
59.362093336417047
 31
0.0
  0
LINE
  5
76
  8
3
 10
142.5090305229534
 20
56.74329133641703
 30
0.0
 11
134.50903052295351
 21
61.362093336417047
 31
0.0
  0
LINE
  5
77
  8
3
 10
142.5090305229534
 20
58.74329133641703
 30
0.0
 11
134.50903052295351
 21
63.36209333641704
 31
0.0
  0
LINE
  5
78
  8
3
 10
142.5090305229534
 20
60.74329133641703
 30
0.0
 11
134.50903052295351
 21
65.362093336417047
 31
0.0
  0
LINE
  5
79
  8
3
 10
142.5090305229534
 20
62.74329133641703
 30
0.0
 11
134.50903052295351
 21
67.362093336417047
 31
0.0
  0
LINE
  5
7A
  8
3
 10
142.5090305229534
 20
64.74329133641703
 30
0.0
 11
134.50903052295351
 21
69.362093336417047
 31
0.0
  0
LINE
  5
7B
  8
3
 10
142.5090305229534
 20
66.74329133641703
 30
0.0
 11
134.9205735229535
 21
71.124489336417042
 31
0.0
  0
LINE
  5
7C
  8
3
 10
142.5090305229534
 20
68.74329133641703
 30
0.0
 11
138.3846745229535
 21
71.124489336417042
 31
0.0
  0
LINE
  5
7D
  8
3
 10
142.5090305229534
 20
70.74329133641703
 30
0.0
 11
141.84877652295339
 21
71.124489336417042
 31
0.0
  0
POLYLINE
  5
82
  8
JISSEN
 66
     1
 10
0.0
 20
0.0
 30
0.0
  0
VERTEX
  5
83
  8
JISSEN
 10
179.6090305229535
 20
56.474489336417037
 30
0.0
 42
0.046632
  0
VERTEX
  5
84
  8
JISSEN
 10
182.06552952295351
 20
56.703881336417027
 30
0.0
 42
0.069389
  0
VERTEX
  5
85
  8
JISSEN
 10
183.61953552295341
 20
57.290105336417042
 30
0.0
 42
0.105882
 70
     2
 50
28.606845
  0
VERTEX
  5
86
  8
JISSEN
 10
184.7913855229535
 20
58.297876336417062
 30
0.0
 42
0.163832
 50
28.606845
  0
VERTEX
  5
87
  8
JISSEN
 10
185.11505552295341
 20
59.259176336417063
 30
0.0
 42
0.163832
  0
VERTEX
  5
88
  8
JISSEN
 10
184.7913855229535
 20
60.22047633641705
 30
0.0
 42
0.091773
  0
VERTEX
  5
89
  8
JISSEN
 10
183.79775252295349
 20
61.124489336417042
 30
0.0
 42
0.066502
 70
     2
 50
151.39315500000001
  0
SEQEND
  5
8A
  8
JISSEN
  0
POLYLINE
  5
8B
  8
JISSEN
 66
     1
 10
0.0
 20
0.0
 30
0.0
  0
VERTEX
  5
8C
  8
JISSEN
 10
177.60903052295339
 20
56.691302336417039
 30
0.0
 42
0.054045
 50
331.39315499999998
  0
VERTEX
  5
8D
  8
JISSEN
 10
179.6090305229535
 20
56.474489336417037
 30
0.0
 42
0.0556
  0
SEQEND
  5
8E
  8
JISSEN
  0
LINE
  5
8F
  8
JISSEN
 10
177.60903052295339
 20
56.709175336417047
 30
0.0
 11
176.90903052295349
 21
56.009175336417051
 31
0.0
  0
LINE
  5
90
  8
JISSEN
 10
176.9090305229534
 20
42.091156336417043
 30
0.0
 11
176.90903052295349
 21
60.157822336417041
 31
0.0
  0
LINE
  5
91
  8
JISSEN
 10
176.90903052295349
 20
59.904616336417043
 30
0.0
 11
177.60903052295339
 21
61.124489336417042
 31
0.0
  0
ARC
  5
92
  8
JISSEN
 10
175.9590305229535
 20
60.157822336417041
 30
0.0
 40
0.95
 50
0.0
 51
180.0
  0
LINE
  5
93
  8
TENSEN
 10
143.30903052295349
 20
36.124489336417042
 30
0.0
 11
143.30903052295349
 21
66.124489336417042
 31
0.0
  0
LINE
  5
94
  8
JISSEN
 10
143.5090305229534
 20
32.124489336417049
 30
0.0
 11
143.5090305229534
 21
70.124489336417042
 31
0.0
  0
LINE
  5
95
  8
JISSEN
 10
133.50903052295351
 20
70.124489336417042
 30
0.0
 11
133.50903052295351
 21
32.124489336417049
 31
0.0
  0
ARC
  5
96
  8
JISSEN
 10
180.5934055229535
 20
57.60121433641703
 30
0.0
 40
4.3656249999999988
 50
10.910769999999999
 51
147.559752
  0
LINE
  5
97
  8
JISSEN
 10
177.60903052295339
 20
61.124489336417042
 30
0.0
 11
177.60903052295339
 21
60.787464336417031
 31
0.0
  0
LINE
  5
98
  8
JISSEN
 10
183.17123752295339
 20
61.124489336417042
 30
0.0
 11
187.00903052295351
 21
61.124489336417042
 31
0.0
  0
LINE
  5
99
  8
JISSEN
 10
183.17123752295339
 20
41.124489336417042
 30
0.0
 11
187.00903052295351
 21
41.124489336417042
 31
0.0
  0
LINE
  5
9A
  8
JISSEN
 10
177.60903052295339
 20
41.124489336417042
 30
0.0
 11
177.60903052295339
 21
41.461514336417054
 31
0.0
  0
ARC
  5
9B
  8
JISSEN
 10
180.5934055229535
 20
44.647764336417048
 30
0.0
 40
4.3656249999999988
 50
212.440248
 51
349.08922999999999
  0
ARC
  5
9C
  8
JISSEN
 10
175.9590305229535
 20
42.091156336417043
 30
0.0
 40
0.95
 50
180.0
 51
0.0
  0
LINE
  5
9D
  8
JISSEN
 10
176.90903052295349
 20
42.344362336417042
 30
0.0
 11
177.60903052295339
 21
41.124489336417042
 31
0.0
  0
LINE
  5
9E
  8
JISSEN
 10
177.60903052295339
 20
45.53980333641703
 30
0.0
 11
176.90903052295349
 21
46.239803336417033
 31
0.0
  0
POLYLINE
  5
9F
  8
JISSEN
 66
     1
 10
0.0
 20
0.0
 30
0.0
  0
VERTEX
  5
A0
  8
JISSEN
 10
177.60903052295339
 20
45.557676336417039
 30
0.0
 42
-0.054045
  0
VERTEX
  5
A1
  8
JISSEN
 10
179.6090305229535
 20
45.774489336417041
 30
0.0
 42
-0.0556
  0
SEQEND
  5
A2
  8
JISSEN
  0
POLYLINE
  5
A3
  8
JISSEN
 66
     1
 10
0.0
 20
0.0
 30
0.0
  0
VERTEX
  5
A4
  8
JISSEN
 10
179.6090305229535
 20
45.774489336417041
 30
0.0
 42
-0.046632
  0
VERTEX
  5
A5
  8
JISSEN
 10
182.06552952295351
 20
45.545097336417051
 30
0.0
 42
-0.069389
  0
VERTEX
  5
A6
  8
JISSEN
 10
183.61953552295341
 20
44.958873336417042
 30
0.0
 42
-0.105882
 70
     2
 50
28.606845
  0
VERTEX
  5
A7
  8
JISSEN
 10
184.7913855229535
 20
43.951102336417023
 30
0.0
 42
-0.163832
  0
VERTEX
  5
A8
  8
JISSEN
 10
185.11505552295341
 20
42.989802336417021
 30
0.0
 42
-0.163832
  0
VERTEX
  5
A9
  8
JISSEN
 10
184.7913855229535
 20
42.028502336417027
 30
0.0
 42
-0.091773
  0
VERTEX
  5
AA
  8
JISSEN
 10
183.79775252295349
 20
41.124489336417042
 30
0.0
 42
-0.066502
 70
     2
 50
151.39315500000001
  0
SEQEND
  5
AB
  8
JISSEN
  0
LINE
  5
AE
  8
JISSEN
 10
177.60903052295339
 20
41.124489336417042
 30
0.0
 11
178.0155735229535
 21
41.124489336417042
 31
0.0
  0
LINE
  5
AF
  8
TENSEN
 10
143.30903052295349
 20
36.124489336417042
 30
0.0
 11
143.5090305229534
 21
36.124489336417042
 31
0.0
  0
LINE
  5
B0
  8
JISSEN
 10
187.00903052295351
 20
41.124489336417042
 30
0.0
 11
188.00903052295351
 21
42.124489336417042
 31
0.0
  0
LINE
  5
B1
  8
JISSEN
 10
143.5090305229534
 20
41.624489336417042
 30
0.0
 11
144.5090305229534
 21
41.624489336417042
 31
0.0
  0
LINE
  5
B2
  8
JISSEN
 10
142.5090305229534
 20
31.124489336417039
 30
0.0
 11
143.5090305229534
 21
32.124489336417049
 31
0.0
  0
LINE
  5
B3
  8
JISSEN
 10
134.50903052295351
 20
31.124489336417039
 30
0.0
 11
133.50903052295351
 21
32.124489336417049
 31
0.0
  0
LINE
  5
B4
  8
JISSEN
 10
144.5090305229534
 20
41.124489336417042
 30
0.0
 11
175.00903052295351
 21
41.124489336417042
 31
0.0
  0
LINE
  5
B5
  8
JISSEN
 10
142.5090305229534
 20
31.124489336417039
 30
0.0
 11
134.50903052295351
 21
31.124489336417039
 31
0.0
  0
LINE
  5
B8
  8
3
 10
142.5090305229534
 20
48.74329133641703
 30
0.0
 11
138.3846745229535
 21
51.124489336417042
 31
0.0
  0
LINE
  5
B9
  8
3
 10
142.5090305229534
 20
46.74329133641703
 30
0.0
 11
134.50903052295351
 21
51.362093336417047
 31
0.0
  0
LINE
  5
BA
  8
3
 10
142.5090305229534
 20
44.74329133641703
 30
0.0
 11
134.50903052295351
 21
49.362093336417047
 31
0.0
  0
LINE
  5
BB
  8
3
 10
142.5090305229534
 20
42.743291336417023
 30
0.0
 11
134.50903052295351
 21
47.362093336417047
 31
0.0
  0
LINE
  5
BC
  8
3
 10
142.5090305229534
 20
40.74329133641703
 30
0.0
 11
134.50903052295351
 21
45.36209333641704
 31
0.0
  0
LINE
  5
BD
  8
3
 10
142.5090305229534
 20
38.743291336417052
 30
0.0
 11
134.50903052295351
 21
43.36209333641704
 31
0.0
  0
LINE
  5
BE
  8
3
 10
142.5090305229534
 20
36.743291336417037
 30
0.0
 11
134.50903052295351
 21
41.36209333641704
 31
0.0
  0
LINE
  5
BF
  8
3
 10
142.5090305229534
 20
34.743291336417052
 30
0.0
 11
134.50903052295351
 21
39.362093336417047
 31
0.0
  0
LINE
  5
C0
  8
3
 10
142.5090305229534
 20
32.743291336417052
 30
0.0
 11
134.50903052295351
 21
37.362093336417047
 31
0.0
  0
LINE
  5
C1
  8
3
 10
141.84877652295339
 20
31.124489336417039
 30
0.0
 11
134.50903052295351
 21
35.362093336417047
 31
0.0
  0
LINE
  5
C2
  8
3
 10
138.3846745229535
 20
31.124489336417039
 30
0.0
 11
134.50903052295351
 21
33.362093336417047
 31
0.0
  0
LINE
  5
C3
  8
3
 10
134.50903052295351
 20
49.124489336417042
 30
0.0
 11
137.97313252295351
 21
51.124489336417042
 31
0.0
  0
LINE
  5
C4
  8
3
 10
134.50903052295351
 20
47.124489336417042
 30
0.0
 11
141.43723352295339
 21
51.124489336417042
 31
0.0
  0
LINE
  5
C5
  8
3
 10
134.50903052295351
 20
45.124489336417042
 30
0.0
 11
142.5090305229534
 21
49.74329133641703
 31
0.0
  0
LINE
  5
C6
  8
3
 10
134.50903052295351
 20
43.124489336417042
 30
0.0
 11
142.5090305229534
 21
47.743291336417023
 31
0.0
  0
LINE
  5
C7
  8
3
 10
134.50903052295351
 20
41.124489336417042
 30
0.0
 11
142.5090305229534
 21
45.74329133641703
 31
0.0
  0
LINE
  5
C8
  8
3
 10
134.50903052295351
 20
39.124489336417042
 30
0.0
 11
142.5090305229534
 21
43.74329133641703
 31
0.0
  0
LINE
  5
C9
  8
3
 10
134.50903052295351
 20
37.124489336417049
 30
0.0
 11
142.5090305229534
 21
41.74329133641703
 31
0.0
  0
LINE
  5
CA
  8
3
 10
134.50903052295351
 20
35.124489336417042
 30
0.0
 11
142.5090305229534
 21
39.74329133641703
 31
0.0
  0
LINE
  5
CB
  8
3
 10
134.50903052295351
 20
33.124489336417042
 30
0.0
 11
142.5090305229534
 21
37.743291336417052
 31
0.0
  0
LINE
  5
CC
  8
3
 10
141.43723352295339
 20
31.124489336417039
 30
0.0
 11
142.5090305229534
 21
31.743291336417041
 31
0.0
  0
LINE
  5
CD
  8
3
 10
137.97313252295351
 20
31.124489336417039
 30
0.0
 11
142.5090305229534
 21
33.743291336417052
 31
0.0
  0
LINE
  5
CE
  8
3
 10
134.50903052295351
 20
31.124489336417039
 30
0.0
 11
142.5090305229534
 21
35.743291336417037
 31
0.0
  0
LINE
  5
E2
  8
0
 10
172.21998002942911
 20
41.124489336417042
 30
0.0
 11
168.6934404152598
 21
61.124489336417042
 31
0.0
  0
LINE
  5
E3
  8
0
 10
167.21998002942911
 20
41.124489336417042
 30
0.0
 11
163.6934404152598
 21
61.124489336417042
 31
0.0
  0
LINE
  5
E4
  8
0
 10
162.21998002942911
 20
41.124489336417042
 30
0.0
 11
158.6934404152598
 21
61.124489336417042
 31
0.0
  0
LINE
  5
E5
  8
0
 10
157.21998002942911
 20
41.124489336417042
 30
0.0
 11
153.6934404152598
 21
61.124489336417042
 31
0.0
  0
LINE
  5
E6
  8
0
 10
152.21998002942911
 20
41.124489336417042
 30
0.0
 11
148.6934404152598
 21
61.124489336417042
 31
0.0
  0
CIRCLE
  5
1E9
  8
0
 10
43.509030522953481
 20
51.124489336417042
 30
0.0
 40
12.49999999999998
  0
LINE
  5
1EA
  8
0
 10
112.75903052295349
 20
63.624489336416978
 30
0.0
 11
112.75903052295349
 21
38.624489336417042
 31
0.0
  0
LINE
  5
1EB
  8
0
 10
112.00903052295349
 20
39.374489336416993
 30
0.0
 11
112.00903052295349
 21
62.874489336416978
 31
0.0
  0
LINE
  5
1EC
  8
0
 10
121.25903052295349
 20
38.624489336417042
 30
0.0
 11
121.25903052295349
 21
63.624489336416978
 31
0.0
  0
LINE
  5
1ED
  8
0
 10
122.00903052295349
 20
62.874489336416978
 30
0.0
 11
122.00903052295349
 21
39.374489336416993
 31
0.0
  0
LINE
  5
1F0
  8
0
 10
125.6290305229535
 20
54.076989336417029
 30
0.0
 11
125.6290305229535
 21
48.171989336416999
 31
0.0
  0
LINE
  5
1F1
  8
0
 10
112.00903052295349
 20
62.874489336416978
 30
0.0
 11
112.75903052295349
 21
63.624489336416978
 31
0.0
  0
LINE
  5
1F2
  8
0
 10
112.75903052295349
 20
63.624489336416978
 30
0.0
 11
121.25903052295349
 21
63.624489336416978
 31
0.0
  0
LINE
  5
1F3
  8
0
 10
121.25903052295349
 20
63.624489336416978
 30
0.0
 11
122.00903052295349
 21
62.874489336416978
 31
0.0
  0
LINE
  5
1F4
  8
0
 10
112.00903052295349
 20
39.374489336416993
 30
0.0
 11
112.75903052295349
 21
38.624489336417042
 31
0.0
  0
LINE
  5
1F5
  8
0
 10
112.75903052295349
 20
38.624489336417042
 30
0.0
 11
121.25903052295349
 21
38.624489336417042
 31
0.0
  0
LINE
  5
1F6
  8
0
 10
121.25903052295349
 20
38.624489336417042
 30
0.0
 11
122.00903052295349
 21
39.374489336416993
 31
0.0
  0
LINE
  5
1FA
  8
0
 10
122.00903052295349
 20
48.124489336417007
 30
0.0
 11
133.50903052295351
 21
48.124489336417042
 31
0.0
  0
LINE
  5
1FB
  8
3
 10
125.6290305229534
 20
48.665989336416942
 30
0.0
 11
133.50903052295351
 21
48.665989336416906
 31
0.0
  0
LINE
  5
1FC
  8
3
 10
125.6290305229535
 20
53.582989336417107
 30
0.0
 11
133.50903052295351
 21
53.582989336417107
 31
0.0
  0
LINE
  5
1FD
  8
0
 10
122.00903052295349
 20
54.124489336417042
 30
0.0
 11
133.50903052295351
 21
54.124489336416978
 31
0.0
  0
CIRCLE
  5
1FF
  8
2
 10
43.509030522953481
 20
51.124489336417042
 30
0.0
 40
2.4585303171203452
  0
CIRCLE
  5
200
  8
2
 10
43.509030522953481
 20
51.124489336417042
 30
0.0
 40
3.0001224868973861
  0
INSERT
  5
204
  8
3
  2
A
 10
-11.77448887270188
 20
-161.8050299372884
 30
0.0
  0
INSERT
  5
205
  8
3
  2
B
 10
-30.457240159630569
 20
-161.8050299372884
 30
0.0
  0
TEXT
  5
2FB
  8
0
 62
     3
 10
0.0
 20
0.0
 30
0.0
 40
10.0
  1
BS1-20X25-S
  7
STANDARD1
  0
ENDSEC
  0
EOF
