  0
SECTION
  2
HEADER
  9
$ACADVER
  1
AC1009
  9
$INSBASE
 10
0.0
 20
0.0
 30
0.0
  9
$EXTMIN
 10
0.0
 20
-2.960436562073669
 30
0.0
  9
$EXTMAX
 10
108.10024937829979
 20
226.53135779491231
 30
0.0
  9
$LIMMIN
 10
0.0
 20
0.0
  9
$LIMMAX
 10
385.0
 20
270.0
  9
$ORTHOMODE
 70
     1
  9
$REGENMODE
 70
     1
  9
$FILLMODE
 70
     1
  9
$QTEXTMODE
 70
     0
  9
$MIRRTEXT
 70
     0
  9
$DRAGMODE
 70
     2
  9
$LTSCALE
 40
10.0
  9
$OSMODE
 70
    37
  9
$ATTMODE
 70
     1
  9
$TEXTSIZE
 40
0.2
  9
$TRACEWID
 40
0.05
  9
$TEXTSTYLE
  7
STANDARD
  9
$CLAYER
  8
0
  9
$CELTYPE
  6
BYLAYER
  9
$CECOLOR
 62
   256
  9
$DIMSCALE
 40
1.0
  9
$DIMASZ
 40
3.0
  9
$DIMEXO
 40
2.0
  9
$DIMDLI
 40
0.38
  9
$DIMRND
 40
0.0
  9
$DIMDLE
 40
0.0
  9
$DIMEXE
 40
2.0
  9
$DIMTP
 40
0.0
  9
$DIMTM
 40
0.0
  9
$DIMTXT
 40
3.0
  9
$DIMCEN
 40
0.0
  9
$DIMTSZ
 40
0.0
  9
$DIMTOL
 70
     0
  9
$DIMLIM
 70
     0
  9
$DIMTIH
 70
     0
  9
$DIMTOH
 70
     0
  9
$DIMSE1
 70
     0
  9
$DIMSE2
 70
     0
  9
$DIMTAD
 70
     1
  9
$DIMZIN
 70
     8
  9
$DIMBLK
  1

  9
$DIMASO
 70
     0
  9
$DIMSHO
 70
     0
  9
$DIMPOST
  1

  9
$DIMAPOST
  1

  9
$DIMALT
 70
     0
  9
$DIMALTD
 70
     2
  9
$DIMALTF
 40
25.399999999999999
  9
$DIMLFAC
 40
1.0
  9
$DIMTOFL
 70
     1
  9
$DIMTVP
 40
1.6000000000000001
  9
$DIMTIX
 70
     1
  9
$DIMSOXD
 70
     0
  9
$DIMSAH
 70
     0
  9
$DIMBLK1
  1

  9
$DIMBLK2
  1

  9
$DIMSTYLE
  2
STANDARD
  9
$DIMCLRD
 70
     0
  9
$DIMCLRE
 70
     0
  9
$DIMCLRT
 70
     0
  9
$DIMTFAC
 40
1.0
  9
$DIMGAP
 40
0.09
  9
$LUNITS
 70
     2
  9
$LUPREC
 70
     1
  9
$SKETCHINC
 40
0.1
  9
$FILLETRAD
 40
0.0
  9
$AUNITS
 70
     0
  9
$AUPREC
 70
     1
  9
$MENU
  1
E:\r13\win\SUPPORT\ACAD
  9
$ELEVATION
 40
0.0
  9
$PELEVATION
 40
0.0
  9
$THICKNESS
 40
0.0
  9
$LIMCHECK
 70
     0
  9
$BLIPMODE
 70
     0
  9
$CHAMFERA
 40
0.0
  9
$CHAMFERB
 40
0.0
  9
$SKPOLY
 70
     0
  9
$TDCREATE
 40
2449840.6117476849
  9
$TDUPDATE
 40
2458956.4621390859
  9
$TDINDWG
 40
0.0468965162
  9
$TDUSRTIMER
 40
0.0468965162
  9
$USRTIMER
 70
     1
  9
$ANGBASE
 50
0.0
  9
$ANGDIR
 70
     0
  9
$PDMODE
 70
     0
  9
$PDSIZE
 40
0.0
  9
$PLINEWID
 40
0.0
  9
$COORDS
 70
     1
  9
$SPLFRAME
 70
     0
  9
$SPLINETYPE
 70
     6
  9
$SPLINESEGS
 70
     8
  9
$ATTDIA
 70
     0
  9
$ATTREQ
 70
     1
  9
$HANDLING
 70
     1
  9
$HANDSEED
  5
606
  9
$SURFTAB1
 70
     6
  9
$SURFTAB2
 70
     6
  9
$SURFTYPE
 70
     6
  9
$SURFU
 70
     6
  9
$SURFV
 70
     6
  9
$UCSNAME
  2

  9
$UCSORG
 10
0.0
 20
0.0
 30
0.0
  9
$UCSXDIR
 10
1.0
 20
0.0
 30
0.0
  9
$UCSYDIR
 10
0.0
 20
1.0
 30
0.0
  9
$PUCSNAME
  2

  9
$PUCSORG
 10
0.0
 20
0.0
 30
0.0
  9
$PUCSXDIR
 10
1.0
 20
0.0
 30
0.0
  9
$PUCSYDIR
 10
0.0
 20
1.0
 30
0.0
  9
$USERI1
 70
     3
  9
$USERI2
 70
     1
  9
$USERI3
 70
     0
  9
$USERI4
 70
     0
  9
$USERI5
 70
     0
  9
$USERR1
 40
1.0
  9
$USERR2
 40
3.0
  9
$USERR3
 40
3.0
  9
$USERR4
 40
3.0
  9
$USERR5
 40
10.0
  9
$WORLDVIEW
 70
     1
  9
$SHADEDGE
 70
     3
  9
$SHADEDIF
 70
    70
  9
$TILEMODE
 70
     1
  9
$MAXACTVP
 70
    16
  9
$PLIMCHECK
 70
     0
  9
$PEXTMIN
 10
1.0000000000000000E+020
 20
1.0000000000000000E+020
 30
1.0000000000000000E+020
  9
$PEXTMAX
 10
-1.0000000000000000E+020
 20
-1.0000000000000000E+020
 30
-1.0000000000000000E+020
  9
$PLIMMIN
 10
0.0
 20
0.0
  9
$PLIMMAX
 10
12.0
 20
9.0
  9
$UNITMODE
 70
     0
  9
$VISRETAIN
 70
     0
  9
$PLINEGEN
 70
     0
  9
$PSLTSCALE
 70
     0
  0
ENDSEC
  0
SECTION
  2
TABLES
  0
TABLE
  2
VPORT
 70
     1
  0
VPORT
  2
*ACTIVE
 70
     0
 10
0.0
 20
0.0
 11
1.0
 21
1.0
 12
362.34662576687123
 22
150.0
 13
0.0
 23
0.0
 14
5.0
 24
5.0
 15
20.0
 25
20.0
 16
0.0
 26
0.0
 36
1.0
 17
0.0
 27
0.0
 37
0.0
 40
300.0
 41
2.415644171779141
 42
50.0
 43
0.0
 44
0.0
 50
0.0
 51
0.0
 71
     0
 72
   100
 73
     1
 74
     0
 75
     0
 76
     0
 77
     0
 78
     2
  0
ENDTAB
  0
TABLE
  2
LTYPE
 70
     4
  0
LTYPE
  2
CONTINUOUS
 70
     0
  3
Solid Line
 72
    65
 73
     0
 40
0.0
  0
LTYPE
  2
CENTER
 70
     0
  3
____ _ ____ _ ____ _ ____ _ ____ _ ____ _ ____
 72
    65
 73
     4
 40
2.0
 49
1.25
 49
-0.25
 49
0.25
 49
-0.25
  0
LTYPE
  2
HIDDEN
 70
     0
  3
_ _ _ _ _ _ _ _ _ _ _ _ _ _ _ _ _ _ _ _ _ _ _
 72
    65
 73
     2
 40
0.375
 49
0.25
 49
-0.125
  0
LTYPE
  2
PHANTOM2
 70
     0
  3
___ _ _ ___ _ _ ___ _ _ ___ _ _
 72
    65
 73
     6
 40
1.25
 49
0.625
 49
-0.125
 49
0.125
 49
-0.125
 49
0.125
 49
-0.125
  0
ENDTAB
  0
TABLE
  2
LAYER
 70
     4
  0
LAYER
  2
0
 70
     0
 62
     7
  6
CONTINUOUS
  0
LAYER
  2
3
 70
     0
 62
     3
  6
CONTINUOUS
  0
LAYER
  2
1
 70
     0
 62
     1
  6
CENTER
  0
LAYER
  2
2
 70
     0
 62
     2
  6
HIDDEN
  0
ENDTAB
  0
TABLE
  2
STYLE
 70
     2
  0
STYLE
  2
STANDARD
 70
     0
 40
0.0
 41
1.0
 50
0.0
 71
     0
 42
0.2
  3
TXT
  4
BIGFONT
  0
STYLE
  2
STANDARD1
 70
     0
 40
0.0
 41
1.0
 50
0.0
 71
     0
 42
3.0
  3
txt
  4

  0
ENDTAB
  0
TABLE
  2
VIEW
 70
     1
  0
VIEW
  2
ALL
 70
     0
 40
540.0
 10
441.98319299999991
 20
270.0
 41
0.0
 11
0.0
 21
0.0
 31
1.0
 12
0.0
 22
0.0
 32
0.0
 42
0.0
 43
0.0
 44
0.0
 50
0.0
 71
     0
  0
ENDTAB
  0
TABLE
  2
UCS
 70
     0
  0
ENDTAB
  0
TABLE
  2
APPID
 70
     7
  0
APPID
  2
ACAD
 70
     0
  0
APPID
  2
DCO15
 70
     0
  0
APPID
  2
ACAD_MLEADERVER
 70
     0
  0
APPID
  2
ACAD_EXEMPT_FROM_CAD_STANDARDS
 70
     0
  0
APPID
  2
ACAD_NAV_VCDISPLAY
 70
     0
  0
APPID
  2
ACAD_DSTYLE_DIMJAG
 70
     0
  0
APPID
  2
ACAD_DSTYLE_DIMTALN
 70
     0
  0
ENDTAB
  0
TABLE
  2
DIMSTYLE
 70
     1
  0
DIMSTYLE
  2
STANDARD
 70
     0
  3

  4

  5

  6

  7

 40
1.0
 41
0.18
 42
0.0625
 43
0.38
 44
0.18
 45
0.0
 46
0.0
 47
0.0
 48
0.0
140
0.18
141
0.09
142
0.0
143
25.399999999999999
144
1.0
145
0.0
146
1.0
147
0.09
 71
     0
 72
     0
 73
     1
 74
     1
 75
     0
 76
     0
 77
     0
 78
     0
170
     0
171
     2
172
     0
173
     0
174
     0
175
     0
176
     0
177
     0
178
     0
  0
ENDTAB
  0
ENDSEC
  0
SECTION
  2
BLOCKS
  0
BLOCK
  8
0
  2
$MODEL_SPACE
 70
     0
 10
0.0
 20
0.0
 30
0.0
  3
$MODEL_SPACE
  1

  0
ENDBLK
  5
17B
  8
0
  0
BLOCK
 67
     1
  8
0
  2
$PAPER_SPACE
 70
     0
 10
0.0
 20
0.0
 30
0.0
  3
$PAPER_SPACE
  1

  0
ENDBLK
  5
179
 67
     1
  8
0
  0
ENDSEC
  0
SECTION
  2
ENTITIES
  0
LINE
  5
52
  8
1
 10
108.10024937829979
 20
201.53135779491231
 30
0.0
 11
38.10024937829985
 21
201.53135779491231
 31
0.0
  0
ARC
  5
53
  8
0
 10
63.10024937829985
 20
201.5313577949122
 30
0.0
 40
20.0
 50
11.142780408988971
 51
348.85721959101159
  0
LINE
  5
54
  8
1
 10
63.10024937829985
 20
226.53135779491231
 30
0.0
 11
63.10024937829985
 21
176.53135779491231
 31
0.0
  0
ARC
  5
55
  8
0
 10
63.10024937829985
 20
201.5313577949122
 30
0.0
 40
19.0
 50
11.316880610358069
 51
348.68311938964263
  0
LINE
  5
56
  8
1
 10
63.10024937829985
 20
127.34940441715089
 30
0.0
 11
63.100249378299729
 21
26.84630695046036
 31
0.0
  0
LINE
  5
57
  8
0
 10
83.100249378299736
 20
77.346306950460331
 30
0.0
 11
83.100249378299736
 21
85.346306950460331
 31
0.0
  0
LINE
  5
58
  8
0
 10
54.100249378299729
 20
31.84630695046036
 30
0.0
 11
72.100249378299736
 21
31.84630695046036
 31
0.0
  0
LINE
  5
59
  8
0
 10
73.100249378299736
 20
75.346306950460331
 30
0.0
 11
73.100249378299736
 21
44.846306950460331
 31
0.0
  0
LINE
  5
5A
  8
0
 10
83.100249378299736
 20
85.346306950460331
 30
0.0
 11
82.100249378299736
 21
86.346306950460317
 31
0.0
  0
LINE
  5
5B
  8
0
 10
83.100249378299736
 20
77.346306950460331
 30
0.0
 11
82.100249378299736
 21
76.346306950460331
 31
0.0
  0
LINE
  5
5C
  8
0
 10
43.100249378299729
 20
85.346306950460331
 30
0.0
 11
83.100249378299736
 21
85.346306950460331
 31
0.0
  0
LINE
  5
5D
  8
0
 10
83.100249378299736
 20
77.346306950460331
 30
0.0
 11
43.100249378299729
 21
77.346306950460331
 31
0.0
  0
LINE
  5
5E
  8
0
 10
53.100249378299729
 20
75.346306950460331
 30
0.0
 11
73.100249378299736
 21
75.346306950460331
 31
0.0
  0
LINE
  5
5F
  8
0
 10
72.600249378299736
 20
76.346306950460331
 30
0.0
 11
72.600249378299736
 21
75.346306950460331
 31
0.0
  0
LINE
  5
60
  8
0
 10
73.100249378299736
 20
32.84630695046036
 30
0.0
 11
72.100249378299736
 21
31.84630695046036
 31
0.0
  0
LINE
  5
61
  8
0
 10
73.100249378299736
 20
32.84630695046036
 30
0.0
 11
53.100249378299729
 21
32.84630695046036
 31
0.0
  0
LINE
  5
62
  8
2
 10
78.100249378299736
 20
76.54630695046032
 30
0.0
 11
78.100249378299736
 21
76.346306950460331
 31
0.0
  0
LINE
  5
63
  8
0
 10
53.100249378299729
 20
44.846306950460331
 30
0.0
 11
73.100249378299736
 21
44.846306950460331
 31
0.0
  0
LINE
  5
64
  8
0
 10
57.515563378299703
 20
42.24630695046033
 30
0.0
 11
68.684935378299755
 21
42.24630695046033
 31
0.0
  0
LINE
  5
65
  8
0
 10
73.100249378299736
 20
42.24630695046033
 30
0.0
 11
73.100249378299736
 21
41.839763950460302
 31
0.0
  0
LINE
  5
66
  8
3
 10
63.100249378299729
 20
85.346306950460331
 30
0.0
 11
67.71905137829981
 21
77.346306950460331
 31
0.0
  0
LINE
  5
67
  8
3
 10
63.100249378299729
 20
81.882204950460334
 30
0.0
 11
65.71905137829981
 21
77.346306950460331
 31
0.0
  0
LINE
  5
68
  8
3
 10
63.100249378299729
 20
78.418103950460363
 30
0.0
 11
63.71905137829981
 21
77.346306950460331
 31
0.0
  0
LINE
  5
69
  8
3
 10
65.100249378299736
 20
85.346306950460331
 30
0.0
 11
69.71905137829981
 21
77.346306950460331
 31
0.0
  0
LINE
  5
6A
  8
3
 10
67.100249378299736
 20
85.346306950460331
 30
0.0
 11
71.719051378299795
 21
77.346306950460331
 31
0.0
  0
LINE
  5
6B
  8
3
 10
69.100249378299736
 20
85.346306950460331
 30
0.0
 11
73.71905137829981
 21
77.346306950460331
 31
0.0
  0
LINE
  5
6C
  8
3
 10
71.100249378299736
 20
85.346306950460331
 30
0.0
 11
75.71905137829981
 21
77.346306950460331
 31
0.0
  0
LINE
  5
6D
  8
3
 10
73.100249378299736
 20
85.346306950460331
 30
0.0
 11
77.71905137829981
 21
77.346306950460331
 31
0.0
  0
LINE
  5
6E
  8
3
 10
75.100249378299736
 20
85.346306950460331
 30
0.0
 11
79.71905137829981
 21
77.346306950460331
 31
0.0
  0
LINE
  5
6F
  8
3
 10
77.100249378299736
 20
85.346306950460331
 30
0.0
 11
81.719051378299795
 21
77.346306950460331
 31
0.0
  0
LINE
  5
70
  8
3
 10
79.100249378299736
 20
85.346306950460331
 30
0.0
 11
83.100249378299736
 21
78.418103950460363
 31
0.0
  0
LINE
  5
71
  8
3
 10
81.100249378299736
 20
85.346306950460331
 30
0.0
 11
83.100249378299736
 21
81.882204950460334
 31
0.0
  0
LINE
  5
72
  8
3
 10
63.100249378299729
 20
81.470662950460337
 30
0.0
 11
65.337853378299769
 21
85.346306950460331
 31
0.0
  0
LINE
  5
73
  8
3
 10
62.71905137829981
 20
77.346306950460331
 30
0.0
 11
67.337853378299769
 21
85.346306950460331
 31
0.0
  0
LINE
  5
74
  8
3
 10
64.71905137829981
 20
77.346306950460331
 30
0.0
 11
69.337853378299769
 21
85.346306950460331
 31
0.0
  0
LINE
  5
75
  8
3
 10
66.719051378299795
 20
77.346306950460331
 30
0.0
 11
71.337853378299755
 21
85.346306950460331
 31
0.0
  0
LINE
  5
76
  8
3
 10
68.71905137829981
 20
77.346306950460331
 30
0.0
 11
73.337853378299769
 21
85.346306950460331
 31
0.0
  0
LINE
  5
77
  8
3
 10
70.71905137829981
 20
77.346306950460331
 30
0.0
 11
75.337853378299769
 21
85.346306950460331
 31
0.0
  0
LINE
  5
78
  8
3
 10
72.71905137829981
 20
77.346306950460331
 30
0.0
 11
77.337853378299769
 21
85.346306950460331
 31
0.0
  0
LINE
  5
79
  8
3
 10
74.71905137829981
 20
77.346306950460331
 30
0.0
 11
79.337853378299769
 21
85.346306950460331
 31
0.0
  0
LINE
  5
7A
  8
3
 10
76.719051378299795
 20
77.346306950460331
 30
0.0
 11
81.337853378299755
 21
85.346306950460331
 31
0.0
  0
LINE
  5
7B
  8
3
 10
78.71905137829981
 20
77.346306950460331
 30
0.0
 11
83.100249378299736
 21
84.934763950460294
 31
0.0
  0
LINE
  5
7C
  8
3
 10
80.71905137829981
 20
77.346306950460331
 30
0.0
 11
83.100249378299736
 21
81.470662950460337
 31
0.0
  0
LINE
  5
7D
  8
3
 10
82.719051378299795
 20
77.346306950460331
 30
0.0
 11
83.100249378299736
 21
78.00656095046034
 31
0.0
  0
POLYLINE
  5
82
  8
0
 66
     1
 10
0.0
 20
0.0
 30
0.0
  0
VERTEX
  5
83
  8
0
 10
68.450249378299745
 20
40.246306950460273
 30
0.0
 42
0.046632
  0
VERTEX
  5
84
  8
0
 10
68.679641378299721
 20
37.789807950460272
 30
0.0
 42
0.069389
  0
VERTEX
  5
85
  8
0
 10
69.265865378299736
 20
36.235801950460313
 30
0.0
 42
0.105882
 70
     2
 50
298.60684500000002
  0
VERTEX
  5
86
  8
0
 10
70.27363637829967
 20
35.063951950460307
 30
0.0
 42
0.163832
 50
28.606845
  0
VERTEX
  5
87
  8
0
 10
71.234936378299722
 20
34.740281950460307
 30
0.0
 42
0.163832
  0
VERTEX
  5
88
  8
0
 10
72.196236378299773
 20
35.063951950460307
 30
0.0
 42
0.091773
  0
VERTEX
  5
89
  8
0
 10
73.100249378299736
 20
36.057584950460303
 30
0.0
 42
0.066502
 70
     2
 50
61.393154999999993
  0
SEQEND
  5
8A
  8
0
  0
POLYLINE
  5
8B
  8
0
 66
     1
 10
0.0
 20
0.0
 30
0.0
  0
VERTEX
  5
8C
  8
0
 10
68.667062378299761
 20
42.246306950460301
 30
0.0
 42
0.054045
 50
331.39315499999998
  0
VERTEX
  5
8D
  8
0
 10
68.450249378299745
 20
40.246306950460273
 30
0.0
 42
0.0556
  0
SEQEND
  5
8E
  8
0
  0
LINE
  5
8F
  8
0
 10
68.684935378299755
 20
42.24630695046033
 30
0.0
 11
67.984935378299724
 21
42.946306950460318
 31
0.0
  0
LINE
  5
90
  8
0
 10
54.066916378299823
 20
42.946306950460311
 30
0.0
 11
72.133582378299707
 21
42.946306950460318
 31
0.0
  0
LINE
  5
91
  8
0
 10
71.880376378299729
 20
42.946306950460318
 30
0.0
 11
73.100249378299736
 21
42.24630695046033
 31
0.0
  0
ARC
  5
92
  8
0
 10
72.133582378299707
 20
43.896306950460307
 30
0.0
 40
0.95
 50
270.0
 51
90.0
  0
LINE
  5
93
  8
2
 10
48.100249378299729
 20
76.54630695046032
 30
0.0
 11
78.100249378299736
 21
76.54630695046032
 31
0.0
  0
LINE
  5
94
  8
0
 10
44.100249378299729
 20
76.346306950460331
 30
0.0
 11
82.100249378299736
 21
76.346306950460331
 31
0.0
  0
LINE
  5
95
  8
0
 10
82.100249378299736
 20
86.346306950460317
 30
0.0
 11
44.100249378299729
 21
86.346306950460317
 31
0.0
  0
ARC
  5
96
  8
0
 10
69.576974378299724
 20
39.26193195046028
 30
0.0
 40
4.3656249999999988
 50
280.91077000000058
 51
57.559752000000771
  0
LINE
  5
97
  8
0
 10
73.100249378299736
 20
42.24630695046033
 30
0.0
 11
72.763224378299697
 21
42.24630695046033
 31
0.0
  0
LINE
  5
98
  8
0
 10
73.100249378299736
 20
36.684099950460393
 30
0.0
 11
73.100249378299736
 21
32.84630695046036
 31
0.0
  0
LINE
  5
99
  8
0
 10
53.100249378299729
 20
36.684099950460393
 30
0.0
 11
53.100249378299729
 21
32.84630695046036
 31
0.0
  0
LINE
  5
9A
  8
0
 10
53.100249378299729
 20
42.24630695046033
 30
0.0
 11
53.437274378299769
 21
42.24630695046033
 31
0.0
  0
ARC
  5
9B
  8
0
 10
56.623524378299749
 20
39.26193195046028
 30
0.0
 40
4.3656249999999988
 50
122.4402479999992
 51
259.08922999999942
  0
ARC
  5
9C
  8
0
 10
54.066916378299759
 20
43.896306950460307
 30
0.0
 40
0.95
 50
90.0
 51
270.0
  0
LINE
  5
9D
  8
0
 10
54.320122378299743
 20
42.946306950460318
 30
0.0
 11
53.100249378299729
 21
42.24630695046033
 31
0.0
  0
LINE
  5
9E
  8
0
 10
57.515563378299703
 20
42.24630695046033
 30
0.0
 11
58.215563378299741
 21
42.946306950460318
 31
0.0
  0
POLYLINE
  5
9F
  8
0
 66
     1
 10
0.0
 20
0.0
 30
0.0
  0
VERTEX
  5
A0
  8
0
 10
57.533436378299712
 20
42.246306950460301
 30
0.0
 42
-0.054045
  0
VERTEX
  5
A1
  8
0
 10
57.750249378299721
 20
40.246306950460273
 30
0.0
 42
-0.0556
  0
SEQEND
  5
A2
  8
0
  0
POLYLINE
  5
A3
  8
0
 66
     1
 10
0.0
 20
0.0
 30
0.0
  0
VERTEX
  5
A4
  8
0
 10
57.750249378299721
 20
40.246306950460273
 30
0.0
 42
-0.046632
  0
VERTEX
  5
A5
  8
0
 10
57.520857378299752
 20
37.789807950460272
 30
0.0
 42
-0.069389
  0
VERTEX
  5
A6
  8
0
 10
56.934633378299743
 20
36.235801950460313
 30
0.0
 42
-0.105882
 70
     2
 50
298.60684500000002
  0
VERTEX
  5
A7
  8
0
 10
55.926862378299688
 20
35.063951950460307
 30
0.0
 42
-0.163832
  0
VERTEX
  5
A8
  8
0
 10
54.96556237829963
 20
34.740281950460307
 30
0.0
 42
-0.163832
  0
VERTEX
  5
A9
  8
0
 10
54.0042623782997
 20
35.063951950460307
 30
0.0
 42
-0.091773
  0
VERTEX
  5
AA
  8
0
 10
53.100249378299729
 20
36.057584950460303
 30
0.0
 42
-0.066502
 70
     2
 50
61.393154999999993
  0
SEQEND
  5
AB
  8
0
  0
LINE
  5
AE
  8
0
 10
53.100249378299729
 20
42.24630695046033
 30
0.0
 11
53.100249378299729
 21
41.839763950460302
 31
0.0
  0
LINE
  5
AF
  8
2
 10
48.100249378299729
 20
76.54630695046032
 30
0.0
 11
48.100249378299729
 21
76.346306950460331
 31
0.0
  0
LINE
  5
B0
  8
0
 10
53.100249378299729
 20
32.84630695046036
 30
0.0
 11
54.100249378299729
 21
31.84630695046036
 31
0.0
  0
LINE
  5
B1
  8
0
 10
53.600249378299729
 20
76.346306950460331
 30
0.0
 11
53.600249378299729
 21
75.346306950460331
 31
0.0
  0
LINE
  5
B2
  8
0
 10
43.100249378299729
 20
77.346306950460331
 30
0.0
 11
44.100249378299729
 21
76.346306950460331
 31
0.0
  0
LINE
  5
B3
  8
0
 10
43.100249378299729
 20
85.346306950460331
 30
0.0
 11
44.100249378299729
 21
86.346306950460317
 31
0.0
  0
LINE
  5
B4
  8
0
 10
53.100249378299729
 20
75.346306950460331
 30
0.0
 11
53.100249378299729
 21
44.846306950460331
 31
0.0
  0
LINE
  5
B5
  8
0
 10
43.100249378299729
 20
77.346306950460331
 30
0.0
 11
43.100249378299729
 21
85.346306950460331
 31
0.0
  0
LINE
  5
B8
  8
3
 10
60.71905137829981
 20
77.346306950460331
 30
0.0
 11
63.100249378299729
 21
81.470662950460337
 31
0.0
  0
LINE
  5
B9
  8
3
 10
58.71905137829981
 20
77.346306950460331
 30
0.0
 11
63.337853378299769
 21
85.346306950460331
 31
0.0
  0
LINE
  5
BA
  8
3
 10
56.719051378299802
 20
77.346306950460331
 30
0.0
 11
61.337853378299762
 21
85.346306950460331
 31
0.0
  0
LINE
  5
BB
  8
3
 10
54.71905137829981
 20
77.346306950460331
 30
0.0
 11
59.337853378299769
 21
85.346306950460331
 31
0.0
  0
LINE
  5
BC
  8
3
 10
52.71905137829981
 20
77.346306950460331
 30
0.0
 11
57.337853378299769
 21
85.346306950460331
 31
0.0
  0
LINE
  5
BD
  8
3
 10
50.71905137829981
 20
77.346306950460331
 30
0.0
 11
55.337853378299769
 21
85.346306950460331
 31
0.0
  0
LINE
  5
BE
  8
3
 10
48.71905137829981
 20
77.346306950460331
 30
0.0
 11
53.337853378299769
 21
85.346306950460331
 31
0.0
  0
LINE
  5
BF
  8
3
 10
46.719051378299753
 20
77.346306950460331
 30
0.0
 11
51.337853378299762
 21
85.346306950460331
 31
0.0
  0
LINE
  5
C0
  8
3
 10
44.719051378299753
 20
77.346306950460331
 30
0.0
 11
49.337853378299769
 21
85.346306950460331
 31
0.0
  0
LINE
  5
C1
  8
3
 10
43.100249378299729
 20
78.00656095046034
 30
0.0
 11
47.337853378299769
 21
85.346306950460331
 31
0.0
  0
LINE
  5
C2
  8
3
 10
43.100249378299729
 20
81.470662950460337
 30
0.0
 11
45.337853378299769
 21
85.346306950460331
 31
0.0
  0
LINE
  5
C3
  8
3
 10
61.100249378299729
 20
85.346306950460331
 30
0.0
 11
63.100249378299729
 21
81.882204950460334
 31
0.0
  0
LINE
  5
C4
  8
3
 10
59.100249378299729
 20
85.346306950460331
 30
0.0
 11
63.100249378299729
 21
78.418103950460363
 31
0.0
  0
LINE
  5
C5
  8
3
 10
57.100249378299743
 20
85.346306950460331
 30
0.0
 11
61.719051378299802
 21
77.346306950460331
 31
0.0
  0
LINE
  5
C6
  8
3
 10
55.100249378299743
 20
85.346306950460331
 30
0.0
 11
59.71905137829981
 21
77.346306950460331
 31
0.0
  0
LINE
  5
C7
  8
3
 10
53.100249378299729
 20
85.346306950460331
 30
0.0
 11
57.71905137829981
 21
77.346306950460331
 31
0.0
  0
LINE
  5
C8
  8
3
 10
51.100249378299729
 20
85.346306950460331
 30
0.0
 11
55.71905137829981
 21
77.346306950460331
 31
0.0
  0
LINE
  5
C9
  8
3
 10
49.100249378299729
 20
85.346306950460331
 30
0.0
 11
53.71905137829981
 21
77.346306950460331
 31
0.0
  0
LINE
  5
CA
  8
3
 10
47.100249378299729
 20
85.346306950460331
 30
0.0
 11
51.719051378299802
 21
77.346306950460331
 31
0.0
  0
LINE
  5
CB
  8
3
 10
45.100249378299743
 20
85.346306950460331
 30
0.0
 11
49.71905137829981
 21
77.346306950460331
 31
0.0
  0
LINE
  5
CC
  8
3
 10
43.100249378299729
 20
78.418103950460363
 30
0.0
 11
43.719051378299753
 21
77.346306950460331
 31
0.0
  0
LINE
  5
CD
  8
3
 10
43.100249378299729
 20
81.882204950460334
 30
0.0
 11
45.719051378299753
 21
77.346306950460331
 31
0.0
  0
LINE
  5
CE
  8
3
 10
43.100249378299729
 20
85.346306950460331
 30
0.0
 11
47.71905137829981
 21
77.346306950460331
 31
0.0
  0
LINE
  5
E2
  8
0
 10
53.100249378299729
 20
47.635357443984667
 30
0.0
 11
73.100249378299736
 21
51.161897058153983
 31
0.0
  0
LINE
  5
E3
  8
0
 10
53.100249378299729
 20
52.635357443984667
 30
0.0
 11
73.100249378299736
 21
56.161897058153983
 31
0.0
  0
LINE
  5
E4
  8
0
 10
53.100249378299729
 20
57.635357443984667
 30
0.0
 11
73.100249378299736
 21
61.161897058153983
 31
0.0
  0
LINE
  5
E5
  8
0
 10
53.100249378299729
 20
62.635357443984667
 30
0.0
 11
73.100249378299736
 21
66.161897058153983
 31
0.0
  0
LINE
  5
E6
  8
0
 10
53.100249378299729
 20
67.635357443984674
 30
0.0
 11
73.100249378299736
 21
71.161897058153983
 31
0.0
  0
LINE
  5
279
  8
0
 10
68.100249378299623
 20
97.849404417150964
 30
0.0
 11
68.100249378299623
 21
101.84940441715089
 31
0.0
  0
LINE
  5
27A
  8
0
 10
58.100249378299623
 20
101.84940441715089
 30
0.0
 11
58.100249378299623
 21
97.849404417150964
 31
0.0
  0
LINE
  5
27B
  8
0
 10
58.100249378299623
 20
97.849404417150964
 30
0.0
 11
68.100249378299623
 21
97.849404417150964
 31
0.0
  0
LINE
  5
27C
  8
0
 10
103.10024937829969
 20
125.4567836747501
 30
0.0
 11
103.10024937829959
 21
126.3463069504603
 31
0.0
  0
LINE
  5
27D
  8
0
 10
56.590249378299632
 20
116.6810611393271
 30
0.0
 11
56.590249378299632
 21
101.84940441715089
 31
0.0
  0
LINE
  5
27E
  8
0
 10
69.590249378299632
 20
101.84940441715089
 30
0.0
 11
69.590249378299632
 21
112.3137279443707
 31
0.0
  0
LINE
  5
27F
  8
0
 10
98.404256731842224
 20
119.9625285633568
 30
0.0
 11
88.737897039580517
 21
117.2272244818581
 31
0.0
  0
LINE
  5
280
  8
0
 10
86.015094569174721
 20
116.84940441715089
 30
0.0
 11
81.049470679217166
 21
116.84940441715089
 31
0.0
  0
LINE
  5
281
  8
0
 10
69.590249378299632
 20
101.84940441715089
 30
0.0
 11
56.590249378299632
 21
101.84940441715089
 31
0.0
  0
LINE
  5
291
  8
0
 10
56.590249378299859
 20
198.95844116198381
 30
0.0
 11
56.590249378299859
 21
204.10427442784081
 31
0.0
  0
ARC
  5
298
  8
0
 10
63.10024937829985
 20
201.53135779491231
 30
0.0
 40
7.0
 50
201.56518501524241
 51
308.53132429037788
  0
ARC
  5
299
  8
0
 10
63.10024937829985
 20
201.53135779491231
 30
0.0
 40
7.0
 50
51.468675709622119
 51
158.43481498475759
  0
ARC
  5
29A
  8
0
 10
99.600249378299836
 20
201.53135779491231
 30
0.0
 40
3.5
 50
270.0
 51
87.888660383864135
  0
LINE
  5
29B
  8
0
 10
83.94262098513822
 20
205.61097769904521
 30
0.0
 11
99.729194588767541
 21
205.0289817216227
 31
0.0
  0
LINE
  5
29C
  8
0
 10
83.942620985138234
 20
197.45173789077941
 30
0.0
 11
99.600249378299836
 21
198.0313577949122
 31
0.0
  0
CIRCLE
  5
29D
  8
0
 10
63.38262725073514
 20
201.53135779491231
 30
0.0
 40
4.6971000970094821
  0
ARC
  5
29E
  8
0
 10
78.135982505998527
 20
235.04366275448271
 30
0.0
 40
30.0
 50
249.15519537343911
 51
281.1603006392001
  0
ARC
  5
29F
  8
0
 10
78.135982505998527
 20
168.01905283534199
 30
0.0
 40
30.0
 50
78.839699360799813
 51
110.8448046265608
  0
ARC
  5
2A8
  8
0
 10
110.6732430611206
 20
-20.809341253289691
 30
0.0
 40
150.0
 50
93.915861512302882
 51
110.1986696099374
  0
ARC
  5
2A9
  8
0
 10
100.60024937829959
 20
126.3463069504603
 30
0.0
 40
2.5
 50
0.0
 51
93.915861512302882
  0
ARC
  5
2AA
  8
0
 10
60.090249378299632
 20
116.6810611393271
 30
0.0
 40
3.5
 50
110.1986696099373
 51
180.0
  0
ARC
  5
2AE
  8
0
 10
97.111348850958962
 20
125.8215719333575
 30
0.0
 40
6.0
 50
282.44396201272423
 51
356.5143790983463
  0
ARC
  5
2AF
  8
0
 10
86.015094569174721
 20
126.84940441715089
 30
0.0
 40
10.0
 50
270.0
 51
285.79999999999887
  0
ARC
  5
2B0
  8
0
 10
99.937482430589171
 20
60.554231752173962
 30
0.0
 40
60.0
 50
112.1950152906777
 51
120.3836235702158
  0
ARC
  5
2B1
  8
0
 10
81.049470679217166
 20
106.84940441715089
 30
0.0
 40
10.0
 50
90.0
 51
112.1950152906777
  0
LINE
  5
2F5
  8
3
 10
60.641749378299657
 20
95.849404417150993
 30
0.0
 11
60.641749378299778
 21
86.346306950460345
 31
0.0
  0
LINE
  5
2F6
  8
3
 10
65.558749378299794
 20
95.849404417150936
 30
0.0
 11
65.558749378299794
 21
86.346306950460317
 31
0.0
  0
LINE
  5
2F7
  8
0
 10
66.100249378299623
 20
97.849404417150964
 30
0.0
 11
66.100249378299509
 21
86.346306950460317
 31
0.0
  0
LINE
  5
2F8
  8
0
 10
60.100249378299623
 20
97.849404417150964
 30
0.0
 11
60.100249378299623
 21
86.346306950460317
 31
0.0
  0
LINE
  5
2FD
  8
0
 10
60.100249378299623
 20
95.849404417150993
 30
0.0
 11
66.100249378299623
 21
95.849404417150936
 31
0.0
  0
LINE
  5
2FE
  8
3
 10
60.641749378299657
 20
95.849404417150936
 30
0.0
 11
60.100249378299743
 21
96.787309929449336
 31
0.0
  0
LINE
  5
2FF
  8
3
 10
65.558749378299794
 20
95.849404417150936
 30
0.0
 11
66.100249378299623
 21
96.787309929449336
 31
0.0
  0
CIRCLE
  5
30B
  8
0
 10
63.10024937829985
 20
201.53135779491231
 30
0.0
 40
4.0
  0
ARC
  5
30C
  8
0
 10
61.269587472287981
 20
202.5882909391436
 30
0.0
 40
0.6912500000000005
 50
309.68887794065978
 51
16.658241772777039
  0
ARC
  5
30D
  8
0
 10
62.310249378299893
 20
202.89967793289179
 30
0.0
 40
0.3949999999999998
 50
43.341758227221447
 51
196.65824177277699
  0
ARC
  5
30E
  8
0
 10
63.100249378299971
 20
203.64522408337481
 30
0.0
 40
0.6912499999999989
 50
223.3417582272215
 51
316.65824177277852
  0
ARC
  5
30F
  8
0
 10
63.890249378299927
 20
202.89967793289179
 30
0.0
 40
0.3950000000000002
 50
343.3417582272229
 51
136.6582417727785
  0
ARC
  5
310
  8
0
 10
61.269587472287981
 20
200.4744246506811
 30
0.0
 40
0.691250000000001
 50
343.3417582272229
 51
50.311122059331566
  0
ARC
  5
311
  8
0
 10
62.310249378299893
 20
200.16303765693289
 30
0.0
 40
0.3950000000000001
 50
163.3417582272229
 51
316.65824177277852
  0
ARC
  5
312
  8
0
 10
63.100249378299971
 20
199.41749150644989
 30
0.0
 40
0.6912500000000003
 50
43.341758227221447
 51
136.65824177277571
  0
ARC
  5
313
  8
0
 10
63.890249378299927
 20
200.16303765693289
 30
0.0
 40
0.3949999999999998
 50
223.3417582272215
 51
16.658241772777039
  0
ARC
  5
314
  8
0
 10
64.930911284311833
 20
200.4744246506811
 30
0.0
 40
0.6912500000000003
 50
129.68887794066839
 51
196.65824177277699
  0
ARC
  5
315
  8
0
 10
64.930911284311833
 20
202.5882909391436
 30
0.0
 40
0.6912500000000011
 50
163.3417582272229
 51
230.3111220593438
  0
LINE
  5
316
  8
0
 10
60.35024937829985
 20
201.0063577949123
 30
0.0
 11
61.711032477433953
 21
201.0063577949123
 31
0.0
  0
LINE
  5
317
  8
0
 10
60.35024937829985
 20
202.05635779491229
 30
0.0
 11
61.711032477433953
 21
202.05635779491229
 31
0.0
  0
LINE
  5
318
  8
0
 10
64.489466279165981
 20
202.05635779491229
 30
0.0
 11
65.850249378299836
 21
202.05635779491229
 31
0.0
  0
LINE
  5
319
  8
0
 10
64.489466279165867
 20
201.0063577949123
 30
0.0
 11
65.850249378299836
 21
201.0063577949123
 31
0.0
  0
ARC
  5
31A
  8
0
 10
63.10024937829985
 20
201.53135779491231
 30
0.0
 40
2.7567916134521511
 50
355.97735839170269
 51
4.0226416083007424
  0
LINE
  5
31B
  8
0
 10
65.850249378299836
 20
202.05635779491229
 30
0.0
 11
65.850249378299836
 21
201.0063577949123
 31
0.0
  0
LINE
  5
31C
  8
0
 10
60.350249378299957
 20
202.05635779491229
 30
0.0
 11
60.350249378299957
 21
201.0063577949123
 31
0.0
  0
ARC
  5
31D
  8
0
 10
63.10024937829985
 20
201.53135779491231
 30
0.0
 40
2.7567916134521511
 50
10.9783913299381
 51
169.02160867006191
  0
ARC
  5
31E
  8
0
 10
63.10024937829985
 20
201.53135779491231
 30
0.0
 40
2.7567916134521511
 50
190.97839132993809
 51
349.02160867006188
  0
ARC
  5
31F
  8
0
 10
63.10024937829985
 20
201.53135779491231
 30
0.0
 40
2.7567916134521511
 50
175.97735839169599
 51
184.02264160830401
  0
LINE
  5
320
  8
0
 10
59.100249378299729
 20
121.7676076474265
 30
0.0
 11
64.070521658153552
 21
121.7676076474265
 31
0.0
  0
ARC
  5
321
  8
0
 10
63.100249378299623
 20
114.8394044171509
 30
0.0
 40
8.0
 50
69.728484327266543
 51
69.842683784424523
  0
LINE
  5
322
  8
0
 10
65.857040991751774
 20
122.34940441715089
 30
0.0
 11
60.343457764847592
 21
122.34940441715089
 31
0.0
  0
ARC
  5
323
  8
0
 10
63.100249378299623
 20
114.8394044171509
 30
0.0
 40
8.0
 50
110.15731621557541
 51
119.9999999999999
  0
LINE
  5
324
  8
0
 10
59.100249378299729
 20
121.7676076474265
 30
0.0
 11
59.100249378299729
 21
120.0459970289057
 31
0.0
  0
TEXT
  5
427
  8
0
 62
     3
 10
0.0
 20
0.0
 30
0.0
 40
10.0
  1
BS1-20X25-H
  7
STANDARD1
  0
ENDSEC
  0
EOF
