  0
SECTION
  2
HEADER
  9
$ACADVER
  1
AC1009
  9
$INSBASE
 10
0.0
 20
0.0
 30
0.0
  9
$EXTMIN
 10
0.0
 20
-2.960436562073669
 30
0.0
  9
$EXTMAX
 10
103.180194601547
 20
175.8782387898674
 30
0.0
  9
$LIMMIN
 10
0.0
 20
0.0
  9
$LIMMAX
 10
187.5
 20
135.0
  9
$ORTHOMODE
 70
     1
  9
$REGENMODE
 70
     1
  9
$FILLMODE
 70
     1
  9
$QTEXTMODE
 70
     0
  9
$MIRRTEXT
 70
     0
  9
$DRAGMODE
 70
     2
  9
$LTSCALE
 40
5.0
  9
$OSMODE
 70
  3071
  9
$ATTMODE
 70
     1
  9
$TEXTSIZE
 40
0.2
  9
$TRACEWID
 40
0.05
  9
$TEXTSTYLE
  7
STANDARD
  9
$CLAYER
  8
0
  9
$CELTYPE
  6
BYLAYER
  9
$CECOLOR
 62
   256
  9
$DIMSCALE
 40
0.5
  9
$DIMASZ
 40
3.0
  9
$DIMEXO
 40
2.0
  9
$DIMDLI
 40
0.38
  9
$DIMRND
 40
0.0
  9
$DIMDLE
 40
0.0
  9
$DIMEXE
 40
2.0
  9
$DIMTP
 40
0.0
  9
$DIMTM
 40
0.0
  9
$DIMTXT
 40
3.0
  9
$DIMCEN
 40
0.0
  9
$DIMTSZ
 40
0.0
  9
$DIMTOL
 70
     0
  9
$DIMLIM
 70
     0
  9
$DIMTIH
 70
     0
  9
$DIMTOH
 70
     0
  9
$DIMSE1
 70
     0
  9
$DIMSE2
 70
     0
  9
$DIMTAD
 70
     1
  9
$DIMZIN
 70
     0
  9
$DIMBLK
  1

  9
$DIMASO
 70
     0
  9
$DIMSHO
 70
     0
  9
$DIMPOST
  1

  9
$DIMAPOST
  1

  9
$DIMALT
 70
     0
  9
$DIMALTD
 70
     2
  9
$DIMALTF
 40
25.399999999999999
  9
$DIMLFAC
 40
1.0
  9
$DIMTOFL
 70
     1
  9
$DIMTVP
 40
1.6000000000000001
  9
$DIMTIX
 70
     1
  9
$DIMSOXD
 70
     0
  9
$DIMSAH
 70
     0
  9
$DIMBLK1
  1

  9
$DIMBLK2
  1

  9
$DIMSTYLE
  2
STANDARD
  9
$DIMCLRD
 70
     0
  9
$DIMCLRE
 70
     0
  9
$DIMCLRT
 70
     0
  9
$DIMTFAC
 40
1.0
  9
$DIMGAP
 40
0.09
  9
$LUNITS
 70
     2
  9
$LUPREC
 70
     4
  9
$SKETCHINC
 40
0.1
  9
$FILLETRAD
 40
0.5
  9
$AUNITS
 70
     0
  9
$AUPREC
 70
     4
  9
$MENU
  1
E:\r13\win\SUPPORT\ACAD
  9
$ELEVATION
 40
0.0
  9
$PELEVATION
 40
0.0
  9
$THICKNESS
 40
0.0
  9
$LIMCHECK
 70
     0
  9
$BLIPMODE
 70
     0
  9
$CHAMFERA
 40
0.0
  9
$CHAMFERB
 40
0.0
  9
$SKPOLY
 70
     0
  9
$TDCREATE
 40
2449840.6129861111
  9
$TDUPDATE
 40
2456598.3978292248
  9
$TDINDWG
 40
0.009185544
  9
$TDUSRTIMER
 40
0.009185544
  9
$USRTIMER
 70
     1
  9
$ANGBASE
 50
0.0
  9
$ANGDIR
 70
     0
  9
$PDMODE
 70
     0
  9
$PDSIZE
 40
0.0
  9
$PLINEWID
 40
0.0
  9
$COORDS
 70
     1
  9
$SPLFRAME
 70
     0
  9
$SPLINETYPE
 70
     6
  9
$SPLINESEGS
 70
     8
  9
$ATTDIA
 70
     0
  9
$ATTREQ
 70
     1
  9
$HANDLING
 70
     1
  9
$HANDSEED
  5
4AC
  9
$SURFTAB1
 70
     6
  9
$SURFTAB2
 70
     6
  9
$SURFTYPE
 70
     6
  9
$SURFU
 70
     6
  9
$SURFV
 70
     6
  9
$UCSNAME
  2

  9
$UCSORG
 10
0.0
 20
0.0
 30
0.0
  9
$UCSXDIR
 10
1.0
 20
0.0
 30
0.0
  9
$UCSYDIR
 10
0.0
 20
1.0
 30
0.0
  9
$PUCSNAME
  2

  9
$PUCSORG
 10
0.0
 20
0.0
 30
0.0
  9
$PUCSXDIR
 10
1.0
 20
0.0
 30
0.0
  9
$PUCSYDIR
 10
0.0
 20
1.0
 30
0.0
  9
$USERI1
 70
     3
  9
$USERI2
 70
     1
  9
$USERI3
 70
     0
  9
$USERI4
 70
     0
  9
$USERI5
 70
     0
  9
$USERR1
 40
0.5
  9
$USERR2
 40
3.0
  9
$USERR3
 40
3.0
  9
$USERR4
 40
3.0
  9
$USERR5
 40
10.0
  9
$WORLDVIEW
 70
     1
  9
$SHADEDGE
 70
     3
  9
$SHADEDIF
 70
    70
  9
$TILEMODE
 70
     1
  9
$MAXACTVP
 70
    16
  9
$PLIMCHECK
 70
     0
  9
$PEXTMIN
 10
1.0000000000000000E+020
 20
1.0000000000000000E+020
 30
1.0000000000000000E+020
  9
$PEXTMAX
 10
-1.0000000000000000E+020
 20
-1.0000000000000000E+020
 30
-1.0000000000000000E+020
  9
$PLIMMIN
 10
0.0
 20
0.0
  9
$PLIMMAX
 10
12.0
 20
9.0
  9
$UNITMODE
 70
     0
  9
$VISRETAIN
 70
     0
  9
$PLINEGEN
 70
     0
  9
$PSLTSCALE
 70
     0
  0
ENDSEC
  0
SECTION
  2
TABLES
  0
TABLE
  2
VPORT
 70
     1
  0
VPORT
  2
*ACTIVE
 70
     0
 10
0.0
 20
0.0
 11
1.0
 21
1.0
 12
98.703002861538494
 22
86.456381659831791
 13
0.0
 23
0.0
 14
5.0
 24
5.0
 15
10.0
 25
10.0
 16
0.0
 26
0.0
 36
1.0
 17
0.0
 27
0.0
 37
0.0
 40
180.45852561813831
 41
1.831871345029239
 42
50.0
 43
0.0
 44
0.0
 50
0.0
 51
0.0
 71
     0
 72
   100
 73
     1
 74
     0
 75
     0
 76
     0
 77
     0
 78
     0
  0
ENDTAB
  0
TABLE
  2
LTYPE
 70
     4
  0
LTYPE
  2
CONTINUOUS
 70
     0
  3
Solid Line
 72
    65
 73
     0
 40
0.0
  0
LTYPE
  2
CENTER
 70
     0
  3
____ _ ____ _ ____ _ ____ _ ____ _ ____ _ ____
 72
    65
 73
     4
 40
2.0
 49
1.25
 49
-0.25
 49
0.25
 49
-0.25
  0
LTYPE
  2
HIDDEN
 70
     0
  3
_ _ _ _ _ _ _ _ _ _ _ _ _ _ _ _ _ _ _ _ _ _ _
 72
    65
 73
     2
 40
0.375
 49
0.25
 49
-0.125
  0
LTYPE
  2
PHANTOM2
 70
     0
  3
___ _ _ ___ _ _ ___ _ _ ___ _ _
 72
    65
 73
     6
 40
1.25
 49
0.625
 49
-0.125
 49
0.125
 49
-0.125
 49
0.125
 49
-0.125
  0
ENDTAB
  0
TABLE
  2
LAYER
 70
     4
  0
LAYER
  2
0
 70
     0
 62
     7
  6
CONTINUOUS
  0
LAYER
  2
1
 70
     0
 62
     1
  6
CENTER
  0
LAYER
  2
3
 70
     0
 62
     3
  6
CONTINUOUS
  0
LAYER
  2
2
 70
     0
 62
     2
  6
HIDDEN
  0
ENDTAB
  0
TABLE
  2
STYLE
 70
     2
  0
STYLE
  2
STANDARD
 70
     0
 40
0.0
 41
1.0
 50
0.0
 71
     0
 42
0.2
  3
TXT
  4
BIGFONT
  0
STYLE
  2
STANDARD1
 70
     0
 40
0.0
 41
1.0
 50
0.0
 71
     0
 42
3.0
  3
txt
  4

  0
ENDTAB
  0
TABLE
  2
VIEW
 70
     0
  0
ENDTAB
  0
TABLE
  2
UCS
 70
     0
  0
ENDTAB
  0
TABLE
  2
APPID
 70
     4
  0
APPID
  2
ACAD
 70
     0
  0
APPID
  2
DCO15
 70
     0
  0
APPID
  2
ACAD_MLEADERVER
 70
     0
  0
APPID
  2
ACAD_NAV_VCDISPLAY
 70
     0
  0
ENDTAB
  0
TABLE
  2
DIMSTYLE
 70
     1
  0
DIMSTYLE
  2
STANDARD
 70
     0
  3

  4

  5

  6

  7

 40
1.0
 41
0.18
 42
0.0625
 43
0.38
 44
0.18
 45
0.0
 46
0.0
 47
0.0
 48
0.0
140
0.18
141
0.09
142
0.0
143
25.399999999999999
144
1.0
145
0.0
146
1.0
147
0.09
 71
     0
 72
     0
 73
     1
 74
     1
 75
     0
 76
     0
 77
     0
 78
     0
170
     0
171
     2
172
     0
173
     0
174
     0
175
     0
176
     0
177
     0
178
     0
  0
ENDTAB
  0
ENDSEC
  0
SECTION
  2
BLOCKS
  0
BLOCK
  8
0
  2
$MODEL_SPACE
 70
     0
 10
0.0
 20
0.0
 30
0.0
  3
$MODEL_SPACE
  1

  0
ENDBLK
  5
175
  8
0
  0
BLOCK
 67
     1
  8
0
  2
$PAPER_SPACE
 70
     0
 10
0.0
 20
0.0
 30
0.0
  3
$PAPER_SPACE
  1

  0
ENDBLK
  5
173
 67
     1
  8
0
  0
BLOCK
  8
0
  2
*X0
 70
     1
 10
0.0
 20
0.0
 30
0.0
  3
*X0
  1

  0
LINE
  5
3B
  8
0
 62
     0
 10
102.76000000000001
 20
61.637915
 30
0.0
 11
109.23999999999999
 21
65.379143999999997
 31
0.0
  0
LINE
  5
3C
  8
0
 62
     0
 10
102.76000000000001
 20
63.947316000000001
 30
0.0
 11
109.23999999999999
 21
67.688546000000002
 31
0.0
  0
LINE
  5
3D
  8
0
 62
     0
 10
102.76000000000001
 20
66.256717000000009
 30
0.0
 11
109.23999999999999
 21
69.997946999999996
 31
0.0
  0
LINE
  5
3E
  8
0
 62
     0
 10
102.76000000000001
 20
68.566118000000003
 30
0.0
 11
109.23999999999999
 21
72.307348000000005
 31
0.0
  0
LINE
  5
3F
  8
0
 62
     0
 10
102.76000000000001
 20
70.875518999999997
 30
0.0
 11
109.23999999999999
 21
74.616748999999999
 31
0.0
  0
LINE
  5
40
  8
0
 62
     0
 10
102.76000000000001
 20
73.184919999999991
 30
0.0
 11
109.23999999999999
 21
76.926150000000007
 31
0.0
  0
LINE
  5
41
  8
0
 62
     0
 10
102.76000000000001
 20
75.494320999999999
 30
0.0
 11
109.23999999999999
 21
79.235551000000001
 31
0.0
  0
LINE
  5
42
  8
0
 62
     0
 10
102.76000000000001
 20
77.803721999999993
 30
0.0
 11
108.296115
 21
81.0
 31
0.0
  0
LINE
  5
43
  8
0
 62
     0
 10
102.76000000000001
 20
80.113123000000002
 30
0.0
 11
104.296115
 21
81.0
 31
0.0
  0
LINE
  5
44
  8
0
 62
     0
 10
102.76000000000001
 20
59.328513999999998
 30
0.0
 11
109.23999999999999
 21
63.069743000000003
 31
0.0
  0
LINE
  5
45
  8
0
 62
     0
 10
102.76000000000001
 20
57.01911299999999
 30
0.0
 11
109.23999999999999
 21
60.760342000000001
 31
0.0
  0
LINE
  5
46
  8
0
 62
     0
 10
102.76000000000001
 20
54.709712000000003
 30
0.0
 11
109.23999999999999
 21
58.450941
 31
0.0
  0
LINE
  5
47
  8
0
 62
     0
 10
102.76000000000001
 20
52.400309999999998
 30
0.0
 11
109.23999999999999
 21
56.141539999999999
 31
0.0
  0
LINE
  5
48
  8
0
 62
     0
 10
102.76000000000001
 20
50.090909000000003
 30
0.0
 11
109.23999999999999
 21
53.832138999999998
 31
0.0
  0
LINE
  5
49
  8
0
 62
     0
 10
104.87049
 20
49.0
 30
0.0
 11
109.23999999999999
 21
51.522737999999997
 31
0.0
  0
LINE
  5
4A
  8
0
 62
     0
 10
108.87049
 20
49.0
 30
0.0
 11
109.23999999999999
 21
49.213337000000003
 31
0.0
  0
ENDBLK
  5
4B
  8
0
  0
ENDSEC
  0
SECTION
  2
ENTITIES
  0
ARC
  5
73
  8
0
 10
58.180191584801719
 20
154.87823878986731
 30
0.0
 40
16.0
 50
12.700858549866879
 51
347.29914145013362
  0
LINE
  5
75
  8
1
 10
58.180191584801662
 20
133.87823878986731
 30
0.0
 11
58.180191584801662
 21
175.8782387898674
 31
0.0
  0
LINE
  5
76
  8
0
 10
42.180191584801662
 20
74.554320474235567
 30
0.0
 11
42.180191584801662
 21
68.074320474235563
 31
0.0
  0
LINE
  5
77
  8
0
 10
42.180191584801662
 20
68.074320474235563
 30
0.0
 11
42.940191584801653
 21
67.314320474235558
 31
0.0
  0
LINE
  5
78
  8
0
 10
42.940191584801653
 20
67.314320474235558
 30
0.0
 11
73.420191584801671
 21
67.314320474235558
 31
0.0
  0
LINE
  5
79
  8
0
 10
73.420191584801671
 20
67.314320474235558
 30
0.0
 11
74.180191584801662
 21
68.074320474235563
 31
0.0
  0
LINE
  5
7A
  8
0
 10
74.180191584801662
 20
68.074320474235563
 30
0.0
 11
74.180191584801662
 21
74.554320474235567
 31
0.0
  0
LINE
  5
7B
  8
0
 10
74.180191584801662
 20
74.554320474235567
 30
0.0
 11
73.420191584801671
 21
75.314320474235586
 31
0.0
  0
LINE
  5
7C
  8
0
 10
73.420191584801671
 20
75.314320474235586
 30
0.0
 11
42.940191584801653
 21
75.314320474235586
 31
0.0
  0
LINE
  5
7D
  8
0
 10
42.940191584801653
 20
75.314320474235586
 30
0.0
 11
42.180191584801662
 21
74.554320474235567
 31
0.0
  0
LINE
  5
7E
  8
0
 10
50.940191584801653
 20
25.81432047423559
 30
0.0
 11
65.420191584801671
 21
25.814320474235561
 31
0.0
  0
LINE
  5
7F
  8
0
 10
66.180191584801662
 20
66.314320474235544
 30
0.0
 11
66.180191584801662
 21
37.914861474235551
 31
0.0
  0
LINE
  5
80
  8
0
 10
50.180191584801662
 20
66.314320474235544
 30
0.0
 11
50.180191584801662
 21
37.914861474235579
 31
0.0
  0
LINE
  5
81
  8
0
 10
66.180191584801662
 20
26.574320474235549
 30
0.0
 11
65.420191584801671
 21
25.814320474235561
 31
0.0
  0
LINE
  5
82
  8
0
 10
50.940191584801653
 20
25.81432047423559
 30
0.0
 11
50.180191584801662
 21
26.574320474235581
 31
0.0
  0
LINE
  5
83
  8
1
 10
58.180191584801662
 20
107.3143204742355
 30
0.0
 11
58.180191584801662
 21
20.814320474235569
 31
0.0
  0
ARC
  5
8D
  8
0
 10
58.180191584801719
 20
154.87823878986731
 30
0.0
 40
15.24
 50
13.327257493092301
 51
346.67274250690832
  0
LINE
  5
8F
  8
0
 10
54.063962584801629
 20
35.414320474235581
 30
0.0
 11
62.296420584801702
 21
35.414320474235552
 31
0.0
  0
LINE
  5
90
  8
0
 10
50.180191584801662
 20
35.414320474235581
 30
0.0
 11
51.301223584801683
 21
36.274518474235578
 31
0.0
  0
ARC
  5
91
  8
0
 10
51.015909584801648
 20
37.093570474235548
 30
0.0
 40
0.8190519999999999
 50
89.999999999999986
 51
270.0
  0
LINE
  5
92
  8
0
 10
66.180191584801662
 20
37.914861474235551
 30
0.0
 11
50.180191584801662
 21
37.914861474235579
 31
0.0
  0
LINE
  5
93
  8
0
 10
51.015909584801648
 20
36.274518474235578
 30
0.0
 11
65.344473584801676
 21
36.274518474235549
 31
0.0
  0
ARC
  5
94
  8
0
 10
53.030191584801628
 20
33.000689474235543
 30
0.0
 40
3.649999999999999
 50
116.2413639999999
 51
270.49095399999999
  0
POLYLINE
  5
95
  8
0
 66
     1
 10
0.0
 20
0.0
 30
0.0
  0
VERTEX
  5
96
  8
0
 10
50.180191584801712
 20
30.094450474235568
 30
0.0
 42
0.101338
 70
     2
 50
302.83895699999988
  0
VERTEX
  5
97
  8
0
 10
51.05121258480164
 20
29.245514474235559
 30
0.0
 42
0.143618
 50
32.838957000000001
  0
VERTEX
  5
98
  8
0
 10
51.979585584801661
 20
28.97323547423554
 30
0.0
 42
0.143618
  0
SEQEND
  5
99
  8
0
  0
LINE
  5
9A
  8
0
 10
50.180191584801662
 20
30.720338474235579
 30
0.0
 11
50.180191584801662
 21
26.574320474235581
 31
0.0
  0
LINE
  5
9B
  8
0
 10
50.180191584801662
 20
35.414320474235581
 30
0.0
 11
50.180191584801662
 21
35.281040474235603
 31
0.0
  0
LINE
  5
9C
  8
0
 10
66.180191584801662
 20
35.414320474235552
 30
0.0
 11
66.180191584801662
 21
35.281040474235567
 31
0.0
  0
POLYLINE
  5
9D
  8
0
 66
     1
 10
0.0
 20
0.0
 30
0.0
  0
VERTEX
  5
9E
  8
0
 10
66.180191584801719
 20
30.094450474235568
 30
0.0
 42
-0.101338
 70
     2
 50
302.83895699999988
  0
VERTEX
  5
9F
  8
0
 10
65.309170584801663
 20
29.245514474235559
 30
0.0
 42
-0.143618
  0
VERTEX
  5
A0
  8
0
 10
64.380797584801712
 20
28.97323547423554
 30
0.0
 42
-0.143618
  0
SEQEND
  5
A1
  8
0
  0
ARC
  5
A2
  8
0
 10
63.330191584801689
 20
33.000689474235543
 30
0.0
 40
3.649999999999999
 50
269.50904600000001
 51
63.758636000000017
  0
ARC
  5
A3
  8
0
 10
65.344473584801676
 20
37.093570474235548
 30
0.0
 40
0.8190519999999999
 50
270.0
 51
89.999999999999986
  0
LINE
  5
A4
  8
0
 10
66.180191584801662
 20
35.414320474235552
 30
0.0
 11
65.059159584801648
 21
36.274518474235549
 31
0.0
  0
LINE
  5
A5
  8
0
 10
66.180191584801662
 20
35.414320474235552
 30
0.0
 11
66.068235584801641
 21
35.414320474235552
 31
0.0
  0
LINE
  5
A6
  8
0
 10
54.063962584801629
 20
35.414320474235581
 30
0.0
 11
54.262256584801662
 21
36.274518474235578
 31
0.0
  0
POLYLINE
  5
A7
  8
0
 66
     1
 10
0.0
 20
0.0
 30
0.0
  0
VERTEX
  5
A8
  8
0
 10
51.979585584801661
 20
28.97323547423554
 30
0.0
 42
0.143618
  0
VERTEX
  5
A9
  8
0
 10
52.907959584801688
 20
29.245514474235559
 30
0.0
 42
0.107177
  0
VERTEX
  5
AA
  8
0
 10
53.817635584801678
 20
30.152849474235548
 30
0.0
 42
0.078137
 70
     2
 50
57.161042999999999
  0
VERTEX
  5
AB
  8
0
 10
54.368002584801673
 20
31.39463547423555
 30
0.0
 42
0.065401
 50
147.16104300000001
  0
VERTEX
  5
AC
  8
0
 10
54.578980584801677
 20
33.000689474235543
 30
0.0
 42
0.065401
  0
VERTEX
  5
AD
  8
0
 10
54.368002584801673
 20
34.606743474235543
 30
0.0
 42
0.04946
  0
VERTEX
  5
AE
  8
0
 10
54.063962584801629
 20
35.414320474235552
 30
0.0
 42
0.044642
 70
     2
 50
122.83895699999989
  0
SEQEND
  5
AF
  8
0
  0
LINE
  5
B0
  8
0
 10
62.296420584801702
 20
35.414320474235552
 30
0.0
 11
62.098126584801662
 21
36.274518474235549
 31
0.0
  0
POLYLINE
  5
B1
  8
0
 66
     1
 10
0.0
 20
0.0
 30
0.0
  0
VERTEX
  5
B2
  8
0
 10
64.380797584801712
 20
28.97323547423554
 30
0.0
 42
-0.143618
  0
VERTEX
  5
B3
  8
0
 10
63.452423584801629
 20
29.245514474235559
 30
0.0
 42
-0.107177
  0
VERTEX
  5
B4
  8
0
 10
62.542747584801639
 20
30.152849474235548
 30
0.0
 42
-0.078137
 70
     2
 50
57.161042999999999
  0
VERTEX
  5
B5
  8
0
 10
61.992380584801708
 20
31.39463547423555
 30
0.0
 42
-0.065401
  0
VERTEX
  5
B6
  8
0
 10
61.78140258480164
 20
33.000689474235543
 30
0.0
 42
-0.065401
  0
VERTEX
  5
B7
  8
0
 10
61.992380584801708
 20
34.606743474235543
 30
0.0
 42
-0.04946
  0
VERTEX
  5
B8
  8
0
 10
62.296420584801702
 20
35.414320474235552
 30
0.0
 42
-0.044642
 70
     2
 50
122.83895699999989
  0
SEQEND
  5
B9
  8
0
  0
LINE
  5
BA
  8
0
 10
66.180191584801662
 20
35.414320474235552
 30
0.0
 11
66.180191584801662
 21
35.281040474235567
 31
0.0
  0
LINE
  5
BB
  8
0
 10
66.180191584801662
 20
30.72033847423555
 30
0.0
 11
66.180191584801662
 21
26.574320474235549
 31
0.0
  0
LINE
  5
BC
  8
0
 10
50.180191584801662
 20
26.574320474235581
 30
0.0
 11
66.180191584801662
 21
26.574320474235549
 31
0.0
  0
LINE
  5
BD
  8
0
 10
74.180191584801662
 20
68.074320474235563
 30
0.0
 11
42.180191584801662
 21
68.074320474235563
 31
0.0
  0
LINE
  5
BE
  8
0
 10
42.180191584801662
 20
74.554320474235567
 30
0.0
 11
74.180191584801662
 21
74.554320474235567
 31
0.0
  0
LINE
  5
BF
  8
0
 10
50.180191584801662
 20
35.414320474235581
 30
0.0
 11
50.292147584801683
 21
35.414320474235581
 31
0.0
  0
LINE
  5
C2
  8
0
 10
50.680191584801662
 20
67.314320474235558
 30
0.0
 11
50.680191584801662
 21
66.314320474235544
 31
0.0
  0
LINE
  5
C3
  8
0
 10
50.180191584801662
 20
66.314320474235544
 30
0.0
 11
66.180191584801662
 21
66.314320474235544
 31
0.0
  0
LINE
  5
C4
  8
0
 10
65.680191584801662
 20
67.314320474235558
 30
0.0
 11
65.680191584801662
 21
66.314320474235544
 31
0.0
  0
LINE
  5
C5
  8
2
 10
46.180191584801662
 20
67.514320474235575
 30
0.0
 11
70.180191584801662
 21
67.514320474235575
 31
0.0
  0
LINE
  5
C6
  8
2
 10
46.180191584801662
 20
67.514320474235575
 30
0.0
 11
46.180191584801662
 21
67.314320474235558
 31
0.0
  0
LINE
  5
C7
  8
2
 10
70.180191584801662
 20
67.514320474235575
 30
0.0
 11
70.180191584801662
 21
67.314320474235558
 31
0.0
  0
INSERT
  5
CE
  8
3
  2
*X0
 10
-6.8198084151982812
 20
177.3143204742355
 30
0.0
 50
270.0
  0
INSERT
  5
CF
  8
3
  2
*X0
 10
-6.819808415198338
 20
-34.685679525764428
 30
0.0
 41
-1.0
 50
270.0
  0
LINE
  5
DC
  8
0
 10
50.180191584801662
 20
39.745898019301109
 30
0.0
 11
66.180191584801662
 21
42.567129710636493
 31
0.0
  0
LINE
  5
DD
  8
0
 10
50.180191584801662
 20
44.74589801930108
 30
0.0
 11
66.180191584801662
 21
47.567129710636493
 31
0.0
  0
LINE
  5
DE
  8
0
 10
50.180191584801662
 20
49.74589801930108
 30
0.0
 11
66.180191584801662
 21
52.567129710636493
 31
0.0
  0
LINE
  5
DF
  8
0
 10
50.180191584801662
 20
54.74589801930108
 30
0.0
 11
66.180191584801662
 21
57.567129710636493
 31
0.0
  0
LINE
  5
E0
  8
0
 10
50.180191584801662
 20
59.74589801930108
 30
0.0
 11
66.180191584801662
 21
62.567129710636493
 31
0.0
  0
LINE
  5
272
  8
0
 10
63.180191584801662
 20
77.814320474235586
 30
0.0
 11
63.180191584801662
 21
81.814320474235586
 31
0.0
  0
LINE
  5
273
  8
0
 10
53.180191584801662
 20
81.814320474235586
 30
0.0
 11
53.180191584801662
 21
77.814320474235586
 31
0.0
  0
LINE
  5
274
  8
0
 10
53.180191584801662
 20
77.814320474235586
 30
0.0
 11
63.180191584801662
 21
77.814320474235586
 31
0.0
  0
LINE
  5
275
  8
0
 10
98.180191584801676
 20
105.4389978085552
 30
0.0
 11
98.180191584801676
 21
106.3112230075449
 31
0.0
  0
LINE
  5
276
  8
0
 10
51.670191584801671
 20
96.645977196411735
 30
0.0
 11
51.670191584801671
 21
81.814320474235586
 31
0.0
  0
LINE
  5
277
  8
0
 10
64.670191584801671
 20
81.814320474235586
 30
0.0
 11
64.670191584801671
 21
92.278644001455319
 31
0.0
  0
LINE
  5
278
  8
0
 10
93.484198938344264
 20
99.927444620441435
 30
0.0
 11
83.817839246082414
 21
97.192140538942766
 31
0.0
  0
LINE
  5
279
  8
0
 10
81.095036775676704
 20
96.814320474235586
 30
0.0
 11
76.129412885719134
 21
96.814320474235586
 31
0.0
  0
LINE
  5
27A
  8
0
 10
64.670191584801671
 20
81.814320474235586
 30
0.0
 11
51.670191584801671
 21
81.814320474235586
 31
0.0
  0
LINE
  5
28A
  8
0
 10
51.670191584801671
 20
152.3053221569389
 30
0.0
 11
51.670191584801671
 21
157.45115542279589
 31
0.0
  0
LINE
  5
28D
  8
1
 10
103.180194601547
 20
154.8782387898674
 30
0.0
 11
37.180191584801719
 21
154.8782387898674
 31
0.0
  0
ARC
  5
291
  8
0
 10
58.180191584801662
 20
154.8782387898674
 30
0.0
 40
7.0
 50
201.56518501524241
 51
308.5313242903793
  0
ARC
  5
292
  8
0
 10
58.180191584801662
 20
154.8782387898674
 30
0.0
 40
7.0
 50
51.468675709620847
 51
158.43481498475759
  0
ARC
  5
293
  8
0
 10
94.680191584801648
 20
154.8782387898674
 30
0.0
 40
3.5
 50
270.0
 51
90.0
  0
LINE
  5
294
  8
0
 10
78.971212340774855
 20
158.95975182099491
 30
0.0
 11
94.809136795269296
 21
158.3758627165779
 31
0.0
  0
LINE
  5
295
  8
0
 10
78.971212340774855
 20
150.79672575873991
 30
0.0
 11
94.680191584801648
 21
151.3782387898674
 31
0.0
  0
CIRCLE
  5
296
  8
0
 10
58.462569457236839
 20
154.8782387898674
 30
0.0
 40
4.6971000970094821
  0
ARC
  5
297
  8
0
 10
73.215924712500339
 20
188.3905437494378
 30
0.0
 40
30.0
 50
249.15519537343911
 51
281.16030063920169
  0
ARC
  5
298
  8
0
 10
73.215924712500339
 20
121.3659338302971
 30
0.0
 40
30.0
 50
78.839699360798207
 51
110.8448046265608
  0
ARC
  5
2A1
  8
0
 10
105.7531852676226
 20
-40.844425196205059
 30
0.0
 40
150.0
 50
93.915861512302882
 51
110.1986696099374
  0
ARC
  5
2A2
  8
0
 10
95.680191584801676
 20
106.3112230075449
 30
0.0
 40
2.5
 50
0.0
 51
93.915861512302882
  0
ARC
  5
2A3
  8
0
 10
55.170191584801671
 20
96.645977196411735
 30
0.0
 40
3.5
 50
110.19866960993581
 51
180.0
  0
ARC
  5
2A7
  8
0
 10
92.191291057460944
 20
105.7864879904421
 30
0.0
 40
6.0
 50
282.44396201272423
 51
356.5143790983463
  0
ARC
  5
2A8
  8
0
 10
81.095036775676704
 20
106.8143204742356
 30
0.0
 40
10.0
 50
270.0
 51
285.80000000000041
  0
ARC
  5
2A9
  8
0
 10
95.017424637091096
 20
40.519147809258577
 30
0.0
 40
60.0
 50
112.1950152906777
 51
120.3836235702158
  0
ARC
  5
2AA
  8
0
 10
76.129412885719134
 20
86.814320474235586
 30
0.0
 40
10.0
 50
90.0
 51
112.1950152906777
  0
LINE
  5
2EE
  8
3
 10
55.72169158480159
 20
75.814320474235615
 30
0.0
 11
55.72169158480159
 21
75.314320474235586
 31
0.0
  0
LINE
  5
2EF
  8
3
 10
60.638691584801791
 20
75.814320474235558
 30
0.0
 11
60.638691584801791
 21
75.314320474235615
 31
0.0
  0
LINE
  5
2F0
  8
0
 10
61.180191584801662
 20
77.814320474235586
 30
0.0
 11
61.180191584801662
 21
75.314320474235615
 31
0.0
  0
LINE
  5
2F1
  8
0
 10
55.180191584801662
 20
77.814320474235586
 30
0.0
 11
55.180191584801662
 21
75.314320474235586
 31
0.0
  0
LINE
  5
2F6
  8
0
 10
55.180191584801662
 20
75.814320474235615
 30
0.0
 11
61.180191584801662
 21
75.814320474235558
 31
0.0
  0
LINE
  5
2F7
  8
3
 10
55.72169158480164
 20
75.814320474235558
 30
0.0
 11
55.180191584801712
 21
76.752225986533944
 31
0.0
  0
LINE
  5
2F8
  8
3
 10
60.638691584801727
 20
75.814320474235558
 30
0.0
 11
61.180191584801662
 21
76.752225986533944
 31
0.0
  0
CIRCLE
  5
304
  8
0
 10
58.180191584801662
 20
154.8782387898674
 30
0.0
 40
4.0
  0
ARC
  5
305
  8
0
 10
56.349529678789729
 20
155.93517193409861
 30
0.0
 40
0.6912500000000005
 50
309.68887794065972
 51
16.658241772777039
  0
ARC
  5
306
  8
0
 10
57.390191584801698
 20
156.24655892784691
 30
0.0
 40
0.3949999999999998
 50
43.34175822722257
 51
196.65824177277699
  0
ARC
  5
307
  8
0
 10
58.180191584801719
 20
156.9921050783299
 30
0.0
 40
0.6912499999999989
 50
223.34175822722261
 51
316.6582417727775
  0
ARC
  5
308
  8
0
 10
58.970191584801682
 20
156.24655892784691
 30
0.0
 40
0.3950000000000002
 50
343.3417582272229
 51
136.65824177277739
  0
ARC
  5
309
  8
0
 10
56.349529678789729
 20
153.82130564563619
 30
0.0
 40
0.691250000000001
 50
343.3417582272229
 51
50.311122059331566
  0
ARC
  5
30A
  8
0
 10
57.390191584801698
 20
153.509918651888
 30
0.0
 40
0.3950000000000001
 50
163.3417582272229
 51
316.6582417727775
  0
ARC
  5
30B
  8
0
 10
58.180191584801719
 20
152.76437250140501
 30
0.0
 40
0.6912500000000003
 50
43.34175822722257
 51
136.65824177277679
  0
ARC
  5
30C
  8
0
 10
58.970191584801682
 20
153.509918651888
 30
0.0
 40
0.3949999999999998
 50
223.34175822722261
 51
16.658241772777039
  0
ARC
  5
30D
  8
0
 10
60.010853490813638
 20
153.82130564563619
 30
0.0
 40
0.6912500000000003
 50
129.68887794066839
 51
196.65824177277699
  0
ARC
  5
30E
  8
0
 10
60.010853490813638
 20
155.93517193409861
 30
0.0
 40
0.6912500000000011
 50
163.3417582272229
 51
230.31112205934249
  0
LINE
  5
30F
  8
0
 10
55.430191584801662
 20
154.35323878986739
 30
0.0
 11
56.790974683935701
 21
154.35323878986739
 31
0.0
  0
LINE
  5
310
  8
0
 10
55.430191584801662
 20
155.4032387898674
 30
0.0
 11
56.790974683935637
 21
155.4032387898674
 31
0.0
  0
LINE
  5
311
  8
0
 10
59.569408485667729
 20
155.4032387898674
 30
0.0
 11
60.930191584801662
 21
155.4032387898674
 31
0.0
  0
LINE
  5
312
  8
0
 10
59.569408485667623
 20
154.35323878986739
 30
0.0
 11
60.930191584801662
 21
154.35323878986739
 31
0.0
  0
ARC
  5
313
  8
0
 10
58.180191584801662
 20
154.8782387898674
 30
0.0
 40
2.7567916134521511
 50
355.97735839170269
 51
4.0226416083006269
  0
LINE
  5
314
  8
0
 10
60.930191584801598
 20
155.4032387898674
 30
0.0
 11
60.930191584801662
 21
154.35323878986739
 31
0.0
  0
LINE
  5
315
  8
0
 10
55.430191584801719
 20
155.4032387898674
 30
0.0
 11
55.430191584801719
 21
154.35323878986739
 31
0.0
  0
ARC
  5
316
  8
0
 10
58.180191584801662
 20
154.8782387898674
 30
0.0
 40
2.7567916134521511
 50
10.9783913299381
 51
169.02160867006191
  0
ARC
  5
317
  8
0
 10
58.180191584801662
 20
154.8782387898674
 30
0.0
 40
2.7567916134521511
 50
190.97839132993809
 51
349.02160867006188
  0
ARC
  5
318
  8
0
 10
58.180191584801662
 20
154.8782387898674
 30
0.0
 40
2.7567916134521511
 50
175.9773583916961
 51
184.02264160830379
  0
LINE
  5
319
  8
0
 10
54.180191584801719
 20
101.7325237045111
 30
0.0
 11
59.150463864655542
 21
101.7325237045111
 31
0.0
  0
ARC
  5
31A
  8
0
 10
58.180191584801662
 20
94.804320474235595
 30
0.0
 40
8.0
 50
69.728484327266543
 51
69.842683784424523
  0
LINE
  5
31B
  8
0
 10
60.93698319825382
 20
102.3143204742356
 30
0.0
 11
55.423399971349561
 21
102.3143204742356
 31
0.0
  0
ARC
  5
31C
  8
0
 10
58.180191584801662
 20
94.804320474235595
 30
0.0
 40
8.0
 50
110.15731621557541
 51
119.9999999999999
  0
LINE
  5
31D
  8
0
 10
54.180191584801719
 20
101.7325237045111
 30
0.0
 11
54.180191584801719
 21
100.0109130859904
 31
0.0
  0
TEXT
  5
41D
  8
0
 62
     3
 10
0.0
 20
0.0
 30
0.0
 40
10.0
  1
BS1-16X25-H
  7
STANDARD1
  0
ENDSEC
  0
EOF
