  0
SECTION
  2
HEADER
  9
$ACADVER
  1
AC1009
  9
$INSBASE
 10
0.0
 20
0.0
 30
0.0
  9
$EXTMIN
 10
0.0
 20
-2.960436562073669
 30
0.0
  9
$EXTMAX
 10
319.777537398368
 20
227.30050959232611
 30
0.0
  9
$LIMMIN
 10
0.0
 20
0.0
  9
$LIMMAX
 10
375.0
 20
270.0
  9
$ORTHOMODE
 70
     1
  9
$REGENMODE
 70
     1
  9
$FILLMODE
 70
     1
  9
$QTEXTMODE
 70
     0
  9
$MIRRTEXT
 70
     0
  9
$DRAGMODE
 70
     2
  9
$LTSCALE
 40
10.0
  9
$OSMODE
 70
  3071
  9
$ATTMODE
 70
     1
  9
$TEXTSIZE
 40
0.2
  9
$TRACEWID
 40
0.05
  9
$TEXTSTYLE
  7
STANDARD
  9
$CLAYER
  8
0
  9
$CELTYPE
  6
BYLAYER
  9
$CECOLOR
 62
   256
  9
$DIMSCALE
 40
1.0
  9
$DIMASZ
 40
3.0
  9
$DIMEXO
 40
2.0
  9
$DIMDLI
 40
0.38
  9
$DIMRND
 40
0.0
  9
$DIMDLE
 40
0.0
  9
$DIMEXE
 40
2.0
  9
$DIMTP
 40
0.0
  9
$DIMTM
 40
0.0
  9
$DIMTXT
 40
3.2000000000000002
  9
$DIMCEN
 40
0.0
  9
$DIMTSZ
 40
0.0
  9
$DIMTOL
 70
     0
  9
$DIMLIM
 70
     0
  9
$DIMTIH
 70
     0
  9
$DIMTOH
 70
     0
  9
$DIMSE1
 70
     0
  9
$DIMSE2
 70
     0
  9
$DIMTAD
 70
     1
  9
$DIMZIN
 70
     0
  9
$DIMBLK
  1

  9
$DIMASO
 70
     1
  9
$DIMSHO
 70
     0
  9
$DIMPOST
  1

  9
$DIMAPOST
  1

  9
$DIMALT
 70
     0
  9
$DIMALTD
 70
     2
  9
$DIMALTF
 40
25.399999999999999
  9
$DIMLFAC
 40
1.0
  9
$DIMTOFL
 70
     1
  9
$DIMTVP
 40
1.6000000000000001
  9
$DIMTIX
 70
     1
  9
$DIMSOXD
 70
     0
  9
$DIMSAH
 70
     0
  9
$DIMBLK1
  1

  9
$DIMBLK2
  1

  9
$DIMSTYLE
  2
STANDARD
  9
$DIMCLRD
 70
     0
  9
$DIMCLRE
 70
     0
  9
$DIMCLRT
 70
     0
  9
$DIMTFAC
 40
1.0
  9
$DIMGAP
 40
0.09
  9
$LUNITS
 70
     2
  9
$LUPREC
 70
     4
  9
$SKETCHINC
 40
0.1
  9
$FILLETRAD
 40
0.0
  9
$AUNITS
 70
     0
  9
$AUPREC
 70
     4
  9
$MENU
  1
E:\r13\win\SUPPORT\ACAD
  9
$ELEVATION
 40
0.0
  9
$PELEVATION
 40
0.0
  9
$THICKNESS
 40
0.0
  9
$LIMCHECK
 70
     0
  9
$BLIPMODE
 70
     0
  9
$CHAMFERA
 40
0.0
  9
$CHAMFERB
 40
0.0
  9
$SKPOLY
 70
     0
  9
$TDCREATE
 40
2449839.7964699082
  9
$TDUPDATE
 40
2456598.4639717829
  9
$TDINDWG
 40
0.0001702083
  9
$TDUSRTIMER
 40
0.0001702083
  9
$USRTIMER
 70
     1
  9
$ANGBASE
 50
0.0
  9
$ANGDIR
 70
     0
  9
$PDMODE
 70
     0
  9
$PDSIZE
 40
0.0
  9
$PLINEWID
 40
0.0
  9
$COORDS
 70
     1
  9
$SPLFRAME
 70
     0
  9
$SPLINETYPE
 70
     6
  9
$SPLINESEGS
 70
     8
  9
$ATTDIA
 70
     0
  9
$ATTREQ
 70
     1
  9
$HANDLING
 70
     1
  9
$HANDSEED
  5
2B1
  9
$SURFTAB1
 70
     6
  9
$SURFTAB2
 70
     6
  9
$SURFTYPE
 70
     6
  9
$SURFU
 70
     6
  9
$SURFV
 70
     6
  9
$UCSNAME
  2

  9
$UCSORG
 10
0.0
 20
0.0
 30
0.0
  9
$UCSXDIR
 10
1.0
 20
0.0
 30
0.0
  9
$UCSYDIR
 10
0.0
 20
1.0
 30
0.0
  9
$PUCSNAME
  2

  9
$PUCSORG
 10
0.0
 20
0.0
 30
0.0
  9
$PUCSXDIR
 10
1.0
 20
0.0
 30
0.0
  9
$PUCSYDIR
 10
0.0
 20
1.0
 30
0.0
  9
$USERI1
 70
     0
  9
$USERI2
 70
     1
  9
$USERI3
 70
     1
  9
$USERI4
 70
     0
  9
$USERI5
 70
     0
  9
$USERR1
 40
0.0
  9
$USERR2
 40
0.0
  9
$USERR3
 40
0.0
  9
$USERR4
 40
0.0
  9
$USERR5
 40
0.0
  9
$WORLDVIEW
 70
     1
  9
$SHADEDGE
 70
     3
  9
$SHADEDIF
 70
    70
  9
$TILEMODE
 70
     1
  9
$MAXACTVP
 70
    16
  9
$PLIMCHECK
 70
     0
  9
$PEXTMIN
 10
1.0000000000000000E+020
 20
1.0000000000000000E+020
 30
1.0000000000000000E+020
  9
$PEXTMAX
 10
-1.0000000000000000E+020
 20
-1.0000000000000000E+020
 30
-1.0000000000000000E+020
  9
$PLIMMIN
 10
0.0
 20
0.0
  9
$PLIMMAX
 10
12.0
 20
9.0
  9
$UNITMODE
 70
     0
  9
$VISRETAIN
 70
     0
  9
$PLINEGEN
 70
     0
  9
$PSLTSCALE
 70
     0
  0
ENDSEC
  0
SECTION
  2
TABLES
  0
TABLE
  2
VPORT
 70
     1
  0
VPORT
  2
*ACTIVE
 70
     0
 10
0.0
 20
0.0
 11
1.0
 21
1.0
 12
195.0581083320873
 22
133.5127261426681
 13
0.0
 23
0.0
 14
10.0
 24
10.0
 15
10.0
 25
10.0
 16
0.0
 26
0.0
 36
1.0
 17
0.0
 27
0.0
 37
0.0
 40
275.42274993631997
 41
1.831871345029239
 42
50.0
 43
0.0
 44
0.0
 50
0.0
 51
0.0
 71
     0
 72
   500
 73
     1
 74
     0
 75
     0
 76
     0
 77
     0
 78
     2
  0
ENDTAB
  0
TABLE
  2
LTYPE
 70
     4
  0
LTYPE
  2
CONTINUOUS
 70
     0
  3
Solid Line
 72
    65
 73
     0
 40
0.0
  0
LTYPE
  2
CENTER
 70
     0
  3
____ _ ____ _ ____ _ ____ _ ____ _ ____ _ ____
 72
    65
 73
     4
 40
2.0
 49
1.25
 49
-0.25
 49
0.25
 49
-0.25
  0
LTYPE
  2
HIDDEN
 70
     0
  3
_ _ _ _ _ _ _ _ _ _ _ _ _ _ _ _ _ _ _ _ _ _ _
 72
    65
 73
     2
 40
0.375
 49
0.25
 49
-0.125
  0
LTYPE
  2
PHANTOM2
 70
     0
  3
___ _ _ ___ _ _ ___ _ _ ___ _ _
 72
    65
 73
     6
 40
1.25
 49
0.625
 49
-0.125
 49
0.125
 49
-0.125
 49
0.125
 49
-0.125
  0
ENDTAB
  0
TABLE
  2
LAYER
 70
     3
  0
LAYER
  2
0
 70
     0
 62
     7
  6
CONTINUOUS
  0
LAYER
  2
1
 70
     0
 62
     1
  6
CENTER
  0
LAYER
  2
2
 70
     0
 62
     2
  6
HIDDEN
  0
ENDTAB
  0
TABLE
  2
STYLE
 70
     2
  0
STYLE
  2
STANDARD
 70
     0
 40
0.0
 41
1.0
 50
0.0
 71
     0
 42
0.2
  3
TXT
  4
BIGFONT
  0
STYLE
  2
STANDARD1
 70
     0
 40
0.0
 41
1.0
 50
0.0
 71
     0
 42
3.0
  3
txt
  4

  0
ENDTAB
  0
TABLE
  2
VIEW
 70
     1
  0
VIEW
  2
ALL
 70
     0
 40
175.0
 10
143.23529411764699
 20
87.5
 41
0.0
 11
0.0
 21
0.0
 31
1.0
 12
0.0
 22
0.0
 32
0.0
 42
0.0
 43
0.0
 44
0.0
 50
0.0
 71
     0
  0
ENDTAB
  0
TABLE
  2
UCS
 70
     0
  0
ENDTAB
  0
TABLE
  2
APPID
 70
     3
  0
APPID
  2
ACAD
 70
     0
  0
APPID
  2
ACAD_MLEADERVER
 70
     0
  0
APPID
  2
ACAD_NAV_VCDISPLAY
 70
     0
  0
ENDTAB
  0
TABLE
  2
DIMSTYLE
 70
     1
  0
DIMSTYLE
  2
STANDARD
 70
     0
  3

  4

  5

  6

  7

 40
1.0
 41
0.18
 42
0.0625
 43
0.38
 44
0.18
 45
0.0
 46
0.0
 47
0.0
 48
0.0
140
0.18
141
0.09
142
0.0
143
25.399999999999999
144
1.0
145
0.0
146
1.0
147
0.09
 71
     0
 72
     0
 73
     1
 74
     1
 75
     0
 76
     0
 77
     0
 78
     0
170
     0
171
     2
172
     0
173
     0
174
     0
175
     0
176
     0
177
     0
178
     0
  0
ENDTAB
  0
ENDSEC
  0
SECTION
  2
BLOCKS
  0
BLOCK
  8
0
  2
$MODEL_SPACE
 70
     0
 10
0.0
 20
0.0
 30
0.0
  3
$MODEL_SPACE
  1

  0
ENDBLK
  5
132
  8
0
  0
BLOCK
 67
     1
  8
0
  2
$PAPER_SPACE
 70
     0
 10
0.0
 20
0.0
 30
0.0
  3
$PAPER_SPACE
  1

  0
ENDBLK
  5
130
 67
     1
  8
0
  0
ENDSEC
  0
SECTION
  2
ENTITIES
  0
ARC
  5
35
  8
0
 10
314.77753739836788
 20
125.740212634076
 30
0.0
 40
2.0
 50
270.0
 51
0.0
  0
ARC
  5
36
  8
0
 10
318.77753739836788
 20
136.18022947581321
 30
0.0
 40
2.0
 50
165.13045365209189
 51
179.99999999999989
  0
ARC
  5
37
  8
0
 10
291.77753739836788
 20
136.18022947581269
 30
0.0
 40
2.0
 50
0.0
 51
14.869546347908081
  0
LINE
  5
38
  8
0
 10
314.27753739836788
 20
146.24021263407599
 30
0.0
 11
314.27753739836788
 21
138.74021263407599
 31
0.0
  0
ARC
  5
39
  8
0
 10
315.777537398368
 20
146.24021263407599
 30
0.0
 40
1.5
 50
90.0
 51
180.0
  0
LINE
  5
3A
  8
0
 10
318.27753739836788
 20
147.7402126340761
 30
0.0
 11
315.777537398368
 21
147.7402126340761
 31
0.0
  0
LINE
  5
3B
  8
0
 10
319.777537398368
 20
126.240212634076
 30
0.0
 11
319.777537398368
 21
146.24021263407599
 31
0.0
  0
ARC
  5
3C
  8
0
 10
318.27753739836788
 20
146.24021263407599
 30
0.0
 40
1.5
 50
0.0000000000000509
 51
90.0
  0
LINE
  5
3D
  8
0
 10
319.777537398368
 20
126.240212634076
 30
0.0
 11
317.52753739836788
 21
126.240212634076
 31
0.0
  0
LINE
  5
3E
  8
0
 10
316.84451217210523
 20
136.69346769986899
 30
0.0
 11
319.06458944732321
 21
145.05501439710321
 31
0.0
  0
LINE
  5
3F
  8
0
 10
293.71056262463071
 20
136.69346769986859
 30
0.0
 11
291.49048534941272
 21
145.05501439710321
 31
0.0
  0
ARC
  5
40
  8
0
 10
292.27753739836788
 20
146.24021263407599
 30
0.0
 40
1.5
 50
90.0
 51
179.99999999999989
  0
ARC
  5
41
  8
0
 10
294.77753739836788
 20
146.24021263407599
 30
0.0
 40
1.5
 50
0.0
 51
90.0
  0
LINE
  5
42
  8
0
 10
296.27753739836788
 20
146.24021263407599
 30
0.0
 11
296.27753739836788
 21
138.74021263407599
 31
0.0
  0
LINE
  5
43
  8
0
 10
292.27753739836788
 20
147.7402126340761
 30
0.0
 11
294.77753739836788
 21
147.7402126340761
 31
0.0
  0
LINE
  5
44
  8
0
 10
290.777537398368
 20
126.240212634076
 30
0.0
 11
290.777537398368
 21
146.24021263407599
 31
0.0
  0
LINE
  5
45
  8
0
 10
293.77753739836788
 20
136.18022947581269
 30
0.0
 11
293.77753739836788
 21
125.740212634076
 31
0.0
  0
LINE
  5
46
  8
0
 10
314.27753739836788
 20
138.74021263407599
 30
0.0
 11
296.27753739836788
 21
138.74021263407599
 31
0.0
  0
LINE
  5
47
  8
0
 10
316.77753739836788
 20
125.740212634076
 30
0.0
 11
316.77753739836788
 21
136.18022947581321
 31
0.0
  0
LINE
  5
48
  8
0
 10
295.02753739836788
 20
123.7402126340761
 30
0.0
 11
315.52753739836788
 21
123.7402126340761
 31
0.0
  0
LINE
  5
49
  8
1
 10
190.59583843404809
 20
152.74021263407579
 30
0.0
 11
190.59583843404809
 21
121.2402126340759
 31
0.0
  0
LINE
  5
4A
  8
0
 10
150.59583843404809
 20
198.62003098234251
 30
0.0
 11
150.59583843404809
 21
216.98098820230959
 31
0.0
  0
LINE
  5
4B
  8
0
 10
152.9088635634441
 20
219.47398647703079
 30
0.0
 11
190.59583843404809
 21
222.30050959232611
 31
0.0
  0
LINE
  5
4C
  8
0
 10
190.59583843404809
 20
193.30050959232599
 30
0.0
 11
152.9088635634441
 21
196.1270327076214
 31
0.0
  0
ARC
  5
4D
  8
0
 10
153.09583843404809
 20
216.98098820230959
 30
0.0
 40
2.5
 50
94.289153328819026
 51
180.0
  0
ARC
  5
4E
  8
0
 10
153.09583843404809
 20
198.62003098234251
 30
0.0
 40
2.5
 50
180.0
 51
265.71084667118112
  0
LINE
  5
4F
  8
0
 10
187.29583843404811
 20
203.6005095923262
 30
0.0
 11
193.89583843404799
 21
203.6005095923262
 31
0.0
  0
LINE
  5
50
  8
0
 10
193.89583843404799
 20
212.00050959232601
 30
0.0
 11
187.29583843404811
 21
212.00050959232601
 31
0.0
  0
ARC
  5
51
  8
0
 10
187.29583843404811
 20
207.80050959232611
 30
0.0
 40
4.1999999999999309
 50
90.0
 51
270.0
  0
ARC
  5
52
  8
0
 10
193.89583843404799
 20
207.80050959232611
 30
0.0
 40
4.1999999999999309
 50
270.0
 51
90.0
  0
LINE
  5
53
  8
0
 10
225.09583843404809
 20
216.80050959232611
 30
0.0
 11
156.09583843404809
 21
216.80050959232611
 31
0.0
  0
LINE
  5
54
  8
0
 10
225.09583843404809
 20
198.80050959232611
 30
0.0
 11
156.09583843404809
 21
198.80050959232611
 31
0.0
  0
ARC
  5
55
  8
0
 10
228.09583843404809
 20
198.62003098234251
 30
0.0
 40
2.5
 50
274.28915332881888
 51
0.0
  0
ARC
  5
56
  8
0
 10
228.09583843404809
 20
216.98098820230959
 30
0.0
 40
2.5
 50
0.0
 51
85.710846671180974
  0
LINE
  5
57
  8
0
 10
190.59583843404809
 20
126.240212634076
 30
0.0
 11
190.59583843404809
 21
147.7402126340761
 31
0.0
  0
ARC
  5
58
  8
0
 10
156.09583843404809
 20
133.2402126340761
 30
0.0
 40
5.5
 50
108.817178936535
 51
180.0
  0
ARC
  5
59
  8
2
 10
156.09583843404809
 20
133.2402126340761
 30
0.0
 40
5.5
 50
90.0
 51
108.817178936535
  0
ARC
  5
5A
  8
2
 10
225.09583843404809
 20
133.2402126340761
 30
0.0
 40
5.5
 50
71.182821063464971
 51
90.0
  0
LINE
  5
5B
  8
0
 10
181.59583843404809
 20
147.7402126340761
 30
0.0
 11
154.3218161089944
 21
138.4462518953774
 31
0.0
  0
LINE
  5
5C
  8
0
 10
199.59583843404809
 20
147.7402126340761
 30
0.0
 11
226.86986075910181
 21
138.4462518953774
 31
0.0
  0
LINE
  5
5D
  8
0
 10
181.59583843404809
 20
147.7402126340761
 30
0.0
 11
199.59583843404809
 21
147.7402126340761
 31
0.0
  0
ARC
  5
5E
  8
0
 10
225.09583843404809
 20
133.2402126340761
 30
0.0
 40
5.5
 50
0.0
 51
71.182821063464971
  0
LINE
  5
5F
  8
2
 10
156.09583843404809
 20
138.74021263407599
 30
0.0
 11
225.09583843404809
 21
138.74021263407599
 31
0.0
  0
ARC
  5
60
  8
0
 10
155.59583843404809
 20
131.74021263407599
 30
0.0
 40
8.0
 50
231.31781254651059
 51
308.68218745348952
  0
LINE
  5
61
  8
0
 10
150.59583843404809
 20
125.4952146356776
 30
0.0
 11
150.59583843404809
 21
133.2402126340761
 31
0.0
  0
LINE
  5
62
  8
0
 10
160.59583843404809
 20
125.4952146356776
 30
0.0
 11
160.59583843404809
 21
127.740212634076
 31
0.0
  0
LINE
  5
63
  8
0
 10
160.59583843404809
 20
127.740212634076
 30
0.0
 11
190.59583843404809
 21
126.240212634076
 31
0.0
  0
LINE
  5
64
  8
0
 10
220.59583843404809
 20
127.740212634076
 30
0.0
 11
190.59583843404809
 21
126.240212634076
 31
0.0
  0
LINE
  5
65
  8
0
 10
220.59583843404809
 20
125.4952146356776
 30
0.0
 11
220.59583843404809
 21
127.740212634076
 31
0.0
  0
LINE
  5
66
  8
0
 10
230.59583843404809
 20
125.4952146356776
 30
0.0
 11
230.59583843404809
 21
133.2402126340761
 31
0.0
  0
ARC
  5
67
  8
0
 10
225.59583843404809
 20
131.74021263407599
 30
0.0
 40
8.0
 50
231.31781254651059
 51
308.68218745348952
  0
LINE
  5
68
  8
0
 10
190.59583843404809
 20
193.30050959232599
 30
0.0
 11
228.28281330465211
 21
196.1270327076214
 31
0.0
  0
LINE
  5
69
  8
0
 10
228.28281330465211
 20
219.47398647703079
 30
0.0
 11
190.59583843404809
 21
222.30050959232611
 31
0.0
  0
LINE
  5
6A
  8
0
 10
230.59583843404809
 20
198.62003098234251
 30
0.0
 11
230.59583843404809
 21
216.98098820230959
 31
0.0
  0
LINE
  5
6B
  8
0
 10
230.59583843404809
 20
53.079998554241563
 30
0.0
 11
230.59583843404809
 21
71.440955774208646
 31
0.0
  0
LINE
  5
6C
  8
0
 10
228.28281330465211
 20
73.933954048929763
 30
0.0
 11
190.59583843404809
 21
76.760477164225108
 31
0.0
  0
LINE
  5
6D
  8
0
 10
190.59583843404809
 20
47.760477164225101
 30
0.0
 11
228.28281330465211
 21
50.587000279520453
 31
0.0
  0
ARC
  5
6E
  8
0
 10
228.09583843404809
 20
71.440955774208646
 30
0.0
 40
2.5
 50
0.0
 51
85.710846671180974
  0
ARC
  5
6F
  8
0
 10
228.09583843404809
 20
53.079998554241563
 30
0.0
 40
2.5
 50
274.28915332881888
 51
0.0
  0
ARC
  5
70
  8
0
 10
193.89583843404799
 20
62.260477164225101
 30
0.0
 40
4.1999999999999309
 50
270.0
 51
90.0
  0
ARC
  5
71
  8
0
 10
187.29583843404811
 20
62.260477164225101
 30
0.0
 40
4.1999999999999309
 50
90.0
 51
270.0
  0
LINE
  5
72
  8
0
 10
193.89583843404799
 20
66.46047716422504
 30
0.0
 11
187.29583843404811
 21
66.46047716422504
 31
0.0
  0
LINE
  5
73
  8
0
 10
187.29583843404811
 20
58.060477164225183
 30
0.0
 11
193.89583843404799
 21
58.060477164225183
 31
0.0
  0
ARC
  5
74
  8
0
 10
153.09583843404809
 20
53.079998554241563
 30
0.0
 40
2.5
 50
180.0
 51
265.71084667118112
  0
ARC
  5
75
  8
0
 10
153.09583843404809
 20
71.440955774208646
 30
0.0
 40
2.5
 50
94.289153328819026
 51
180.0
  0
LINE
  5
76
  8
0
 10
190.59583843404809
 20
47.760477164225101
 30
0.0
 11
152.9088635634441
 21
50.587000279520453
 31
0.0
  0
LINE
  5
77
  8
0
 10
152.9088635634441
 20
73.933954048929763
 30
0.0
 11
190.59583843404809
 21
76.760477164225108
 31
0.0
  0
LINE
  5
78
  8
0
 10
150.59583843404809
 20
53.079998554241563
 30
0.0
 11
150.59583843404809
 21
71.440955774208646
 31
0.0
  0
LINE
  5
79
  8
0
 10
220.59583843404809
 20
50.010477164225151
 30
0.0
 11
220.59583843404809
 21
55.260477164225101
 31
0.0
  0
LINE
  5
7A
  8
0
 10
181.5958384340482
 20
193.97550959232609
 30
0.0
 11
181.59583843404809
 21
198.80050959232611
 31
0.0
  0
LINE
  5
7B
  8
0
 10
199.59583843404809
 20
193.97550959232609
 30
0.0
 11
199.59583843404809
 21
198.80050959232611
 31
0.0
  0
LINE
  5
7C
  8
0
 10
181.5958384340482
 20
221.6255095923261
 30
0.0
 11
181.59583843404809
 21
216.80050959232611
 31
0.0
  0
LINE
  5
7D
  8
0
 10
199.59583843404809
 20
221.6255095923261
 30
0.0
 11
199.59583843404809
 21
216.80050959232611
 31
0.0
  0
LINE
  5
7E
  8
0
 10
190.59583843404809
 20
76.760477164225094
 30
0.0
 11
190.59583843404809
 21
66.46047716422504
 31
0.0
  0
LINE
  5
7F
  8
0
 10
190.59583843404809
 20
47.760477164225122
 30
0.0
 11
190.59583843404809
 21
58.060477164225183
 31
0.0
  0
LINE
  5
80
  8
1
 10
145.59583843404809
 20
62.260477164225101
 30
0.0
 11
235.59583843404809
 21
62.260477164225101
 31
0.0
  0
LINE
  5
81
  8
1
 10
190.59583843404809
 20
81.760477164225108
 30
0.0
 11
190.59583843404809
 21
42.760477164225101
 31
0.0
  0
LINE
  5
82
  8
0
 10
202.59583843404809
 20
64.260477164225108
 30
0.0
 11
202.59583843404809
 21
69.260477164225108
 31
0.0
  0
LINE
  5
83
  8
0
 10
202.59583843404809
 20
69.260477164225108
 30
0.0
 11
223.09583843404809
 21
69.260477164225108
 31
0.0
  0
LINE
  5
84
  8
0
 10
223.09583843404809
 20
69.260477164225108
 30
0.0
 11
223.09583843404809
 21
64.260477164225108
 31
0.0
  0
LINE
  5
85
  8
0
 10
223.09583843404809
 20
64.260477164225108
 30
0.0
 11
202.59583843404809
 21
64.260477164225108
 31
0.0
  0
LINE
  5
86
  8
0
 10
220.59583843404809
 20
69.260477164225108
 30
0.0
 11
220.59583843404809
 21
74.510477164225065
 31
0.0
  0
LINE
  5
87
  8
0
 10
223.09583843404809
 20
60.260477164225101
 30
0.0
 11
202.59583843404809
 21
60.260477164225101
 31
0.0
  0
LINE
  5
88
  8
0
 10
223.09583843404809
 20
55.260477164225101
 30
0.0
 11
223.09583843404809
 21
60.260477164225101
 31
0.0
  0
LINE
  5
89
  8
0
 10
202.59583843404809
 20
55.260477164225101
 30
0.0
 11
223.09583843404809
 21
55.260477164225101
 31
0.0
  0
LINE
  5
8A
  8
0
 10
202.59583843404809
 20
60.260477164225101
 30
0.0
 11
202.59583843404809
 21
55.260477164225101
 31
0.0
  0
LINE
  5
8B
  8
0
 10
220.59583843404809
 20
60.260477164225101
 30
0.0
 11
220.59583843404809
 21
64.260477164225122
 31
0.0
  0
LINE
  5
8C
  8
0
 10
160.59583843404809
 20
60.260477164225101
 30
0.0
 11
160.59583843404809
 21
64.260477164225122
 31
0.0
  0
LINE
  5
8D
  8
0
 10
178.59583843404809
 20
60.260477164225101
 30
0.0
 11
178.59583843404809
 21
55.260477164225101
 31
0.0
  0
LINE
  5
8E
  8
0
 10
178.59583843404809
 20
55.260477164225101
 30
0.0
 11
158.09583843404809
 21
55.260477164225101
 31
0.0
  0
LINE
  5
8F
  8
0
 10
158.09583843404809
 20
55.260477164225101
 30
0.0
 11
158.09583843404809
 21
60.260477164225101
 31
0.0
  0
LINE
  5
90
  8
0
 10
158.09583843404809
 20
60.260477164225101
 30
0.0
 11
178.59583843404809
 21
60.260477164225101
 31
0.0
  0
LINE
  5
91
  8
0
 10
160.59583843404809
 20
69.260477164225108
 30
0.0
 11
160.59583843404809
 21
74.510477164225065
 31
0.0
  0
LINE
  5
92
  8
0
 10
158.09583843404809
 20
64.260477164225108
 30
0.0
 11
178.59583843404809
 21
64.260477164225108
 31
0.0
  0
LINE
  5
93
  8
0
 10
158.09583843404809
 20
69.260477164225108
 30
0.0
 11
158.09583843404809
 21
64.260477164225108
 31
0.0
  0
LINE
  5
94
  8
0
 10
178.59583843404809
 20
69.260477164225108
 30
0.0
 11
158.09583843404809
 21
69.260477164225108
 31
0.0
  0
LINE
  5
95
  8
0
 10
178.59583843404809
 20
64.260477164225108
 30
0.0
 11
178.59583843404809
 21
69.260477164225108
 31
0.0
  0
LINE
  5
96
  8
0
 10
160.59583843404809
 20
50.010477164225151
 30
0.0
 11
160.59583843404809
 21
55.260477164225101
 31
0.0
  0
LINE
  5
97
  8
2
 10
223.09583843404809
 20
133.74021263407599
 30
0.0
 11
202.59583843404809
 21
133.74021263407599
 31
0.0
  0
LINE
  5
98
  8
2
 10
202.59583843404809
 20
126.840212634076
 30
0.0
 11
202.59583843404809
 21
133.74021263407599
 31
0.0
  0
LINE
  5
99
  8
2
 10
223.09583843404809
 20
133.74021263407599
 30
0.0
 11
223.09583843404809
 21
124.14087055729109
 31
0.0
  0
LINE
  5
9A
  8
2
 10
158.09583843404809
 20
133.74021263407599
 30
0.0
 11
158.09583843404809
 21
124.14087055729109
 31
0.0
  0
LINE
  5
9B
  8
2
 10
178.59583843404809
 20
126.840212634076
 30
0.0
 11
178.59583843404809
 21
133.74021263407599
 31
0.0
  0
LINE
  5
9C
  8
2
 10
158.09583843404809
 20
133.74021263407599
 30
0.0
 11
178.59583843404809
 21
133.74021263407599
 31
0.0
  0
LINE
  5
9D
  8
2
 10
183.0958384340482
 20
138.74021263407599
 30
0.0
 11
183.0958384340482
 21
126.615212634076
 31
0.0
  0
LINE
  5
9E
  8
2
 10
198.09583843404801
 20
138.7402126340761
 30
0.0
 11
198.09583843404801
 21
126.615212634076
 31
0.0
  0
LINE
  5
9F
  8
2
 10
160.59583843404809
 20
195.55050959232611
 30
0.0
 11
160.59583843404809
 21
220.05050959232599
 31
0.0
  0
LINE
  5
A0
  8
2
 10
220.59583843404809
 20
195.55050959232611
 30
0.0
 11
220.59583843404809
 21
220.05050959232599
 31
0.0
  0
LINE
  5
A1
  8
1
 10
190.59583843404809
 20
227.30050959232611
 30
0.0
 11
190.59583843404809
 21
188.30050959232611
 31
0.0
  0
LINE
  5
A2
  8
1
 10
145.59583843404809
 20
207.80050959232611
 30
0.0
 11
235.59583843404809
 21
207.80050959232611
 31
0.0
  0
ARC
  5
A3
  8
0
 10
315.52753739836788
 20
125.740212634076
 30
0.0
 40
2.0
 50
270.0
 51
0.0
  0
LINE
  5
A4
  8
0
 10
317.52753739836788
 20
125.740212634076
 30
0.0
 11
317.52753739836788
 21
127.7402126340761
 31
0.0
  0
LINE
  5
A5
  8
0
 10
317.52753739836788
 20
127.7402126340761
 30
0.0
 11
319.77753739836788
 21
126.240212634076
 31
0.0
  0
LINE
  5
A6
  8
0
 10
293.02753739836788
 20
127.7402126340761
 30
0.0
 11
290.77753739836788
 21
126.240212634076
 31
0.0
  0
LINE
  5
A7
  8
0
 10
293.02753739836788
 20
125.740212634076
 30
0.0
 11
293.02753739836788
 21
127.7402126340761
 31
0.0
  0
ARC
  5
A8
  8
0
 10
295.02753739836788
 20
125.740212634076
 30
0.0
 40
2.0
 50
180.0
 51
270.00000000000011
  0
LINE
  5
A9
  8
0
 10
290.77753739836783
 20
126.240212634076
 30
0.0
 11
293.02753739836788
 21
126.240212634076
 31
0.0
  0
ARC
  5
AA
  8
0
 10
295.77753739836788
 20
125.740212634076
 30
0.0
 40
2.0
 50
180.0
 51
270.00000000000011
  0
LINE
  5
AB
  8
1
 10
305.27753739836788
 20
118.7402126340761
 30
0.0
 11
305.27753739836788
 21
143.7402126340761
 31
0.0
  0
LINE
  5
AC
  8
1
 10
76.359279107711359
 20
118.7402126340761
 30
0.0
 11
76.359279107711359
 21
143.7402126340761
 31
0.0
  0
ARC
  5
AD
  8
0
 10
85.859279107711373
 20
125.740212634076
 30
0.0
 40
2.0
 50
270.0
 51
0.0
  0
LINE
  5
AE
  8
0
 10
90.859279107711373
 20
126.240212634076
 30
0.0
 11
88.609279107711359
 21
126.240212634076
 31
0.0
  0
ARC
  5
AF
  8
0
 10
86.609279107711345
 20
125.740212634076
 30
0.0
 40
2.0
 50
270.0
 51
0.0
  0
LINE
  5
B0
  8
0
 10
88.609279107711359
 20
125.740212634076
 30
0.0
 11
88.609279107711359
 21
127.7402126340761
 31
0.0
  0
LINE
  5
B1
  8
0
 10
88.609279107711359
 20
127.7402126340761
 30
0.0
 11
90.859279107711359
 21
126.240212634076
 31
0.0
  0
LINE
  5
B2
  8
0
 10
64.109279107711345
 20
127.7402126340761
 30
0.0
 11
61.859279107711359
 21
126.240212634076
 31
0.0
  0
LINE
  5
B3
  8
0
 10
64.109279107711345
 20
125.740212634076
 30
0.0
 11
64.109279107711345
 21
127.7402126340761
 31
0.0
  0
ARC
  5
B4
  8
0
 10
66.109279107711359
 20
125.740212634076
 30
0.0
 40
2.0
 50
180.0
 51
270.00000000000011
  0
LINE
  5
B5
  8
0
 10
86.609279107711345
 20
123.7402126340761
 30
0.0
 11
66.109279107711359
 21
123.7402126340761
 31
0.0
  0
LINE
  5
B6
  8
0
 10
64.85927910771133
 20
125.740212634076
 30
0.0
 11
64.85927910771133
 21
136.18022947581321
 31
0.0
  0
LINE
  5
B7
  8
0
 10
67.35927910771133
 20
138.74021263407599
 30
0.0
 11
85.359279107711345
 21
138.74021263407599
 31
0.0
  0
LINE
  5
B8
  8
0
 10
87.859279107711345
 20
136.18022947581269
 30
0.0
 11
87.859279107711345
 21
125.740212634076
 31
0.0
  0
LINE
  5
B9
  8
0
 10
90.85927910771133
 20
126.240212634076
 30
0.0
 11
90.85927910771133
 21
146.24021263407599
 31
0.0
  0
LINE
  5
BA
  8
0
 10
89.359279107711316
 20
147.7402126340761
 30
0.0
 11
86.859279107711316
 21
147.7402126340761
 31
0.0
  0
LINE
  5
BB
  8
0
 10
85.359279107711345
 20
146.24021263407599
 30
0.0
 11
85.359279107711345
 21
138.74021263407599
 31
0.0
  0
ARC
  5
BC
  8
0
 10
86.859279107711316
 20
146.24021263407599
 30
0.0
 40
1.5
 50
90.000000000000028
 51
180.0
  0
ARC
  5
BD
  8
0
 10
89.359279107711316
 20
146.24021263407599
 30
0.0
 40
1.5
 50
0.0000000000000763
 51
90.000000000000028
  0
LINE
  5
BE
  8
0
 10
87.926253881448545
 20
136.69346769986859
 30
0.0
 11
90.146331156666605
 21
145.05501439710321
 31
0.0
  0
LINE
  5
BF
  8
0
 10
64.792304333974101
 20
136.69346769986899
 30
0.0
 11
62.572227058756049
 21
145.05501439710321
 31
0.0
  0
LINE
  5
C0
  8
0
 10
61.85927910771133
 20
126.240212634076
 30
0.0
 11
64.109279107711345
 21
126.240212634076
 31
0.0
  0
ARC
  5
C1
  8
0
 10
63.35927910771133
 20
146.24021263407599
 30
0.0
 40
1.5
 50
90.000000000000028
 51
180.0
  0
LINE
  5
C2
  8
0
 10
61.85927910771133
 20
126.240212634076
 30
0.0
 11
61.85927910771133
 21
146.24021263407599
 31
0.0
  0
LINE
  5
C3
  8
0
 10
63.35927910771133
 20
147.7402126340761
 30
0.0
 11
65.85927910771133
 21
147.7402126340761
 31
0.0
  0
ARC
  5
C4
  8
0
 10
65.85927910771133
 20
146.24021263407599
 30
0.0
 40
1.5
 50
0.0000000000000254
 51
90.000000000000028
  0
LINE
  5
C5
  8
0
 10
67.35927910771133
 20
146.24021263407599
 30
0.0
 11
67.35927910771133
 21
138.74021263407599
 31
0.0
  0
ARC
  5
C6
  8
0
 10
89.85927910771133
 20
136.18022947581269
 30
0.0
 40
2.0
 50
165.13045365209189
 51
180.0
  0
ARC
  5
C7
  8
0
 10
62.85927910771133
 20
136.18022947581321
 30
0.0
 40
2.0
 50
0.0000000000000763
 51
14.8695463479081
  0
ARC
  5
C8
  8
0
 10
66.85927910771133
 20
125.740212634076
 30
0.0
 40
2.0
 50
180.0
 51
270.00000000000011
  0
LINE
  5
C9
  8
0
 10
295.77753739836788
 20
125.4952146356778
 30
0.0
 11
314.77753739836788
 21
125.4952146356778
 31
0.0
  0
LINE
  5
CA
  8
0
 10
85.859279107711416
 20
125.4952146356778
 30
0.0
 11
66.85927910771133
 21
125.4952146356778
 31
0.0
  0
TEXT
  5
222
  8
0
 62
     3
 10
0.0
 20
0.0
 30
0.0
 40
10.0
  1
BRB80
  7
STANDARD1
  0
ENDSEC
  0
EOF
