  0
SECTION
  2
HEADER
  9
$ACADVER
  1
AC1009
  9
$INSBASE
 10
0.0
 20
0.0
 30
0.0
  9
$EXTMIN
 10
0.0
 20
-1.4802182810368341
 30
0.0
  9
$EXTMAX
 10
162.5
 20
112.5
 30
0.0
  9
$LIMMIN
 10
0.0
 20
0.0
  9
$LIMMAX
 10
385.0
 20
270.0
  9
$ORTHOMODE
 70
     1
  9
$REGENMODE
 70
     1
  9
$FILLMODE
 70
     1
  9
$QTEXTMODE
 70
     0
  9
$MIRRTEXT
 70
     0
  9
$DRAGMODE
 70
     2
  9
$LTSCALE
 40
5.0
  9
$OSMODE
 70
    37
  9
$ATTMODE
 70
     1
  9
$TEXTSIZE
 40
4.000000000000048
  9
$TRACEWID
 40
0.05
  9
$TEXTSTYLE
  7
STANDARD
  9
$CLAYER
  8
0
  9
$CELTYPE
  6
BYLAYER
  9
$CECOLOR
 62
   256
  9
$DIMSCALE
 40
1.0
  9
$DIMASZ
 40
3.0
  9
$DIMEXO
 40
2.0
  9
$DIMDLI
 40
0.38
  9
$DIMRND
 40
0.0
  9
$DIMDLE
 40
0.0
  9
$DIMEXE
 40
2.0
  9
$DIMTP
 40
0.0
  9
$DIMTM
 40
0.0
  9
$DIMTXT
 40
3.0
  9
$DIMCEN
 40
0.0
  9
$DIMTSZ
 40
0.0
  9
$DIMTOL
 70
     0
  9
$DIMLIM
 70
     0
  9
$DIMTIH
 70
     0
  9
$DIMTOH
 70
     0
  9
$DIMSE1
 70
     0
  9
$DIMSE2
 70
     0
  9
$DIMTAD
 70
     1
  9
$DIMZIN
 70
     0
  9
$DIMBLK
  1

  9
$DIMASO
 70
     0
  9
$DIMSHO
 70
     0
  9
$DIMPOST
  1

  9
$DIMAPOST
  1

  9
$DIMALT
 70
     0
  9
$DIMALTD
 70
     2
  9
$DIMALTF
 40
25.399999999999999
  9
$DIMLFAC
 40
1.0
  9
$DIMTOFL
 70
     1
  9
$DIMTVP
 40
1.6000000000000001
  9
$DIMTIX
 70
     1
  9
$DIMSOXD
 70
     0
  9
$DIMSAH
 70
     0
  9
$DIMBLK1
  1

  9
$DIMBLK2
  1

  9
$DIMSTYLE
  2
STANDARD
  9
$DIMCLRD
 70
     0
  9
$DIMCLRE
 70
     0
  9
$DIMCLRT
 70
     0
  9
$DIMTFAC
 40
1.0
  9
$DIMGAP
 40
1.0
  9
$LUNITS
 70
     2
  9
$LUPREC
 70
     4
  9
$SKETCHINC
 40
0.1
  9
$FILLETRAD
 40
0.0
  9
$AUNITS
 70
     0
  9
$AUPREC
 70
     4
  9
$MENU
  1
E:\r13\win\SUPPORT\ACAD
  9
$ELEVATION
 40
0.0
  9
$PELEVATION
 40
0.0
  9
$THICKNESS
 40
0.0
  9
$LIMCHECK
 70
     0
  9
$BLIPMODE
 70
     0
  9
$CHAMFERA
 40
0.0
  9
$CHAMFERB
 40
0.0
  9
$SKPOLY
 70
     0
  9
$TDCREATE
 40
2450280.598206134
  9
$TDUPDATE
 40
2459200.3875685879
  9
$TDINDWG
 40
0.1129720486
  9
$TDUSRTIMER
 40
0.1129720486
  9
$USRTIMER
 70
     1
  9
$ANGBASE
 50
0.0
  9
$ANGDIR
 70
     0
  9
$PDMODE
 70
     0
  9
$PDSIZE
 40
0.0
  9
$PLINEWID
 40
0.0
  9
$COORDS
 70
     1
  9
$SPLFRAME
 70
     0
  9
$SPLINETYPE
 70
     6
  9
$SPLINESEGS
 70
     8
  9
$ATTDIA
 70
     0
  9
$ATTREQ
 70
     1
  9
$HANDLING
 70
     1
  9
$HANDSEED
  5
1223
  9
$SURFTAB1
 70
     6
  9
$SURFTAB2
 70
     6
  9
$SURFTYPE
 70
     6
  9
$SURFU
 70
     6
  9
$SURFV
 70
     6
  9
$UCSNAME
  2

  9
$UCSORG
 10
0.0
 20
0.0
 30
0.0
  9
$UCSXDIR
 10
1.0
 20
0.0
 30
0.0
  9
$UCSYDIR
 10
0.0
 20
1.0
 30
0.0
  9
$PUCSNAME
  2

  9
$PUCSORG
 10
0.0
 20
0.0
 30
0.0
  9
$PUCSXDIR
 10
1.0
 20
0.0
 30
0.0
  9
$PUCSYDIR
 10
0.0
 20
1.0
 30
0.0
  9
$USERI1
 70
     3
  9
$USERI2
 70
     1
  9
$USERI3
 70
     1
  9
$USERI4
 70
     0
  9
$USERI5
 70
     0
  9
$USERR1
 40
1.0
  9
$USERR2
 40
3.0
  9
$USERR3
 40
3.0
  9
$USERR4
 40
3.0
  9
$USERR5
 40
10.0
  9
$WORLDVIEW
 70
     1
  9
$SHADEDGE
 70
     3
  9
$SHADEDIF
 70
    70
  9
$TILEMODE
 70
     1
  9
$MAXACTVP
 70
    16
  9
$PLIMCHECK
 70
     0
  9
$PEXTMIN
 10
1.0000000000000000E+020
 20
1.0000000000000000E+020
 30
1.0000000000000000E+020
  9
$PEXTMAX
 10
-1.0000000000000000E+020
 20
-1.0000000000000000E+020
 30
-1.0000000000000000E+020
  9
$PLIMMIN
 10
0.0
 20
0.0
  9
$PLIMMAX
 10
12.0
 20
9.0
  9
$UNITMODE
 70
     0
  9
$VISRETAIN
 70
     0
  9
$PLINEGEN
 70
     0
  9
$PSLTSCALE
 70
     0
  0
ENDSEC
  0
SECTION
  2
TABLES
  0
TABLE
  2
VPORT
 70
     1
  0
VPORT
  2
*ACTIVE
 70
     0
 10
0.0
 20
0.0
 11
1.0
 21
1.0
 12
153.3622767018106
 22
55.50192228747386
 13
0.0
 23
0.0
 14
5.0
 24
5.0
 15
10.0
 25
10.0
 16
0.0
 26
0.0
 36
1.0
 17
0.0
 27
0.0
 37
0.0
 40
127.45359985523289
 41
2.415644171779141
 42
50.0
 43
0.0
 44
0.0
 50
0.0
 51
0.0
 71
     0
 72
   500
 73
     1
 74
     0
 75
     0
 76
     0
 77
     0
 78
     2
  0
ENDTAB
  0
TABLE
  2
LTYPE
 70
     4
  0
LTYPE
  2
CONTINUOUS
 70
     0
  3
Solid Line
 72
    65
 73
     0
 40
0.0
  0
LTYPE
  2
CENTER
 70
     0
  3
____ _ ____ _ ____ _ ____ _ ____ _ ____ _ ____
 72
    65
 73
     4
 40
2.0
 49
1.25
 49
-0.25
 49
0.25
 49
-0.25
  0
LTYPE
  2
HIDDEN
 70
     0
  3
_ _ _ _ _ _ _ _ _ _ _ _ _ _ _ _ _ _ _ _ _ _ _
 72
    65
 73
     2
 40
0.375
 49
0.25
 49
-0.125
  0
LTYPE
  2
PHANTOM2
 70
     0
  3
___ _ _ ___ _ _ ___ _ _ ___ _ _
 72
    65
 73
     6
 40
1.25
 49
0.625
 49
-0.125
 49
0.125
 49
-0.125
 49
0.125
 49
-0.125
  0
ENDTAB
  0
TABLE
  2
LAYER
 70
     4
  0
LAYER
  2
0
 70
     0
 62
     7
  6
CONTINUOUS
  0
LAYER
  2
1
 70
     0
 62
     1
  6
CENTER
  0
LAYER
  2
3
 70
     0
 62
     3
  6
CONTINUOUS
  0
LAYER
  2
2
 70
     0
 62
     2
  6
HIDDEN
  0
ENDTAB
  0
TABLE
  2
STYLE
 70
     2
  0
STYLE
  2
STANDARD
 70
     0
 40
0.0
 41
1.0
 50
0.0
 71
     0
 42
4.000000000000048
  3
SIMPLEX
  4
BIGFONT
  0
STYLE
  2
STANDARD1
 70
     0
 40
0.0
 41
1.0
 50
0.0
 71
     0
 42
3.0
  3
txt
  4

  0
ENDTAB
  0
TABLE
  2
VIEW
 70
     0
  0
ENDTAB
  0
TABLE
  2
UCS
 70
     0
  0
ENDTAB
  0
TABLE
  2
APPID
 70
     4
  0
APPID
  2
ACAD
 70
     0
  0
APPID
  2
ACAD_MLEADERVER
 70
     0
  0
APPID
  2
ACAD_NAV_VCDISPLAY
 70
     0
  0
APPID
  2
ACAD_EXEMPT_FROM_CAD_STANDARDS
 70
     0
  0
ENDTAB
  0
TABLE
  2
DIMSTYLE
 70
     2
  0
DIMSTYLE
  2
STANDARD
 70
     0
  3

  4

  5

  6

  7

 40
1.0
 41
0.18
 42
0.0625
 43
0.38
 44
0.18
 45
0.0
 46
0.0
 47
0.0
 48
0.0
140
0.18
141
0.09
142
0.0
143
25.399999999999999
144
1.0
145
0.0
146
1.0
147
0.09
 71
     0
 72
     0
 73
     1
 74
     1
 75
     0
 76
     0
 77
     0
 78
     0
170
     0
171
     2
172
     0
173
     0
174
     0
175
     0
176
     0
177
     0
178
     0
  0
DIMSTYLE
  2
ISO-25
 70
     0
  3

  4

  5

  6

  7

 40
1.0
 41
2.5
 42
0.625
 43
3.75
 44
1.25
 45
0.0
 46
0.0
 47
0.0
 48
0.0
140
2.5
141
2.5
142
0.0
143
0.0393700787
144
1.0
145
0.0
146
1.0
147
0.625
 71
     0
 72
     0
 73
     0
 74
     0
 75
     0
 76
     0
 77
     1
 78
     8
170
     0
171
     3
172
     1
173
     0
174
     0
175
     0
176
     0
177
     0
178
     0
  0
ENDTAB
  0
ENDSEC
  0
SECTION
  2
BLOCKS
  0
BLOCK
  8
0
  2
$MODEL_SPACE
 70
     0
 10
0.0
 20
0.0
 30
0.0
  3
$MODEL_SPACE
  1

  0
ENDBLK
  5
175
  8
0
  0
BLOCK
 67
     1
  8
0
  2
$PAPER_SPACE
 70
     0
 10
0.0
 20
0.0
 30
0.0
  3
$PAPER_SPACE
  1

  0
ENDBLK
  5
173
 67
     1
  8
0
  0
ENDSEC
  0
SECTION
  2
ENTITIES
  0
TEXT
  5
36B
  8
0
 62
     3
 10
0.0
 20
0.0
 30
0.0
 40
5.0
  1
BNDXN12AW-SUS
  7
STANDARD1
  0
LINE
  5
DE9
  8
0
 10
87.200000000000074
 20
90.800000000000011
 30
0.0
 11
92.800000000000097
 21
90.800000000000011
 31
0.0
  0
ARC
  5
DEA
  8
0
 10
59.000000000000092
 20
100.0
 30
0.0
 40
6.0000000000000151
 50
158.46275075362149
 51
201.5372492463749
  0
LINE
  5
DEB
  8
0
 10
87.200000000000074
 20
92.519494405736665
 30
0.0
 11
87.200000000000074
 21
90.800000000000011
 31
0.0
  0
LINE
  5
DEC
  8
0
 10
92.800000000000097
 20
92.10012462917436
 30
0.0
 11
92.800000000000097
 21
90.800000000000011
 31
0.0
  0
LINE
  5
DED
  8
0
 10
53.418925394802237
 20
97.797363795081935
 30
0.0
 11
54.800000000000068
 21
97.0
 31
0.0
  0
LINE
  5
DEE
  8
0
 10
54.800000000000068
 20
103.0
 30
0.0
 11
53.418925394802237
 21
102.20263620491799
 31
0.0
  0
LINE
  5
DEF
  8
0
 10
53.418925394802237
 20
97.797363795081935
 30
0.0
 11
53.418925394802237
 21
102.20263620491799
 31
0.0
  0
LINE
  5
DF0
  8
0
 10
59.00000000000005
 20
103.0
 30
0.0
 11
54.800000000000068
 21
103.0
 31
0.0
  0
LINE
  5
DF1
  8
0
 10
54.800000000000068
 20
97.0
 30
0.0
 11
59.00000000000005
 21
97.0
 31
0.0
  0
LINE
  5
DF2
  8
0
 10
54.800000000000068
 20
97.0
 30
0.0
 11
54.800000000000068
 21
103.0
 31
0.0
  0
ARC
  5
DF3
  8
2
 10
88.999999999999957
 20
100.0
 30
0.0
 40
17.500000000000099
 50
347.25641477780118
 51
12.743585222198771
  0
LINE
  5
DF4
  8
2
 10
105.7747771490977
 20
104.25
 30
0.0
 11
105.5812393987905
 21
104.25
 31
0.0
  0
LINE
  5
DF5
  8
2
 10
105.5812393987905
 20
95.750000000000014
 30
0.0
 11
105.7747771490977
 21
95.750000000000014
 31
0.0
  0
ARC
  5
DF6
  8
2
 10
105.5812393987905
 20
103.75
 30
0.0
 40
0.4999999999999883
 50
12.743585222198771
 51
90.0
  0
ARC
  5
DF7
  8
2
 10
105.5812393987905
 20
96.25
 30
0.0
 40
0.4999999999999912
 50
269.99999999999841
 51
347.25641477780118
  0
LINE
  5
DF8
  8
2
 10
105.5812393987905
 20
95.750000000000014
 30
0.0
 11
105.5812393987905
 21
104.25
 31
0.0
  0
LINE
  5
DF9
  8
0
 10
79.000000000000085
 20
106.0
 30
0.0
 11
72.007531519800523
 21
106.0
 31
0.0
  0
LINE
  5
DFA
  8
0
 10
60.500000000000078
 20
94.0
 30
0.0
 11
66.007531519800523
 21
94.000000000000014
 31
0.0
  0
LINE
  5
DFB
  8
0
 10
59.00000000000005
 20
95.5
 30
0.0
 11
60.500000000000078
 21
94.0
 31
0.0
  0
LINE
  5
DFC
  8
0
 10
60.500000000000078
 20
106.0
 30
0.0
 11
59.00000000000005
 21
104.5
 31
0.0
  0
LINE
  5
DFD
  8
0
 10
59.00000000000005
 20
95.5
 30
0.0
 11
59.00000000000005
 21
104.5
 31
0.0
  0
LINE
  5
DFE
  8
0
 10
60.500000000000078
 20
94.0
 30
0.0
 11
60.500000000000078
 21
106.0
 31
0.0
  0
LINE
  5
DFF
  8
0
 10
79.000000000000085
 20
107.0
 30
0.0
 11
87.000000000000085
 21
107.0
 31
0.0
  0
LINE
  5
E00
  8
0
 10
87.000000000000085
 20
93.0
 30
0.0
 11
79.000000000000085
 21
93.0
 31
0.0
  0
LINE
  5
E02
  8
0
 10
79.000000000000085
 20
107.0
 30
0.0
 11
79.000000000000085
 21
93.0
 31
0.0
  0
LINE
  5
E04
  8
0
 10
79.000000000000085
 20
100.0
 30
0.0
 11
86.769821698315326
 21
100.0
 31
0.0
  0
LINE
  5
E07
  8
0
 10
87.499923847578287
 20
92.197392366688661
 30
0.0
 11
87.000000000000085
 21
92.734499329020764
 31
0.0
  0
LINE
  5
E08
  8
0
 10
87.000000000000085
 20
92.734499329020764
 30
0.0
 11
87.000000000000085
 21
107.7
 31
0.0
  0
LINE
  5
E09
  8
0
 10
87.499923847578287
 20
108.2087262032186
 30
0.0
 11
87.000000000000085
 21
107.7
 31
0.0
  0
LINE
  5
E0A
  8
0
 10
93.100000000000065
 20
92.09461943915025
 30
0.0
 11
87.499923847578287
 21
92.197392366688661
 31
0.0
  0
LINE
  5
E0B
  8
0
 10
93.100000000000065
 20
92.09461943915025
 30
0.0
 11
93.100000000000065
 21
91.693524103937875
 31
0.0
  0
LINE
  5
E0C
  8
0
 10
87.499923847578287
 20
92.197392366688661
 30
0.0
 11
87.499923847578287
 21
108.2087262032186
 31
0.0
  0
LINE
  5
E0D
  8
0
 10
93.100000000000065
 20
91.693524103937875
 30
0.0
 11
101.3000000000001
 21
91.550392571526487
 31
0.0
  0
LINE
  5
E0E
  8
0
 10
101.3000000000001
 20
108.4496074284735
 30
0.0
 11
87.499923847578287
 21
108.2087262032186
 31
0.0
  0
ARC
  5
E0F
  8
2
 10
121.2
 20
100.0
 30
0.0
 40
15.99999999999994
 50
143.1301023541543
 51
164.59590630127431
  0
ARC
  5
E10
  8
2
 10
121.2000000000003
 20
100.0
 30
0.0
 40
16.000000000000149
 50
195.4040936987256
 51
216.86989764584109
  0
ARC
  5
E11
  8
2
 10
108.0000000000001
 20
109.89999999999991
 30
0.0
 40
0.4999999999999478
 50
323.13010235415442
 51
0.0
  0
ARC
  5
E12
  8
2
 10
108.0000000000001
 20
90.100000000000037
 30
0.0
 40
0.4999999999999467
 50
359.99999999999682
 51
36.869897645845647
  0
ARC
  5
E13
  8
0
 10
106.8000000000001
 20
110.5
 30
0.0
 40
1.9999999999999909
 50
31.788330617052491
 51
90.0
  0
ARC
  5
E14
  8
0
 10
106.8000000000001
 20
89.500000000000014
 30
0.0
 40
1.999999999999992
 50
269.99999999999841
 51
328.21166938294749
  0
LINE
  5
E15
  8
0
 10
108.5000000000001
 20
88.446434624714726
 30
0.0
 11
108.5000000000001
 21
111.5535653752852
 31
0.0
  0
LINE
  5
E16
  8
0
 10
101.3000000000001
 20
91.550392571526487
 30
0.0
 11
106.7538582242032
 21
87.5
 31
0.0
  0
LINE
  5
E17
  8
0
 10
106.7538582242032
 20
112.5
 30
0.0
 11
101.3000000000001
 21
108.4496074284735
 31
0.0
  0
LINE
  5
E18
  8
0
 10
101.3000000000001
 20
91.550392571526487
 30
0.0
 11
101.3000000000001
 21
108.4496074284735
 31
0.0
  0
LINE
  5
E19
  8
0
 10
106.8000000000001
 20
112.5
 30
0.0
 11
106.7538582242032
 21
112.5
 31
0.0
  0
LINE
  5
E1A
  8
0
 10
106.7538582242032
 20
87.5
 30
0.0
 11
106.8000000000001
 21
87.5
 31
0.0
  0
LINE
  5
E1B
  8
0
 10
106.7538582242032
 20
87.5
 30
0.0
 11
106.7538582242032
 21
112.5
 31
0.0
  0
CIRCLE
  5
E20
  8
0
 10
147.0
 20
50.0
 30
0.0
 40
4.25
  0
CIRCLE
  5
E21
  8
0
 10
147.0
 20
50.0
 30
0.0
 40
11.55356537528527
  0
CIRCLE
  5
E22
  8
0
 10
147.0
 20
50.0
 30
0.0
 40
12.5
  0
ARC
  5
E23
  8
0
 10
59.00000000000005
 20
50.0
 30
0.0
 40
6.0000000000000151
 50
158.46275075362149
 51
201.5372492463749
  0
LINE
  5
E24
  8
0
 10
53.418925394802208
 20
47.797363795081928
 30
0.0
 11
53.418925394802208
 21
52.202636204918058
 31
0.0
  0
LINE
  5
E25
  8
0
 10
53.418925394802208
 20
47.797363795081928
 30
0.0
 11
54.800000000000068
 21
47.0
 31
0.0
  0
LINE
  5
E26
  8
0
 10
54.800000000000068
 20
53.0
 30
0.0
 11
53.418925394802208
 21
52.202636204918058
 31
0.0
  0
LINE
  5
E27
  8
0
 10
54.800000000000068
 20
47.0
 30
0.0
 11
54.800000000000068
 21
53.0
 31
0.0
  0
LINE
  5
E28
  8
0
 10
59.00000000000005
 20
53.0
 30
0.0
 11
54.800000000000068
 21
53.0
 31
0.0
  0
LINE
  5
E29
  8
0
 10
54.800000000000068
 20
47.0
 30
0.0
 11
59.00000000000005
 21
47.0
 31
0.0
  0
LINE
  5
E2A
  8
0
 10
86.769821698315297
 20
41.917096231345162
 30
0.0
 11
87.000000000000057
 21
42.999999999999943
 31
0.0
  0
LINE
  5
E2B
  8
0
 10
87.000000000000057
 20
56.999999999999943
 30
0.0
 11
86.769821698315297
 21
58.08290376865471
 31
0.0
  0
ARC
  5
E2C
  8
2
 10
88.999999999999943
 20
49.999999999999943
 30
0.0
 40
17.500000000000099
 50
347.25641477780118
 51
12.743585222198771
  0
LINE
  5
E2D
  8
2
 10
105.7747771490977
 20
54.249999999999943
 30
0.0
 11
105.5812393987905
 21
54.249999999999943
 31
0.0
  0
LINE
  5
E2E
  8
2
 10
105.5812393987905
 20
45.749999999999943
 30
0.0
 11
105.7747771490977
 21
45.749999999999943
 31
0.0
  0
LINE
  5
E30
  8
2
 10
105.5812393987905
 20
45.749999999999943
 30
0.0
 11
105.5812393987905
 21
54.249999999999943
 31
0.0
  0
ARC
  5
E31
  8
2
 10
105.5812393987905
 20
53.749999999999943
 30
0.0
 40
0.4999999999999883
 50
12.743585222198771
 51
90.0
  0
ARC
  5
E32
  8
2
 10
105.5812393987905
 20
46.249999999999943
 30
0.0
 40
0.4999999999999912
 50
269.99999999999841
 51
347.25641477780118
  0
LINE
  5
E33
  8
0
 10
79.000000000000057
 20
56.0
 30
0.0
 11
72.007531519800423
 21
56.0
 31
0.0
  0
LINE
  5
E34
  8
0
 10
60.500000000000057
 20
44.0
 30
0.0
 11
66.007531519800409
 21
44.0
 31
0.0
  0
LINE
  5
E35
  8
0
 10
59.00000000000005
 20
45.499999999999993
 30
0.0
 11
59.00000000000005
 21
54.5
 31
0.0
  0
LINE
  5
E36
  8
0
 10
60.500000000000057
 20
44.0
 30
0.0
 11
60.500000000000057
 21
56.0
 31
0.0
  0
LINE
  5
E37
  8
0
 10
59.00000000000005
 20
45.499999999999993
 30
0.0
 11
60.500000000000057
 21
44.0
 31
0.0
  0
LINE
  5
E38
  8
0
 10
60.500000000000057
 20
56.0
 30
0.0
 11
59.00000000000005
 21
54.5
 31
0.0
  0
LINE
  5
E39
  8
0
 10
87.200000000000045
 20
52.549999999999947
 30
0.0
 11
87.200000000000045
 21
47.449999999999932
 31
0.0
  0
LINE
  5
E3A
  8
0
 10
92.800000000000054
 20
52.549999999999947
 30
0.0
 11
92.800000000000054
 21
47.449999999999932
 31
0.0
  0
LINE
  5
E3C
  8
0
 10
79.000000000000057
 20
41.917096231345219
 30
0.0
 11
86.769821698315297
 21
41.917096231345162
 31
0.0
  0
LINE
  5
E3D
  8
0
 10
79.000000000000057
 20
45.958548115672613
 30
0.0
 11
86.769821698315297
 21
45.958548115672563
 31
0.0
  0
LINE
  5
E43
  8
0
 10
79.000000000000057
 20
58.082903768654766
 30
0.0
 11
86.769821698315297
 21
58.08290376865471
 31
0.0
  0
LINE
  5
E44
  8
0
 10
79.000000000000057
 20
58.082903768654766
 30
0.0
 11
79.000000000000057
 21
41.917096231345219
 31
0.0
  0
LINE
  5
E45
  8
0
 10
79.000000000000057
 20
54.041451884327387
 30
0.0
 11
86.769821698315297
 21
54.04145188432733
 31
0.0
  0
LINE
  5
E46
  8
0
 10
87.000000000000057
 20
47.449999999999932
 30
0.0
 11
93.100000000000051
 21
47.449999999999932
 31
0.0
  0
LINE
  5
E47
  8
0
 10
93.100000000000051
 20
52.549999999999947
 30
0.0
 11
87.000000000000057
 21
52.549999999999947
 31
0.0
  0
LINE
  5
E48
  8
0
 10
87.000000000000057
 20
42.299999999999947
 30
0.0
 11
87.499923847578259
 21
41.791273796781297
 31
0.0
  0
LINE
  5
E49
  8
0
 10
87.499923847578259
 20
58.208726203218589
 30
0.0
 11
87.000000000000057
 21
57.699999999999932
 31
0.0
  0
LINE
  5
E4A
  8
0
 10
87.000000000000057
 20
42.299999999999947
 30
0.0
 11
87.000000000000057
 21
57.699999999999932
 31
0.0
  0
LINE
  5
E4B
  8
0
 10
93.100000000000051
 20
52.549999999999947
 30
0.0
 11
93.100000000000051
 21
47.449999999999932
 31
0.0
  0
LINE
  5
E4C
  8
0
 10
87.499923847578259
 20
52.549999999999947
 30
0.0
 11
87.499923847578259
 21
58.208726203218589
 31
0.0
  0
LINE
  5
E4D
  8
0
 10
87.499923847578259
 20
41.791273796781297
 30
0.0
 11
101.3000000000001
 21
41.550392571526388
 31
0.0
  0
LINE
  5
E4E
  8
0
 10
101.3000000000001
 20
58.449607428473477
 30
0.0
 11
87.499923847578259
 21
58.208726203218589
 31
0.0
  0
LINE
  5
E4F
  8
0
 10
87.499923847578259
 20
41.791273796781297
 30
0.0
 11
87.499923847578259
 21
47.449999999999932
 31
0.0
  0
ARC
  5
E52
  8
2
 10
121.2
 20
50.0
 30
0.0
 40
15.999999999999901
 50
143.1301023541543
 51
164.59590630127431
  0
ARC
  5
E53
  8
2
 10
121.2000000000001
 20
49.999999999999943
 30
0.0
 40
16.000000000000039
 50
195.4040936987256
 51
216.86989764584109
  0
ARC
  5
E54
  8
2
 10
108.0000000000001
 20
59.89999999999992
 30
0.0
 40
0.4999999999999478
 50
323.13010235415442
 51
0.0
  0
ARC
  5
E55
  8
2
 10
108.0000000000001
 20
40.099999999999973
 30
0.0
 40
0.4999999999999467
 50
359.99999999999682
 51
36.869897645845647
  0
LINE
  5
E56
  8
0
 10
108.5
 20
38.446434624714641
 30
0.0
 11
108.5
 21
61.553565375285253
 31
0.0
  0
ARC
  5
E57
  8
0
 10
106.8
 20
60.499999999999943
 30
0.0
 40
1.9999999999999909
 50
31.788330617052491
 51
90.0
  0
ARC
  5
E58
  8
0
 10
106.8
 20
39.499999999999943
 30
0.0
 40
1.999999999999992
 50
269.99999999999841
 51
328.21166938294749
  0
LINE
  5
E59
  8
0
 10
101.3000000000001
 20
41.550392571526388
 30
0.0
 11
101.3000000000001
 21
58.449607428473477
 31
0.0
  0
LINE
  5
E5A
  8
0
 10
101.3000000000001
 20
41.550392571526388
 30
0.0
 11
106.7538582242032
 21
37.49999999999995
 31
0.0
  0
LINE
  5
E5B
  8
0
 10
106.7538582242032
 20
62.499999999999943
 30
0.0
 11
101.3000000000001
 21
58.449607428473477
 31
0.0
  0
LINE
  5
E5C
  8
0
 10
106.7538582242032
 20
37.49999999999995
 30
0.0
 11
106.7538582242032
 21
62.499999999999943
 31
0.0
  0
LINE
  5
E5D
  8
0
 10
106.8
 20
62.499999999999943
 30
0.0
 11
106.7538582242032
 21
62.499999999999943
 31
0.0
  0
LINE
  5
E5E
  8
0
 10
106.7538582242032
 20
37.49999999999995
 30
0.0
 11
106.8
 21
37.49999999999995
 31
0.0
  0
LINE
  5
E5F
  8
3
 10
59.580000000000041
 20
55.079999999999991
 30
0.0
 11
66.007531519800409
 21
55.079999999999991
 31
0.0
  0
LINE
  5
E61
  8
3
 10
59.580000000000041
 20
44.919999999999959
 30
0.0
 11
66.007531519800409
 21
44.919999999999931
 31
0.0
  0
LINE
  5
EAA
  8
0
 10
76.000000000000057
 20
44.0
 30
0.0
 11
76.000000000000057
 21
56.0
 31
0.0
  0
LINE
  5
EB3
  8
3
 10
76.000000000000057
 20
55.079999999999991
 30
0.0
 11
77.593486742963506
 21
56.000000000000028
 31
0.0
  0
LINE
  5
EB4
  8
3
 10
76.000000000000057
 20
44.920000000000009
 30
0.0
 11
77.593486742963506
 21
43.999999999999972
 31
0.0
  0
LINE
  5
EB5
  8
0
 10
76.000000000000057
 20
94.0
 30
0.0
 11
76.000000000000057
 21
106.0
 31
0.0
  0
LINE
  5
EB6
  8
3
 10
59.580000000000041
 20
105.08
 30
0.0
 11
66.007531519800523
 21
105.08
 31
0.0
  0
LINE
  5
EB7
  8
3
 10
59.580000000000041
 20
94.919999999999945
 30
0.0
 11
66.007531519800523
 21
94.919999999999931
 31
0.0
  0
LINE
  5
EB8
  8
3
 10
76.000000000000057
 20
105.08
 30
0.0
 11
77.593486742963506
 21
106.0
 31
0.0
  0
LINE
  5
EB9
  8
3
 10
76.000000000000057
 20
94.920000000000016
 30
0.0
 11
77.593486742963506
 21
93.999999999999957
 31
0.0
  0
LINE
  5
EBD
  8
1
 10
111.5000000000001
 20
100.0
 30
0.0
 11
50.000000000000028
 21
100.0
 31
0.0
  0
LINE
  5
EC0
  8
1
 10
111.5
 20
50.0
 30
0.0
 11
50.0
 21
50.0
 31
0.0
  0
LINE
  5
EC5
  8
1
 10
131.5
 20
50.0
 30
0.0
 11
162.5
 21
50.0
 31
0.0
  0
LINE
  5
EC6
  8
1
 10
147.0
 20
34.5
 30
0.0
 11
147.0
 21
65.5
 31
0.0
  0
ARC
  5
F56
  8
0
 10
60.275104646014732
 20
103.5
 30
0.0
 40
26.72489535398535
 50
352.47469653162852
 51
7.5253034683714501
  0
ARC
  5
F57
  8
0
 10
60.275104646014732
 20
96.5
 30
0.0
 40
26.72489535398535
 50
352.47469653162852
 51
7.5253034683714501
  0
ARC
  5
F58
  8
0
 10
78.01497544811005
 20
56.06217782649103
 30
0.0
 40
8.9850245518900032
 50
347.00304191245073
 51
12.996958087549221
  0
ARC
  5
F59
  8
0
 10
51.405176161813657
 20
49.999999606055383
 30
0.0
 40
35.5948238381864
 50
353.48055373926911
 51
6.51944711450464
  0
ARC
  5
F5A
  8
0
 10
78.01497544811005
 20
43.93782217350897
 30
0.0
 40
8.9850245518900032
 50
347.00304191245061
 51
12.99695808754938
  0
LINE
  5
100F
  8
0
 10
66.007531519800409
 20
59.500005394797867
 30
0.0
 11
66.856037290678387
 21
60.96966050047395
 31
0.0
  0
ARC
  5
1010
  8
0
 10
70.863594758940053
 20
58.227246724053529
 30
0.0
 40
4.8560632391392371
 50
180.0
 51
214.3842472978067
  0
ARC
  5
1011
  8
0
 10
84.159025820001133
 20
50.000000000000611
 30
0.0
 40
18.151494300200689
 50
162.41204631706989
 51
197.58795368292999
  0
ARC
  5
1012
  8
0
 10
70.863594758940053
 20
41.772758670744317
 30
0.0
 40
4.8560632391392371
 50
145.6157527021922
 51
179.99999999999841
  0
LINE
  5
1013
  8
0
 10
66.007531519800409
 20
40.499999999999979
 30
0.0
 11
66.856037290678387
 21
39.03034489432391
 31
0.0
  0
LINE
  5
1014
  8
0
 10
71.159025748921977
 20
44.515172447164879
 30
0.0
 11
66.856037290678501
 21
44.515172447164879
 31
0.0
  0
LINE
  5
1015
  8
0
 10
66.856037290678387
 20
39.03034489432391
 30
0.0
 11
71.159025748922431
 21
39.03034489432396
 31
0.0
  0
LINE
  5
1016
  8
0
 10
71.159025748921522
 20
55.484827552836357
 30
0.0
 11
66.856037290678501
 21
55.484827552836357
 31
0.0
  0
LINE
  5
1017
  8
0
 10
66.856037290678501
 20
60.969655105670412
 30
0.0
 11
71.159028863613685
 21
60.969655105670412
 31
0.0
  0
LINE
  5
1018
  8
0
 10
66.007531519800409
 20
59.500000000000007
 30
0.0
 11
66.007531519800409
 21
40.499999999999979
 31
0.0
  0
LINE
  5
1019
  8
0
 10
72.007531519800409
 20
59.500000000000007
 30
0.0
 11
72.007531519800409
 21
40.499999999999979
 31
0.0
  0
LINE
  5
101A
  8
0
 10
72.007531519800409
 20
40.499999999999979
 30
0.0
 11
71.159025748922431
 21
39.03034489432391
 31
0.0
  0
ARC
  5
101B
  8
0
 10
67.151468280660765
 20
41.772758670744317
 30
0.0
 40
4.8560632391392371
 50
0.0000000000016284
 51
34.384247297807782
  0
ARC
  5
101C
  8
0
 10
53.856037219599671
 20
50.000000000000611
 30
0.0
 40
18.151494300200689
 50
342.41204631706989
 51
17.587953682930049
  0
ARC
  5
101D
  8
0
 10
67.151468280660765
 20
58.227246724053529
 30
0.0
 40
4.8560632391392371
 50
325.6157527021922
 51
359.99999999999841
  0
LINE
  5
101E
  8
0
 10
72.007531519800409
 20
59.500005394797867
 30
0.0
 11
71.159025748922431
 21
60.96966050047395
 31
0.0
  0
ARC
  5
101F
  8
0
 10
58.126529172237213
 20
104.75
 30
0.0
 40
13.719683889994901
 50
339.74384199960582
 51
20.25615800039424
  0
ARC
  5
1020
  8
0
 10
79.888533867363094
 20
104.75
 30
0.0
 40
13.719683889994901
 50
159.74384199960571
 51
200.25615800039421
  0
LINE
  5
1021
  8
0
 10
72.007531519800523
 20
109.22058823529289
 30
0.0
 11
72.007531519800523
 21
90.779411764707007
 31
0.0
  0
LINE
  5
1022
  8
0
 10
66.007531519800523
 20
90.779411764705785
 30
0.0
 11
66.007531519800523
 21
109.2205882352941
 31
0.0
  0
LINE
  5
1023
  8
0
 10
71.846213062232152
 20
109.5
 30
0.0
 11
66.168849977368211
 21
109.5
 31
0.0
  0
LINE
  5
1024
  8
0
 10
66.168849977368211
 20
109.5
 30
0.0
 11
66.007531519799841
 21
109.22058823529299
 31
0.0
  0
LINE
  5
1025
  8
0
 10
71.846213062232152
 20
109.5
 30
0.0
 11
72.007531519800523
 21
109.22058823529299
 31
0.0
  0
ARC
  5
1026
  8
0
 10
58.126529172237213
 20
95.25
 30
0.0
 40
13.719683889994901
 50
339.74384199960582
 51
20.25615800039424
  0
ARC
  5
1027
  8
0
 10
79.888533867363094
 20
95.25
 30
0.0
 40
13.719683889994901
 50
159.74384199960571
 51
200.25615800039421
  0
LINE
  5
1028
  8
0
 10
70.997707286200807
 20
100.0
 30
0.0
 11
67.017355753399215
 21
100.0
 31
0.0
  0
LINE
  5
1029
  8
0
 10
71.846213062232152
 20
90.499999999999943
 30
0.0
 11
66.168849977368211
 21
90.5
 31
0.0
  0
LINE
  5
102A
  8
0
 10
66.168849977368211
 20
90.499999999999943
 30
0.0
 11
66.007531519799841
 21
90.779411764707007
 31
0.0
  0
LINE
  5
102B
  8
0
 10
71.846213062232152
 20
90.499999999999943
 30
0.0
 11
72.007531519800523
 21
90.779411764707007
 31
0.0
  0
LINE
  5
1072
  8
0
 10
66.007531519800523
 20
106.0
 30
0.0
 11
60.500000000000078
 21
106.0
 31
0.0
  0
LINE
  5
1073
  8
3
 10
72.007531519800523
 20
105.08
 30
0.0
 11
76.000000000000057
 21
105.08
 31
0.0
  0
LINE
  5
1074
  8
3
 10
72.007531519800523
 20
94.919999999999916
 30
0.0
 11
76.000000000000057
 21
94.919999999999902
 31
0.0
  0
LINE
  5
1075
  8
0
 10
72.007531519800523
 20
94.0
 30
0.0
 11
79.000000000000085
 21
94.0
 31
0.0
  0
LINE
  5
1076
  8
0
 10
66.007531519800409
 20
56.0
 30
0.0
 11
60.500000000000057
 21
56.0
 31
0.0
  0
LINE
  5
1077
  8
3
 10
72.007531519800423
 20
55.079999999999991
 30
0.0
 11
76.000000000000057
 21
55.079999999999991
 31
0.0
  0
LINE
  5
1078
  8
3
 10
72.007531519800423
 20
44.919999999999909
 30
0.0
 11
76.000000000000057
 21
44.919999999999902
 31
0.0
  0
LINE
  5
1079
  8
0
 10
72.007531519800423
 20
44.0
 30
0.0
 11
79.000000000000057
 21
44.0
 31
0.0
  0
ENDSEC
  0
EOF
