  0
SECTION
  2
HEADER
  9
$ACADVER
  1
AC1009
  9
$INSBASE
 10
0.0
 20
0.0
 30
0.0
  9
$EXTMIN
 10
0.0
 20
-2.960436562073669
 30
0.0
  9
$EXTMAX
 10
336.49999999999989
 20
241.0
 30
0.0
  9
$LIMMIN
 10
0.0
 20
0.0
  9
$LIMMAX
 10
375.0
 20
270.0
  9
$ORTHOMODE
 70
     1
  9
$REGENMODE
 70
     1
  9
$FILLMODE
 70
     1
  9
$QTEXTMODE
 70
     0
  9
$MIRRTEXT
 70
     0
  9
$DRAGMODE
 70
     2
  9
$LTSCALE
 40
10.0
  9
$OSMODE
 70
  3071
  9
$ATTMODE
 70
     1
  9
$TEXTSIZE
 40
0.2
  9
$TRACEWID
 40
0.05
  9
$TEXTSTYLE
  7
STANDARD
  9
$CLAYER
  8
0
  9
$CELTYPE
  6
BYLAYER
  9
$CECOLOR
 62
   256
  9
$DIMSCALE
 40
1.0
  9
$DIMASZ
 40
3.0
  9
$DIMEXO
 40
2.0
  9
$DIMDLI
 40
0.38
  9
$DIMRND
 40
0.0
  9
$DIMDLE
 40
0.0
  9
$DIMEXE
 40
2.0
  9
$DIMTP
 40
0.0
  9
$DIMTM
 40
0.0
  9
$DIMTXT
 40
3.2000000000000002
  9
$DIMCEN
 40
0.0
  9
$DIMTSZ
 40
0.0
  9
$DIMTOL
 70
     0
  9
$DIMLIM
 70
     0
  9
$DIMTIH
 70
     0
  9
$DIMTOH
 70
     0
  9
$DIMSE1
 70
     0
  9
$DIMSE2
 70
     0
  9
$DIMTAD
 70
     1
  9
$DIMZIN
 70
     0
  9
$DIMBLK
  1

  9
$DIMASO
 70
     1
  9
$DIMSHO
 70
     0
  9
$DIMPOST
  1

  9
$DIMAPOST
  1

  9
$DIMALT
 70
     0
  9
$DIMALTD
 70
     2
  9
$DIMALTF
 40
25.399999999999999
  9
$DIMLFAC
 40
1.0
  9
$DIMTOFL
 70
     1
  9
$DIMTVP
 40
1.6000000000000001
  9
$DIMTIX
 70
     1
  9
$DIMSOXD
 70
     0
  9
$DIMSAH
 70
     0
  9
$DIMBLK1
  1

  9
$DIMBLK2
  1

  9
$DIMSTYLE
  2
STANDARD
  9
$DIMCLRD
 70
     0
  9
$DIMCLRE
 70
     0
  9
$DIMCLRT
 70
     0
  9
$DIMTFAC
 40
1.0
  9
$DIMGAP
 40
0.09
  9
$LUNITS
 70
     2
  9
$LUPREC
 70
     4
  9
$SKETCHINC
 40
0.1
  9
$FILLETRAD
 40
0.0
  9
$AUNITS
 70
     0
  9
$AUPREC
 70
     4
  9
$MENU
  1
E:\r13\win\SUPPORT\ACAD
  9
$ELEVATION
 40
0.0
  9
$PELEVATION
 40
0.0
  9
$THICKNESS
 40
0.0
  9
$LIMCHECK
 70
     0
  9
$BLIPMODE
 70
     0
  9
$CHAMFERA
 40
0.0
  9
$CHAMFERB
 40
0.0
  9
$SKPOLY
 70
     0
  9
$TDCREATE
 40
2449839.793391204
  9
$TDUPDATE
 40
2456598.4634958329
  9
$TDINDWG
 40
0.0026322454
  9
$TDUSRTIMER
 40
0.0026322454
  9
$USRTIMER
 70
     1
  9
$ANGBASE
 50
0.0
  9
$ANGDIR
 70
     0
  9
$PDMODE
 70
     0
  9
$PDSIZE
 40
0.0
  9
$PLINEWID
 40
0.0
  9
$COORDS
 70
     1
  9
$SPLFRAME
 70
     0
  9
$SPLINETYPE
 70
     6
  9
$SPLINESEGS
 70
     8
  9
$ATTDIA
 70
     0
  9
$ATTREQ
 70
     1
  9
$HANDLING
 70
     1
  9
$HANDSEED
  5
42C
  9
$SURFTAB1
 70
     6
  9
$SURFTAB2
 70
     6
  9
$SURFTYPE
 70
     6
  9
$SURFU
 70
     6
  9
$SURFV
 70
     6
  9
$UCSNAME
  2

  9
$UCSORG
 10
0.0
 20
0.0
 30
0.0
  9
$UCSXDIR
 10
1.0
 20
0.0
 30
0.0
  9
$UCSYDIR
 10
0.0
 20
1.0
 30
0.0
  9
$PUCSNAME
  2

  9
$PUCSORG
 10
0.0
 20
0.0
 30
0.0
  9
$PUCSXDIR
 10
1.0
 20
0.0
 30
0.0
  9
$PUCSYDIR
 10
0.0
 20
1.0
 30
0.0
  9
$USERI1
 70
     0
  9
$USERI2
 70
     1
  9
$USERI3
 70
     1
  9
$USERI4
 70
     0
  9
$USERI5
 70
     0
  9
$USERR1
 40
0.0
  9
$USERR2
 40
0.0
  9
$USERR3
 40
0.0
  9
$USERR4
 40
0.0
  9
$USERR5
 40
0.0
  9
$WORLDVIEW
 70
     1
  9
$SHADEDGE
 70
     3
  9
$SHADEDIF
 70
    70
  9
$TILEMODE
 70
     1
  9
$MAXACTVP
 70
    16
  9
$PLIMCHECK
 70
     0
  9
$PEXTMIN
 10
1.0000000000000000E+020
 20
1.0000000000000000E+020
 30
1.0000000000000000E+020
  9
$PEXTMAX
 10
-1.0000000000000000E+020
 20
-1.0000000000000000E+020
 30
-1.0000000000000000E+020
  9
$PLIMMIN
 10
0.0
 20
0.0
  9
$PLIMMAX
 10
12.0
 20
9.0
  9
$UNITMODE
 70
     0
  9
$VISRETAIN
 70
     0
  9
$PLINEGEN
 70
     0
  9
$PSLTSCALE
 70
     0
  0
ENDSEC
  0
SECTION
  2
TABLES
  0
TABLE
  2
VPORT
 70
     1
  0
VPORT
  2
*ACTIVE
 70
     0
 10
0.0
 20
0.0
 11
1.0
 21
1.0
 12
195.0581083320873
 22
133.5127261426681
 13
0.0
 23
0.0
 14
10.0
 24
10.0
 15
10.0
 25
10.0
 16
0.0
 26
0.0
 36
1.0
 17
0.0
 27
0.0
 37
0.0
 40
275.42274993631997
 41
1.831871345029239
 42
50.0
 43
0.0
 44
0.0
 50
0.0
 51
0.0
 71
     0
 72
   500
 73
     1
 74
     0
 75
     0
 76
     0
 77
     0
 78
     2
  0
ENDTAB
  0
TABLE
  2
LTYPE
 70
     3
  0
LTYPE
  2
CONTINUOUS
 70
     0
  3
Solid Line
 72
    65
 73
     0
 40
0.0
  0
LTYPE
  2
CENTER
 70
     0
  3
____ _ ____ _ ____ _ ____ _ ____ _ ____ _ ____
 72
    65
 73
     4
 40
2.0
 49
1.25
 49
-0.25
 49
0.25
 49
-0.25
  0
LTYPE
  2
PHANTOM2
 70
     0
  3
___ _ _ ___ _ _ ___ _ _ ___ _ _
 72
    65
 73
     6
 40
1.25
 49
0.625
 49
-0.125
 49
0.125
 49
-0.125
 49
0.125
 49
-0.125
  0
ENDTAB
  0
TABLE
  2
LAYER
 70
     3
  0
LAYER
  2
0
 70
     0
 62
     7
  6
CONTINUOUS
  0
LAYER
  2
1
 70
     0
 62
     1
  6
CENTER
  0
LAYER
  2
3
 70
     0
 62
     3
  6
CONTINUOUS
  0
ENDTAB
  0
TABLE
  2
STYLE
 70
     3
  0
STYLE
  2
STANDARD
 70
     0
 40
0.0
 41
1.0
 50
0.0
 71
     0
 42
0.2
  3
TXT
  4
BIGFONT
  0
STYLE
  2
SIM080
 70
     0
 40
0.0
 41
0.8
 50
0.0
 71
     0
 42
1.8
  3
SIMPLEX
  4

  0
STYLE
  2
STANDARD1
 70
     0
 40
0.0
 41
1.0
 50
0.0
 71
     0
 42
3.0
  3
txt
  4

  0
ENDTAB
  0
TABLE
  2
VIEW
 70
     1
  0
VIEW
  2
ALL
 70
     0
 40
270.0
 10
220.99159663865549
 20
135.0
 41
0.0
 11
0.0
 21
0.0
 31
1.0
 12
0.0
 22
0.0
 32
0.0
 42
0.0
 43
0.0
 44
0.0
 50
0.0
 71
     0
  0
ENDTAB
  0
TABLE
  2
UCS
 70
     0
  0
ENDTAB
  0
TABLE
  2
APPID
 70
     4
  0
APPID
  2
ACAD
 70
     0
  0
APPID
  2
ACAD_MLEADERVER
 70
     0
  0
APPID
  2
ACAD_EXEMPT_FROM_CAD_STANDARDS
 70
     0
  0
APPID
  2
ACAD_NAV_VCDISPLAY
 70
     0
  0
ENDTAB
  0
TABLE
  2
DIMSTYLE
 70
     1
  0
DIMSTYLE
  2
STANDARD
 70
     0
  3

  4

  5

  6

  7

 40
1.0
 41
0.18
 42
0.0625
 43
0.38
 44
0.18
 45
0.0
 46
0.0
 47
0.0
 48
0.0
140
0.18
141
0.09
142
0.0
143
25.399999999999999
144
1.0
145
0.0
146
1.0
147
0.09
 71
     0
 72
     0
 73
     1
 74
     1
 75
     0
 76
     0
 77
     0
 78
     0
170
     0
171
     2
172
     0
173
     0
174
     0
175
     0
176
     0
177
     0
178
     0
  0
ENDTAB
  0
ENDSEC
  0
SECTION
  2
BLOCKS
  0
BLOCK
  8
0
  2
$MODEL_SPACE
 70
     0
 10
0.0
 20
0.0
 30
0.0
  3
$MODEL_SPACE
  1

  0
ENDBLK
  5
1B5
  8
0
  0
BLOCK
 67
     1
  8
0
  2
$PAPER_SPACE
 70
     0
 10
0.0
 20
0.0
 30
0.0
  3
$PAPER_SPACE
  1

  0
ENDBLK
  5
1B3
 67
     1
  8
0
  0
ENDSEC
  0
SECTION
  2
ENTITIES
  0
LINE
  5
35
  8
0
 10
142.49999999999989
 20
155.5
 30
0.0
 11
144.5
 21
155.5
 31
0.0
  0
LINE
  5
36
  8
0
 10
142.49999999999989
 20
124.5
 30
0.0
 11
144.5
 21
124.5
 31
0.0
  0
LINE
  5
37
  8
0
 10
157.5
 20
152.05850000000001
 30
0.0
 11
159.0
 21
152.05850000000001
 31
0.0
  0
LINE
  5
38
  8
0
 10
149.00000000000011
 20
153.22049999999999
 30
0.0
 11
157.5
 21
153.22049999999999
 31
0.0
  0
LINE
  5
39
  8
3
 10
149.0
 20
127.9415
 30
0.0
 11
157.5
 21
127.9415
 31
0.0
  0
LINE
  5
3A
  8
0
 10
149.0
 20
126.7795
 30
0.0
 11
157.5
 21
126.7795
 31
0.0
  0
LINE
  5
3B
  8
0
 10
159.0
 20
127.9415
 30
0.0
 11
159.0
 21
152.05850000000001
 31
0.0
  0
LINE
  5
3C
  8
0
 10
157.5
 20
126.7795
 30
0.0
 11
157.5
 21
153.22049999999999
 31
0.0
  0
LINE
  5
3D
  8
3
 10
149.00000000000011
 20
152.05850000000001
 30
0.0
 11
157.5
 21
152.05850000000001
 31
0.0
  0
LINE
  5
3E
  8
0
 10
157.5
 20
127.9415
 30
0.0
 11
159.0
 21
127.9415
 31
0.0
  0
LINE
  5
3F
  8
0
 10
147.49999999999989
 20
119.75
 30
0.0
 11
147.49999999999989
 21
160.25
 31
0.0
  0
LINE
  5
40
  8
0
 10
144.5
 20
119.75
 30
0.0
 11
144.5
 21
160.25
 31
0.0
  0
LINE
  5
41
  8
0
 10
144.49999999999989
 20
160.25
 30
0.0
 11
147.5
 21
160.25
 31
0.0
  0
LINE
  5
42
  8
0
 10
144.5
 20
119.75
 30
0.0
 11
147.49999999999989
 21
119.75
 31
0.0
  0
LINE
  5
43
  8
0
 10
147.5
 20
160.0000000000002
 30
0.0
 11
149.0
 21
160.0000000000002
 31
0.0
  0
LINE
  5
44
  8
0
 10
147.49999999999989
 20
120.0000000000002
 30
0.0
 11
149.0
 21
120.0000000000002
 31
0.0
  0
LINE
  5
45
  8
0
 10
149.0
 20
120.0000000000002
 30
0.0
 11
149.00000000000011
 21
160.0000000000002
 31
0.0
  0
LINE
  5
46
  8
1
 10
117.5
 20
140.0
 30
0.0
 11
336.49999999999989
 21
139.99999999999969
 31
0.0
  0
LINE
  5
47
  8
0
 10
159.0
 20
137.40000000000009
 30
0.0
 11
331.5
 21
137.40000000000001
 31
0.0
  0
LINE
  5
48
  8
0
 10
331.49999999999989
 20
142.59999999999951
 30
0.0
 11
159.0
 21
142.59999999999999
 31
0.0
  0
LINE
  5
49
  8
1
 10
64.70256111966853
 20
166.0
 30
0.0
 11
64.70256111966853
 21
114.0000000000001
 31
0.0
  0
LINE
  5
4A
  8
1
 10
90.702561119668545
 20
140.0
 30
0.0
 11
38.70256111966853
 21
140.0
 31
0.0
  0
TEXT
  5
4B
  8
3
 10
72.689941398074836
 20
124.6474518115555
 30
0.0
 40
1.5
  1
A
 50
28.999999999999972
 41
0.8
  7
SIM080
 72
     1
 11
73.089767549909993
 21
124.8690790665253
 31
0.0
  0
TEXT
  5
4C
  8
3
 10
70.741680967424628
 20
123.7833717603508
 30
0.0
 40
1.5
  1
S
 50
21.749999999999961
 41
0.8
  7
SIM080
 72
     1
 11
71.113204788573398
 21
123.93159473535469
 31
0.0
  0
TEXT
  5
4D
  8
3
 10
68.674537494802465
 20
123.15804753427911
 30
0.0
 40
1.5
  1
E
 50
14.49999999999995
 41
0.8
  7
SIM080
 72
     1
 11
69.034135189800054
 21
123.2510458214993
 31
0.0
  0
TEXT
  5
4E
  8
3
 10
66.545687302966002
 20
122.7950461525932
 30
0.0
 40
1.5
  1
L
 50
7.2499999999999423
 41
0.8
  7
SIM080
 72
     1
 11
66.885803285713337
 21
122.83831437058259
 31
0.0
  0
TEXT
  5
4F
  8
3
 10
64.331132548240191
 20
122.700000000042
 30
0.0
 40
1.5
  1
E
 50
360.0
 41
0.8
  7
SIM080
 72
     1
 11
64.702561119668744
 21
122.700000000042
 31
0.0
  0
TEXT
  5
50
  8
3
 10
62.462632956499633
 20
122.8455257402474
 30
0.0
 40
1.5
  1
.
 50
352.75
 41
0.8
  7
SIM080
 72
     1
 11
62.519318953624172
 21
122.83831437058259
 31
0.0
  0
TEXT
  5
51
  8
3
 10
59.983727993386211
 20
123.3511978231211
 30
0.0
 40
1.5
  1
T
 50
345.5
 41
0.8
  7
SIM080
 72
     1
 11
60.370987049537462
 21
123.2510458214993
 31
0.0
  0
TEXT
  5
52
  8
3
 10
57.867318798022673
 20
124.1009924210734
 30
0.0
 40
1.5
  1
A
 50
338.25
 41
0.8
  7
SIM080
 72
     1
 11
58.29191745076411
 21
123.93159473535459
 31
0.0
  0
TEXT
  5
53
  8
3
 10
55.965506806571653
 20
125.0630029146236
 30
0.0
 40
1.5
  1
P
 50
331.0
 41
0.8
  7
SIM080
 72
     1
 11
56.315354689427409
 21
124.8690790665251
 31
0.0
  0
ARC
  5
54
  8
0
 10
64.70256111966853
 20
140.0
 30
0.0
 40
20.0
 50
261.93320626438452
 51
278.06679373561383
  0
ARC
  5
55
  8
0
 10
64.70256111966853
 20
140.0
 30
0.0
 40
20.0
 50
225.93320626438449
 51
242.0667937356138
  0
ARC
  5
56
  8
0
 10
64.70256111966853
 20
140.0
 30
0.0
 40
20.0
 50
189.93320626438449
 51
206.0667937356138
  0
ARC
  5
57
  8
0
 10
64.70256111966853
 20
140.0
 30
0.0
 40
20.0
 50
153.93320626438449
 51
170.0667937356138
  0
ARC
  5
58
  8
0
 10
64.70256111966853
 20
140.0
 30
0.0
 40
20.0
 50
117.93320626438449
 51
134.0667937356138
  0
ARC
  5
59
  8
0
 10
64.70256111966853
 20
140.0
 30
0.0
 40
20.0
 50
81.933206264384538
 51
98.066793735613814
  0
ARC
  5
5A
  8
0
 10
64.70256111966853
 20
140.0
 30
0.0
 40
20.0
 50
45.933206264384538
 51
62.066793735613821
  0
ARC
  5
5B
  8
0
 10
64.70256111966853
 20
140.0
 30
0.0
 40
20.0
 50
9.933206264384534
 51
26.06679373561381
  0
ARC
  5
5C
  8
0
 10
64.70256111966853
 20
140.0
 30
0.0
 40
20.0
 50
333.93320626438452
 51
350.06679373561383
  0
ARC
  5
5D
  8
0
 10
64.70256111966853
 20
140.0
 30
0.0
 40
21.0
 50
242.54425731736501
 51
261.45574268263442
  0
LINE
  5
5E
  8
0
 10
55.333722526515658
 20
122.3301142217754
 30
0.0
 11
55.020231472460061
 21
121.36528796565661
 31
0.0
  0
LINE
  5
5F
  8
0
 10
61.896012488951442
 20
120.1978969605853
 30
0.0
 11
61.582521434897558
 21
119.2330707044721
 31
0.0
  0
ARC
  5
60
  8
0
 10
64.70256111966853
 20
140.0
 30
0.0
 40
21.0
 50
206.54425731736501
 51
225.45574268263439
  0
LINE
  5
61
  8
0
 10
46.736913210118928
 20
131.2116272729159
 30
0.0
 11
45.916182975432321
 21
130.6153318533961
 31
0.0
  0
LINE
  5
62
  8
0
 10
50.792631450934671
 20
125.629410011727
 30
0.0
 11
49.971901216252718
 21
125.03311459221059
 31
0.0
  0
ARC
  5
63
  8
0
 10
64.70256111966853
 20
140.0
 30
0.0
 40
21.0
 50
170.54425731736501
 51
189.45574268263431
  0
LINE
  5
64
  8
0
 10
45.002370765256842
 20
143.44999999999999
 30
0.0
 11
43.987892403994692
 21
143.44999999999999
 31
0.0
  0
LINE
  5
65
  8
0
 10
45.002370765253772
 20
136.5499999999999
 30
0.0
 11
43.987892403997527
 21
136.5499999999999
 31
0.0
  0
ARC
  5
66
  8
0
 10
64.70256111966853
 20
140.0
 30
0.0
 40
21.0
 50
134.54425731736501
 51
153.45574268263431
  0
LINE
  5
67
  8
0
 10
50.792631450937051
 20
154.37058998827121
 30
0.0
 11
49.97190121625033
 21
154.96688540779081
 31
0.0
  0
LINE
  5
68
  8
0
 10
46.73691321011642
 20
148.78837272708569
 30
0.0
 11
45.916182975434481
 21
149.384668146602
 31
0.0
  0
ARC
  5
69
  8
0
 10
64.70256111966853
 20
140.0
 30
0.0
 40
21.0
 50
98.544257317364981
 51
117.45574268263429
  0
LINE
  5
6A
  8
0
 10
61.896012488952117
 20
159.8021030394118
 30
0.0
 11
61.582521434896421
 21
160.7669292955305
 31
0.0
  0
LINE
  5
6B
  8
0
 10
55.333722526514521
 20
157.66988577822741
 30
0.0
 11
55.02023147246063
 21
158.63471203434071
 31
0.0
  0
ARC
  5
6C
  8
0
 10
64.70256111966853
 20
140.0
 30
0.0
 40
21.0
 50
62.54425731736503
 51
81.455742682634323
  0
LINE
  5
6D
  8
0
 10
74.071399712821403
 20
157.66988577822471
 30
0.0
 11
74.384890766876993
 21
158.63471203434341
 31
0.0
  0
LINE
  5
6E
  8
0
 10
67.509109750385733
 20
159.8021030394147
 30
0.0
 11
67.822600804439503
 21
160.766929295528
 31
0.0
  0
ARC
  5
6F
  8
0
 10
64.70256111966853
 20
140.0
 30
0.0
 40
21.0
 50
26.544257317365041
 51
45.455742682634323
  0
LINE
  5
70
  8
0
 10
82.668209029218019
 20
148.7883727270841
 30
0.0
 11
83.48893926390474
 21
149.3846681466039
 31
0.0
  0
LINE
  5
71
  8
0
 10
78.612490788402397
 20
154.3705899882732
 30
0.0
 11
79.433221023084343
 21
154.9668854077895
 31
0.0
  0
ARC
  5
72
  8
0
 10
64.70256111966853
 20
140.0
 30
0.0
 40
21.0
 50
350.54425731736512
 51
9.4557426826343232
  0
LINE
  5
73
  8
0
 10
84.402751474080333
 20
136.55000000000001
 30
0.0
 11
85.417229835342368
 21
136.55000000000021
 31
0.0
  0
LINE
  5
74
  8
0
 10
84.402751474083274
 20
143.45000000000019
 30
0.0
 11
85.417229835339626
 21
143.45000000000019
 31
0.0
  0
ARC
  5
75
  8
0
 10
64.70256111966853
 20
140.0
 30
0.0
 40
21.0
 50
314.54425731736512
 51
333.45574268263442
  0
LINE
  5
76
  8
0
 10
78.612490788400009
 20
125.62941001172879
 30
0.0
 11
79.43322102308673
 21
125.0331145922092
 31
0.0
  0
LINE
  5
77
  8
0
 10
82.668209029220634
 20
131.21162727291431
 30
0.0
 11
83.488939263902594
 21
130.615331853398
 31
0.0
  0
LINE
  5
78
  8
0
 10
74.07139971282254
 20
122.3301142217726
 30
0.0
 11
74.384890766876424
 21
121.36528796565941
 31
0.0
  0
LINE
  5
79
  8
0
 10
67.509109750384937
 20
120.1978969605882
 30
0.0
 11
67.82260080444064
 21
119.2330707044695
 31
0.0
  0
ARC
  5
7A
  8
0
 10
55.452561119668637
 20
141.44999999999999
 30
0.0
 40
1.45
 50
0.0
 51
180.0
  0
LINE
  5
7B
  8
0
 10
54.002561119668599
 20
138.55000000000001
 30
0.0
 11
54.002561119668599
 21
141.44999999999999
 31
0.0
  0
LINE
  5
7C
  8
0
 10
56.90256111966869
 20
138.55000000000001
 30
0.0
 11
56.90256111966869
 21
141.44999999999999
 31
0.0
  0
ARC
  5
7D
  8
0
 10
55.452561119668637
 20
138.55000000000001
 30
0.0
 40
1.45
 50
180.0
 51
0.0
  0
ARC
  5
7E
  8
0
 10
55.452561119668637
 20
141.44999999999999
 30
0.0
 40
4.25
 50
0.0
 51
180.0
  0
ARC
  5
7F
  8
0
 10
55.452561119668637
 20
138.55000000000001
 30
0.0
 40
4.25
 50
180.0
 51
0.0
  0
LINE
  5
80
  8
0
 10
59.702561119668651
 20
138.55000000000001
 30
0.0
 11
59.702561119668651
 21
141.44999999999999
 31
0.0
  0
LINE
  5
81
  8
0
 10
51.202561119668637
 20
138.55000000000001
 30
0.0
 11
51.202561119668637
 21
141.44999999999999
 31
0.0
  0
LINE
  5
82
  8
0
 10
72.502561119668371
 20
137.10000000000011
 30
0.0
 11
72.502561119668371
 21
145.69999999999999
 31
0.0
  0
LINE
  5
83
  8
0
 10
78.202561119668644
 20
137.10000000000011
 30
0.0
 11
72.502561119668371
 21
137.10000000000011
 31
0.0
  0
LINE
  5
84
  8
0
 10
66.102561119668508
 20
134.30000000000001
 30
0.0
 11
63.302561119668553
 21
134.30000000000001
 31
0.0
  0
LINE
  5
85
  8
0
 10
69.702561119668417
 20
145.69999999999999
 30
0.0
 11
72.502561119668371
 21
145.69999999999999
 31
0.0
  0
LINE
  5
86
  8
0
 10
63.302561119668553
 20
145.69999999999999
 30
0.0
 11
66.102561119668508
 21
145.69999999999999
 31
0.0
  0
LINE
  5
87
  8
0
 10
69.702561119668417
 20
134.30000000000001
 30
0.0
 11
69.702561119668417
 21
145.69999999999999
 31
0.0
  0
LINE
  5
88
  8
0
 10
66.102561119668621
 20
145.69999999999999
 30
0.0
 11
66.102561119668621
 21
134.30000000000001
 31
0.0
  0
LINE
  5
89
  8
0
 10
63.302561119668667
 20
145.69999999999999
 30
0.0
 11
63.302561119668667
 21
134.30000000000001
 31
0.0
  0
LINE
  5
8A
  8
0
 10
78.202561119668644
 20
134.30000000000001
 30
0.0
 11
69.702561119668417
 21
134.30000000000001
 31
0.0
  0
LINE
  5
8B
  8
0
 10
78.202561119668644
 20
137.10000000000011
 30
0.0
 11
78.202561119668644
 21
134.30000000000001
 31
0.0
  0
CIRCLE
  5
8C
  8
0
 10
64.70256111966853
 20
140.0
 30
0.0
 40
18.5
  0
ARC
  5
8D
  8
0
 10
64.70256111966853
 20
140.0
 30
0.0
 40
20.0
 50
297.93320626438452
 51
314.06679373561383
  0
ARC
  5
8E
  8
0
 10
64.70256111966853
 20
140.0
 30
0.0
 40
21.0
 50
278.54425731736501
 51
297.45574268263431
  0
LINE
  5
8F
  8
0
 10
331.49999999999989
 20
142.59999999999951
 30
0.0
 11
331.49999999999989
 21
137.40000000000001
 31
0.0
  0
LINE
  5
99
  8
0
 10
122.9999999999998
 20
158.4999999999998
 30
0.0
 11
124.4999999999998
 21
159.9999999999998
 31
0.0
  0
LINE
  5
9A
  8
0
 10
122.4999999999998
 20
134.59101718625101
 30
0.0
 11
122.4999999999998
 21
145.9910171862509
 31
0.0
  0
LINE
  5
9B
  8
0
 10
122.9999999999998
 20
121.5000000000002
 30
0.0
 11
124.4999999999998
 21
120.0000000000001
 31
0.0
  0
LINE
  5
9C
  8
0
 10
122.9999999999998
 20
121.5000000000002
 30
0.0
 11
122.9999999999998
 21
158.50000000000011
 31
0.0
  0
LINE
  5
9D
  8
0
 10
142.4999999999998
 20
119.2330707044721
 30
0.0
 11
142.4999999999998
 21
160.7669292955278
 31
0.0
  0
LINE
  5
9E
  8
0
 10
122.4999999999998
 20
145.9910171862509
 30
0.0
 11
122.9999999999998
 21
145.9910171862509
 31
0.0
  0
LINE
  5
9F
  8
0
 10
122.4999999999999
 20
137.3910171862511
 30
0.0
 11
122.9999999999998
 21
137.3910171862511
 31
0.0
  0
LINE
  5
A0
  8
0
 10
122.4999999999999
 20
134.59101718625101
 30
0.0
 11
122.9999999999998
 21
134.59101718625101
 31
0.0
  0
LINE
  5
A1
  8
0
 10
331.49999999999989
 20
222.59999999999951
 30
0.0
 11
331.49999999999989
 21
217.40000000000001
 31
0.0
  0
LINE
  5
A2
  8
0
 10
331.49999999999989
 20
222.59999999999951
 30
0.0
 11
159.0
 21
222.59999999999999
 31
0.0
  0
LINE
  5
A3
  8
0
 10
159.0
 20
217.4000000000002
 30
0.0
 11
331.5
 21
217.40000000000001
 31
0.0
  0
LINE
  5
A4
  8
1
 10
117.5
 20
220.0
 30
0.0
 11
336.49999999999989
 21
219.99999999999969
 31
0.0
  0
LINE
  5
A5
  8
0
 10
149.0
 20
200.0000000000002
 30
0.0
 11
149.00000000000011
 21
240.0000000000002
 31
0.0
  0
LINE
  5
A6
  8
0
 10
147.49999999999989
 20
200.0000000000002
 30
0.0
 11
149.0
 21
200.0000000000002
 31
0.0
  0
LINE
  5
A7
  8
0
 10
147.5
 20
240.0000000000002
 30
0.0
 11
149.0
 21
240.0000000000002
 31
0.0
  0
LINE
  5
A8
  8
0
 10
144.5
 20
199.75
 30
0.0
 11
147.49999999999989
 21
199.75
 31
0.0
  0
LINE
  5
A9
  8
0
 10
144.49999999999989
 20
240.25
 30
0.0
 11
147.5
 21
240.25
 31
0.0
  0
LINE
  5
AA
  8
0
 10
144.5
 20
199.75
 30
0.0
 11
144.5
 21
240.25
 31
0.0
  0
LINE
  5
AB
  8
0
 10
147.49999999999989
 20
199.75
 30
0.0
 11
147.49999999999989
 21
240.25
 31
0.0
  0
LINE
  5
AC
  8
0
 10
157.5
 20
207.9415000000001
 30
0.0
 11
159.0
 21
207.9415000000001
 31
0.0
  0
LINE
  5
AD
  8
3
 10
149.00000000000011
 20
232.05850000000001
 30
0.0
 11
157.5
 21
232.05850000000001
 31
0.0
  0
LINE
  5
AE
  8
0
 10
157.5
 20
206.77950000000001
 30
0.0
 11
157.5
 21
233.22049999999999
 31
0.0
  0
LINE
  5
AF
  8
0
 10
159.0
 20
207.94149999999999
 30
0.0
 11
159.0
 21
232.05850000000001
 31
0.0
  0
LINE
  5
B0
  8
0
 10
149.0
 20
206.77950000000001
 30
0.0
 11
157.5
 21
206.77950000000001
 31
0.0
  0
LINE
  5
B1
  8
3
 10
149.0
 20
207.94149999999999
 30
0.0
 11
157.5
 21
207.94149999999999
 31
0.0
  0
LINE
  5
B2
  8
0
 10
149.00000000000011
 20
233.22049999999999
 30
0.0
 11
157.5
 21
233.22049999999999
 31
0.0
  0
LINE
  5
B3
  8
0
 10
157.5
 20
232.05850000000001
 30
0.0
 11
159.0
 21
232.05850000000001
 31
0.0
  0
LINE
  5
B4
  8
0
 10
142.49999999999989
 20
204.5
 30
0.0
 11
144.5
 21
204.5
 31
0.0
  0
LINE
  5
B5
  8
0
 10
142.49999999999989
 20
235.5
 30
0.0
 11
144.5
 21
235.5
 31
0.0
  0
LINE
  5
B6
  8
0
 10
122.9999999999998
 20
238.4999999999998
 30
0.0
 11
125.4999999999998
 21
240.99999999999989
 31
0.0
  0
LINE
  5
B7
  8
0
 10
125.4999999999998
 20
240.99999999999989
 30
0.0
 11
142.4999999999998
 21
240.9999999999998
 31
0.0
  0
LINE
  5
B8
  8
0
 10
125.4999999999998
 20
240.9999999999998
 30
0.0
 11
125.4999999999998
 21
240.71466871567191
 31
0.0
  0
LINE
  5
B9
  8
0
 10
125.5
 20
223.12003968477109
 30
0.0
 11
142.4999999999998
 21
223.12003968477109
 31
0.0
  0
LINE
  5
BA
  8
0
 10
124.5000000000001
 20
222.80654863071589
 30
0.0
 11
142.4999999999998
 21
222.80654863071589
 31
0.0
  0
LINE
  5
BB
  8
0
 10
124.5
 20
239.70019035441121
 30
0.0
 11
124.5
 21
237.9656479095502
 31
0.0
  0
LINE
  5
BC
  8
0
 10
124.5
 20
222.80654863071589
 30
0.0
 11
125.4999999999998
 21
223.12003968477109
 31
0.0
  0
LINE
  5
BD
  8
0
 10
125.4999999999997
 20
229.68232964720809
 30
0.0
 11
142.4999999999996
 21
229.68232964720809
 31
0.0
  0
LINE
  5
BE
  8
0
 10
125.4999999999997
 20
234.7306599034157
 30
0.0
 11
142.4999999999996
 21
234.7306599034157
 31
0.0
  0
LINE
  5
BF
  8
0
 10
125.5
 20
238.78637814423561
 30
0.0
 11
142.4999999999998
 21
238.78637814423561
 31
0.0
  0
LINE
  5
C0
  8
0
 10
125.5
 20
240.71466871567191
 30
0.0
 11
142.4999999999998
 21
240.71466871567191
 31
0.0
  0
LINE
  5
C1
  8
0
 10
125.4999999999998
 20
229.68232964720801
 30
0.0
 11
125.4999999999998
 21
223.12003968477109
 31
0.0
  0
LINE
  5
C2
  8
0
 10
125.4999999999998
 20
238.78637814423561
 30
0.0
 11
125.4999999999998
 21
234.7306599034157
 31
0.0
  0
LINE
  5
C3
  8
0
 10
124.5
 20
233.9099296687302
 30
0.0
 11
142.49999999999989
 21
233.9099296687302
 31
0.0
  0
LINE
  5
C4
  8
0
 10
124.5
 20
239.70019035441121
 30
0.0
 11
142.4999999999998
 21
239.70019035441189
 31
0.0
  0
LINE
  5
C5
  8
0
 10
124.5
 20
229.36883859315299
 30
0.0
 11
125.4999999999998
 21
229.68232964720809
 31
0.0
  0
LINE
  5
C6
  8
0
 10
124.5
 20
233.9099296687304
 30
0.0
 11
125.4999999999997
 21
234.7306599034157
 31
0.0
  0
LINE
  5
C7
  8
0
 10
125.4999999999997
 20
238.78637814423561
 30
0.0
 11
124.5
 21
237.9656479095502
 31
0.0
  0
LINE
  5
C8
  8
0
 10
125.4999999999997
 20
240.71466871567191
 30
0.0
 11
124.5
 21
239.70019035441121
 31
0.0
  0
LINE
  5
C9
  8
0
 10
124.5
 20
233.9099296687304
 30
0.0
 11
124.5
 21
229.3688385931531
 31
0.0
  0
LINE
  5
CA
  8
0
 10
124.5
 20
217.19345136928419
 30
0.0
 11
124.5
 21
222.80654863071581
 31
0.0
  0
LINE
  5
CB
  8
0
 10
124.5
 20
206.09007033126969
 30
0.0
 11
124.5
 21
210.6311614068469
 31
0.0
  0
LINE
  5
CC
  8
0
 10
125.4999999999997
 20
199.28533128432809
 30
0.0
 11
124.5
 21
200.29980964558871
 31
0.0
  0
LINE
  5
CD
  8
0
 10
125.4999999999997
 20
201.21362185576439
 30
0.0
 11
124.5
 21
202.0343520904498
 31
0.0
  0
LINE
  5
CE
  8
0
 10
124.5
 20
206.09007033126969
 30
0.0
 11
125.4999999999997
 21
205.2693400965843
 31
0.0
  0
LINE
  5
CF
  8
0
 10
124.5
 20
210.63116140684701
 30
0.0
 11
125.4999999999998
 21
210.31767035279191
 31
0.0
  0
LINE
  5
D0
  8
0
 10
124.5
 20
200.29980964558879
 30
0.0
 11
142.4999999999998
 21
200.299809645588
 31
0.0
  0
LINE
  5
D1
  8
0
 10
124.5
 20
206.0900703312698
 30
0.0
 11
142.49999999999989
 21
206.0900703312698
 31
0.0
  0
LINE
  5
D2
  8
0
 10
125.4999999999998
 20
201.2136218557643
 30
0.0
 11
125.4999999999998
 21
205.26934009658419
 31
0.0
  0
LINE
  5
D3
  8
0
 10
125.4999999999998
 20
210.31767035279199
 30
0.0
 11
125.4999999999998
 21
216.87996031522891
 31
0.0
  0
LINE
  5
D4
  8
0
 10
125.5
 20
199.28533128432801
 30
0.0
 11
142.4999999999998
 21
199.28533128432801
 31
0.0
  0
LINE
  5
D5
  8
0
 10
125.5
 20
201.2136218557643
 30
0.0
 11
142.4999999999998
 21
201.2136218557643
 31
0.0
  0
LINE
  5
D6
  8
0
 10
125.4999999999997
 20
205.26934009658419
 30
0.0
 11
142.4999999999996
 21
205.26934009658419
 31
0.0
  0
LINE
  5
D7
  8
0
 10
125.4999999999997
 20
210.31767035279191
 30
0.0
 11
142.4999999999996
 21
210.31767035279191
 31
0.0
  0
LINE
  5
D8
  8
0
 10
124.5
 20
217.19345136928399
 30
0.0
 11
125.4999999999998
 21
216.87996031522891
 31
0.0
  0
LINE
  5
D9
  8
0
 10
124.5
 20
200.29980964558871
 30
0.0
 11
124.5
 21
202.0343520904498
 31
0.0
  0
LINE
  5
DA
  8
0
 10
124.5000000000001
 20
217.19345136928399
 30
0.0
 11
142.4999999999998
 21
217.19345136928399
 31
0.0
  0
LINE
  5
DB
  8
0
 10
125.5
 20
216.87996031522891
 30
0.0
 11
142.4999999999998
 21
216.87996031522891
 31
0.0
  0
LINE
  5
DC
  8
0
 10
125.4999999999998
 20
199.0000000000002
 30
0.0
 11
125.4999999999998
 21
199.28533128432801
 31
0.0
  0
LINE
  5
DD
  8
0
 10
122.4999999999998
 20
218.59999999999999
 30
0.0
 11
122.4999999999998
 21
221.40000000000001
 31
0.0
  0
LINE
  5
DE
  8
0
 10
122.4999999999998
 20
224.9999999999998
 30
0.0
 11
122.4999999999998
 21
233.5
 31
0.0
  0
LINE
  5
DF
  8
0
 10
122.4999999999998
 20
206.50000000000011
 30
0.0
 11
122.4999999999999
 21
215.0
 31
0.0
  0
LINE
  5
E0
  8
0
 10
122.9999999999998
 20
206.5
 30
0.0
 11
122.4999999999998
 21
206.5
 31
0.0
  0
LINE
  5
E1
  8
0
 10
122.9999999999998
 20
215.0
 30
0.0
 11
122.4999999999999
 21
215.0
 31
0.0
  0
LINE
  5
E2
  8
0
 10
122.4999999999998
 20
218.59999999999999
 30
0.0
 11
122.9999999999998
 21
218.59999999999999
 31
0.0
  0
LINE
  5
E3
  8
0
 10
122.4999999999998
 20
221.40000000000001
 30
0.0
 11
122.9999999999998
 21
221.40000000000001
 31
0.0
  0
LINE
  5
E4
  8
0
 10
122.9999999999998
 20
224.9999999999998
 30
0.0
 11
122.4999999999998
 21
224.9999999999998
 31
0.0
  0
LINE
  5
E5
  8
0
 10
122.4999999999998
 20
233.5
 30
0.0
 11
122.9999999999998
 21
233.5
 31
0.0
  0
LINE
  5
E6
  8
0
 10
125.4999999999998
 20
199.00000000000011
 30
0.0
 11
142.4999999999998
 21
199.0000000000002
 31
0.0
  0
LINE
  5
E7
  8
0
 10
122.9999999999998
 20
201.5000000000002
 30
0.0
 11
125.4999999999998
 21
199.00000000000011
 31
0.0
  0
LINE
  5
E8
  8
0
 10
122.9999999999998
 20
201.5000000000002
 30
0.0
 11
122.9999999999998
 21
238.50000000000011
 31
0.0
  0
LINE
  5
E9
  8
0
 10
142.4999999999998
 20
199.0000000000002
 30
0.0
 11
142.4999999999998
 21
241.0
 31
0.0
  0
LINE
  5
EA
  8
0
 10
142.4999999999998
 20
39.000000000000227
 30
0.0
 11
142.4999999999998
 21
81.0
 31
0.0
  0
LINE
  5
EB
  8
0
 10
122.9999999999998
 20
41.500000000000171
 30
0.0
 11
122.9999999999998
 21
78.500000000000114
 31
0.0
  0
LINE
  5
EC
  8
0
 10
122.9999999999998
 20
41.500000000000171
 30
0.0
 11
125.4999999999998
 21
39.000000000000107
 31
0.0
  0
LINE
  5
ED
  8
0
 10
125.4999999999998
 20
39.000000000000107
 30
0.0
 11
142.4999999999998
 21
39.000000000000227
 31
0.0
  0
LINE
  5
EE
  8
0
 10
122.4999999999998
 20
73.5
 30
0.0
 11
122.9999999999998
 21
73.5
 31
0.0
  0
LINE
  5
EF
  8
0
 10
122.9999999999998
 20
64.999999999999773
 30
0.0
 11
122.4999999999998
 21
64.999999999999773
 31
0.0
  0
LINE
  5
F0
  8
0
 10
122.4999999999998
 20
61.39999999999997
 30
0.0
 11
122.9999999999998
 21
61.39999999999997
 31
0.0
  0
LINE
  5
F1
  8
0
 10
122.4999999999998
 20
58.600000000000023
 30
0.0
 11
122.9999999999998
 21
58.600000000000023
 31
0.0
  0
LINE
  5
F2
  8
0
 10
122.9999999999998
 20
55.0
 30
0.0
 11
122.4999999999999
 21
55.0
 31
0.0
  0
LINE
  5
F3
  8
0
 10
122.9999999999998
 20
46.5
 30
0.0
 11
122.4999999999998
 21
46.5
 31
0.0
  0
LINE
  5
F4
  8
0
 10
122.4999999999998
 20
46.500000000000107
 30
0.0
 11
122.4999999999999
 21
55.0
 31
0.0
  0
LINE
  5
F5
  8
0
 10
122.4999999999998
 20
64.999999999999773
 30
0.0
 11
122.4999999999998
 21
73.5
 31
0.0
  0
LINE
  5
F6
  8
0
 10
122.4999999999998
 20
58.600000000000023
 30
0.0
 11
122.4999999999998
 21
61.39999999999997
 31
0.0
  0
LINE
  5
F7
  8
0
 10
125.4999999999998
 20
39.000000000000227
 30
0.0
 11
125.4999999999998
 21
39.285331284328038
 31
0.0
  0
LINE
  5
F8
  8
0
 10
125.5
 20
56.879960315228907
 30
0.0
 11
142.4999999999998
 21
56.879960315228907
 31
0.0
  0
LINE
  5
F9
  8
0
 10
124.5000000000001
 20
57.193451369284048
 30
0.0
 11
142.4999999999998
 21
57.193451369284048
 31
0.0
  0
LINE
  5
FA
  8
0
 10
124.5
 20
40.299809645588709
 30
0.0
 11
124.5
 21
42.034352090449772
 31
0.0
  0
LINE
  5
FB
  8
0
 10
124.5
 20
57.193451369284048
 30
0.0
 11
125.4999999999998
 21
56.879960315228907
 31
0.0
  0
LINE
  5
FC
  8
0
 10
125.4999999999997
 20
50.317670352791872
 30
0.0
 11
142.4999999999996
 21
50.317670352791872
 31
0.0
  0
LINE
  5
FD
  8
0
 10
125.4999999999997
 20
45.269340096584237
 30
0.0
 11
142.4999999999996
 21
45.269340096584237
 31
0.0
  0
LINE
  5
FE
  8
0
 10
125.5
 20
41.213621855764359
 30
0.0
 11
142.4999999999998
 21
41.213621855764359
 31
0.0
  0
LINE
  5
FF
  8
0
 10
125.5
 20
39.285331284328038
 30
0.0
 11
142.4999999999998
 21
39.285331284328038
 31
0.0
  0
LINE
  5
100
  8
0
 10
125.4999999999998
 20
50.317670352791993
 30
0.0
 11
125.4999999999998
 21
56.879960315228907
 31
0.0
  0
LINE
  5
101
  8
0
 10
125.4999999999998
 20
41.213621855764359
 30
0.0
 11
125.4999999999998
 21
45.269340096584237
 31
0.0
  0
LINE
  5
102
  8
0
 10
124.5
 20
46.090070331269771
 30
0.0
 11
142.49999999999989
 21
46.090070331269771
 31
0.0
  0
LINE
  5
103
  8
0
 10
124.5
 20
40.299809645588823
 30
0.0
 11
142.4999999999998
 21
40.29980964558802
 31
0.0
  0
LINE
  5
104
  8
0
 10
124.5
 20
50.631161406847021
 30
0.0
 11
125.4999999999998
 21
50.317670352791872
 31
0.0
  0
LINE
  5
105
  8
0
 10
124.5
 20
46.090070331269658
 30
0.0
 11
125.4999999999997
 21
45.269340096584301
 31
0.0
  0
LINE
  5
106
  8
0
 10
125.4999999999997
 20
41.213621855764409
 30
0.0
 11
124.5
 21
42.034352090449772
 31
0.0
  0
LINE
  5
107
  8
0
 10
125.4999999999997
 20
39.285331284328088
 30
0.0
 11
124.5
 21
40.299809645588759
 31
0.0
  0
LINE
  5
108
  8
0
 10
124.5
 20
46.090070331269658
 30
0.0
 11
124.5
 21
50.6311614068469
 31
0.0
  0
LINE
  5
109
  8
0
 10
124.5
 20
57.193451369284162
 30
0.0
 11
124.5
 21
62.806548630715838
 31
0.0
  0
LINE
  5
10A
  8
0
 10
124.5
 20
73.909929668730342
 30
0.0
 11
124.5
 21
69.3688385931531
 31
0.0
  0
LINE
  5
10B
  8
0
 10
125.4999999999997
 20
80.714668715671905
 30
0.0
 11
124.5
 21
79.700190354411234
 31
0.0
  0
LINE
  5
10C
  8
0
 10
125.4999999999997
 20
78.786378144235641
 30
0.0
 11
124.5
 21
77.965647909550171
 31
0.0
  0
LINE
  5
10D
  8
0
 10
124.5
 20
73.909929668730342
 30
0.0
 11
125.4999999999997
 21
74.730659903415699
 31
0.0
  0
LINE
  5
10E
  8
0
 10
124.5
 20
69.368838593152987
 30
0.0
 11
125.4999999999998
 21
69.682329647208121
 31
0.0
  0
LINE
  5
10F
  8
0
 10
124.5
 20
79.700190354411234
 30
0.0
 11
142.4999999999998
 21
79.700190354411916
 31
0.0
  0
LINE
  5
110
  8
0
 10
124.5
 20
73.909929668730229
 30
0.0
 11
142.49999999999989
 21
73.909929668730229
 31
0.0
  0
LINE
  5
111
  8
0
 10
125.4999999999998
 20
78.786378144235641
 30
0.0
 11
125.4999999999998
 21
74.730659903415699
 31
0.0
  0
LINE
  5
112
  8
0
 10
125.4999999999998
 20
69.682329647208007
 30
0.0
 11
125.4999999999998
 21
63.120039684771079
 31
0.0
  0
LINE
  5
113
  8
0
 10
125.5
 20
80.714668715671905
 30
0.0
 11
142.4999999999998
 21
80.714668715671905
 31
0.0
  0
LINE
  5
114
  8
0
 10
125.5
 20
78.786378144235641
 30
0.0
 11
142.4999999999998
 21
78.786378144235641
 31
0.0
  0
LINE
  5
115
  8
0
 10
125.4999999999997
 20
74.730659903415699
 30
0.0
 11
142.4999999999996
 21
74.730659903415699
 31
0.0
  0
LINE
  5
116
  8
0
 10
125.4999999999997
 20
69.682329647208121
 30
0.0
 11
142.4999999999996
 21
69.682329647208121
 31
0.0
  0
LINE
  5
117
  8
0
 10
124.5
 20
62.806548630715952
 30
0.0
 11
125.4999999999998
 21
63.120039684771079
 31
0.0
  0
LINE
  5
118
  8
0
 10
124.5
 20
79.700190354411234
 30
0.0
 11
124.5
 21
77.965647909550171
 31
0.0
  0
LINE
  5
119
  8
0
 10
124.5000000000001
 20
62.806548630715952
 30
0.0
 11
142.4999999999998
 21
62.806548630715952
 31
0.0
  0
LINE
  5
11A
  8
0
 10
125.5
 20
63.120039684771079
 30
0.0
 11
142.4999999999998
 21
63.120039684771079
 31
0.0
  0
LINE
  5
11B
  8
0
 10
125.4999999999998
 20
80.999999999999787
 30
0.0
 11
125.4999999999998
 21
80.714668715671905
 31
0.0
  0
LINE
  5
11C
  8
0
 10
125.4999999999998
 20
80.999999999999886
 30
0.0
 11
142.4999999999998
 21
80.999999999999787
 31
0.0
  0
LINE
  5
11D
  8
0
 10
122.9999999999998
 20
78.499999999999773
 30
0.0
 11
125.4999999999998
 21
80.999999999999886
 31
0.0
  0
LINE
  5
11E
  8
0
 10
142.49999999999989
 20
75.5
 30
0.0
 11
144.5
 21
75.5
 31
0.0
  0
LINE
  5
11F
  8
0
 10
142.49999999999989
 20
44.5
 30
0.0
 11
144.5
 21
44.5
 31
0.0
  0
LINE
  5
120
  8
0
 10
157.5
 20
72.058499999999981
 30
0.0
 11
159.0
 21
72.058499999999981
 31
0.0
  0
LINE
  5
121
  8
0
 10
149.00000000000011
 20
73.220500000000015
 30
0.0
 11
157.5
 21
73.220500000000015
 31
0.0
  0
LINE
  5
122
  8
3
 10
149.0
 20
47.941500000000012
 30
0.0
 11
157.5
 21
47.941500000000012
 31
0.0
  0
LINE
  5
123
  8
0
 10
149.0
 20
46.779499999999977
 30
0.0
 11
157.5
 21
46.779499999999977
 31
0.0
  0
LINE
  5
124
  8
0
 10
159.0
 20
47.941500000000012
 30
0.0
 11
159.0
 21
72.058499999999981
 31
0.0
  0
LINE
  5
125
  8
0
 10
157.5
 20
46.779499999999977
 30
0.0
 11
157.5
 21
73.220500000000015
 31
0.0
  0
LINE
  5
126
  8
3
 10
149.00000000000011
 20
72.058500000000009
 30
0.0
 11
157.5
 21
72.058499999999981
 31
0.0
  0
LINE
  5
127
  8
0
 10
157.5
 20
47.941500000000083
 30
0.0
 11
159.0
 21
47.941500000000083
 31
0.0
  0
LINE
  5
128
  8
0
 10
147.49999999999989
 20
39.75
 30
0.0
 11
147.49999999999989
 21
80.25
 31
0.0
  0
LINE
  5
129
  8
0
 10
144.5
 20
39.75
 30
0.0
 11
144.5
 21
80.25
 31
0.0
  0
LINE
  5
12A
  8
0
 10
144.49999999999989
 20
80.25
 30
0.0
 11
147.5
 21
80.25
 31
0.0
  0
LINE
  5
12B
  8
0
 10
144.5
 20
39.75
 30
0.0
 11
147.49999999999989
 21
39.75
 31
0.0
  0
LINE
  5
12C
  8
0
 10
147.5
 20
80.000000000000227
 30
0.0
 11
149.0
 21
80.000000000000227
 31
0.0
  0
LINE
  5
12D
  8
0
 10
147.49999999999989
 20
40.000000000000163
 30
0.0
 11
149.0
 21
40.000000000000227
 31
0.0
  0
LINE
  5
12E
  8
0
 10
149.0
 20
40.000000000000227
 30
0.0
 11
149.00000000000011
 21
80.000000000000227
 31
0.0
  0
LINE
  5
12F
  8
1
 10
117.5
 20
60.0
 30
0.0
 11
336.49999999999989
 21
59.99999999999968
 31
0.0
  0
LINE
  5
130
  8
0
 10
159.0
 20
57.400000000000148
 30
0.0
 11
331.5
 21
57.400000000000027
 31
0.0
  0
LINE
  5
131
  8
0
 10
331.49999999999989
 20
62.599999999999568
 30
0.0
 11
159.0
 21
62.600000000000051
 31
0.0
  0
LINE
  5
132
  8
0
 10
331.49999999999989
 20
62.599999999999511
 30
0.0
 11
331.49999999999989
 21
57.400000000000027
 31
0.0
  0
LINE
  5
133
  8
0
 10
122.9999999999998
 20
212.19999999999999
 30
0.0
 11
122.4999999999999
 21
212.19999999999999
 31
0.0
  0
LINE
  5
134
  8
0
 10
124.4999999999998
 20
143.45000000000019
 30
0.0
 11
142.4999999999998
 21
143.45000000000019
 31
0.0
  0
LINE
  5
135
  8
0
 10
124.4999999999998
 20
136.5500000000001
 30
0.0
 11
142.4999999999998
 21
136.55000000000021
 31
0.0
  0
LINE
  5
136
  8
0
 10
125.4999999999998
 20
130.6153318533982
 30
0.0
 11
142.4999999999998
 21
130.6153318533982
 31
0.0
  0
LINE
  5
137
  8
0
 10
125.4999999999998
 20
125.03311459221079
 30
0.0
 11
142.4999999999998
 21
125.03311459221079
 31
0.0
  0
LINE
  5
138
  8
0
 10
125.4999999999998
 20
121.3652879656595
 30
0.0
 11
142.4999999999998
 21
121.3652879656595
 31
0.0
  0
LINE
  5
139
  8
0
 10
125.4999999999998
 20
119.2330707044721
 30
0.0
 11
142.4999999999998
 21
119.2330707044721
 31
0.0
  0
LINE
  5
13A
  8
0
 10
125.4999999999998
 20
149.38466814660219
 30
0.0
 11
142.4999999999998
 21
149.38466814660219
 31
0.0
  0
LINE
  5
13B
  8
0
 10
125.4999999999998
 20
154.9668854077895
 30
0.0
 11
142.4999999999998
 21
154.9668854077895
 31
0.0
  0
LINE
  5
13C
  8
0
 10
125.4999999999998
 20
158.63471203434071
 30
0.0
 11
142.4999999999998
 21
158.63471203434071
 31
0.0
  0
LINE
  5
13D
  8
0
 10
125.4999999999998
 20
160.7669292955278
 30
0.0
 11
142.4999999999998
 21
160.7669292955278
 31
0.0
  0
LINE
  5
13E
  8
0
 10
124.4999999999998
 20
148.7883727270833
 30
0.0
 11
142.4999999999998
 21
148.7883727270833
 31
0.0
  0
LINE
  5
13F
  8
0
 10
124.4999999999998
 20
157.6698857782234
 30
0.0
 11
142.4999999999998
 21
157.6698857782234
 31
0.0
  0
LINE
  5
140
  8
0
 10
124.4999999999998
 20
131.21162727291701
 30
0.0
 11
142.4999999999998
 21
131.21162727291701
 31
0.0
  0
LINE
  5
141
  8
0
 10
124.4999999999998
 20
122.3301142217767
 30
0.0
 11
142.4999999999998
 21
122.3301142217767
 31
0.0
  0
LINE
  5
142
  8
0
 10
124.4999999999998
 20
143.45000000000019
 30
0.0
 11
124.4999999999998
 21
148.7883727270833
 31
0.0
  0
LINE
  5
143
  8
0
 10
124.4999999999998
 20
148.7883727270833
 30
0.0
 11
125.4999999999998
 21
149.38466814660219
 31
0.0
  0
LINE
  5
144
  8
0
 10
125.4999999999998
 20
149.38466814660219
 30
0.0
 11
125.4999999999998
 21
154.9668854077895
 31
0.0
  0
LINE
  5
145
  8
0
 10
125.4999999999998
 20
154.9668854077895
 30
0.0
 11
124.4999999999998
 21
154.37058998827061
 31
0.0
  0
LINE
  5
146
  8
0
 10
124.4999999999998
 20
154.37058998827061
 30
0.0
 11
124.4999999999998
 21
157.6698857782234
 31
0.0
  0
LINE
  5
147
  8
0
 10
124.4999999999998
 20
157.6698857782234
 30
0.0
 11
125.4999999999998
 21
158.63471203434071
 31
0.0
  0
LINE
  5
148
  8
0
 10
125.4999999999998
 20
158.63471203434071
 30
0.0
 11
125.4999999999998
 21
160.7669292955278
 31
0.0
  0
LINE
  5
149
  8
0
 10
125.4999999999998
 20
160.7669292955278
 30
0.0
 11
124.4999999999998
 21
159.80210303941041
 31
0.0
  0
LINE
  5
14A
  8
0
 10
124.4999999999998
 20
159.80210303941041
 30
0.0
 11
124.4999999999998
 21
159.9999999999998
 31
0.0
  0
LINE
  5
14B
  8
0
 10
124.4999999999998
 20
136.5500000000001
 30
0.0
 11
124.4999999999998
 21
131.21162727291701
 31
0.0
  0
LINE
  5
14C
  8
0
 10
124.4999999999998
 20
131.21162727291701
 30
0.0
 11
125.4999999999998
 21
130.6153318533982
 31
0.0
  0
LINE
  5
14D
  8
0
 10
125.4999999999998
 20
130.6153318533982
 30
0.0
 11
125.4999999999998
 21
125.03311459221079
 31
0.0
  0
LINE
  5
14E
  8
0
 10
125.4999999999998
 20
125.03311459221079
 30
0.0
 11
124.4999999999998
 21
125.6294100117297
 31
0.0
  0
LINE
  5
14F
  8
0
 10
124.4999999999998
 20
125.6294100117297
 30
0.0
 11
124.4999999999998
 21
122.3301142217767
 31
0.0
  0
LINE
  5
150
  8
0
 10
124.4999999999998
 20
122.3301142217767
 30
0.0
 11
125.4999999999998
 21
121.3652879656595
 31
0.0
  0
LINE
  5
151
  8
0
 10
125.4999999999998
 20
121.3652879656595
 30
0.0
 11
125.4999999999998
 21
119.2330707044721
 31
0.0
  0
LINE
  5
152
  8
0
 10
125.4999999999998
 20
119.2330707044721
 30
0.0
 11
124.4999999999998
 21
120.1978969605896
 31
0.0
  0
LINE
  5
153
  8
0
 10
124.4999999999998
 20
120.1978969605896
 30
0.0
 11
124.4999999999998
 21
120.0000000000001
 31
0.0
  0
LINE
  5
154
  8
0
 10
125.4999999999999
 20
143.45000000000019
 30
0.0
 11
125.4999999999999
 21
136.5500000000001
 31
0.0
  0
TEXT
  5
3D3
  8
0
 62
     3
 10
0.0
 20
0.0
 30
0.0
 40
10.0
  1
BM-3/4G
  7
STANDARD1
  0
ENDSEC
  0
EOF
