  0
SECTION
  2
HEADER
  9
$ACADVER
  1
AC1009
  9
$INSBASE
 10
0.0
 20
0.0
 30
0.0
  9
$EXTMIN
 10
0.0
 20
-2.960436562073669
 30
0.0
  9
$EXTMAX
 10
303.0
 20
243.0
 30
0.0
  9
$LIMMIN
 10
0.0
 20
0.0
  9
$LIMMAX
 10
375.0
 20
270.0
  9
$ORTHOMODE
 70
     1
  9
$REGENMODE
 70
     1
  9
$FILLMODE
 70
     1
  9
$QTEXTMODE
 70
     0
  9
$MIRRTEXT
 70
     0
  9
$DRAGMODE
 70
     2
  9
$LTSCALE
 40
10.0
  9
$OSMODE
 70
  3071
  9
$ATTMODE
 70
     1
  9
$TEXTSIZE
 40
4.000000000000048
  9
$TRACEWID
 40
0.05
  9
$TEXTSTYLE
  7
STANDARD
  9
$CLAYER
  8
0
  9
$CELTYPE
  6
BYLAYER
  9
$CECOLOR
 62
   256
  9
$DIMSCALE
 40
1.0
  9
$DIMASZ
 40
3.0
  9
$DIMEXO
 40
2.0
  9
$DIMDLI
 40
0.38
  9
$DIMRND
 40
0.0
  9
$DIMDLE
 40
0.0
  9
$DIMEXE
 40
2.0
  9
$DIMTP
 40
0.0
  9
$DIMTM
 40
0.0
  9
$DIMTXT
 40
3.2000000000000002
  9
$DIMCEN
 40
0.0
  9
$DIMTSZ
 40
0.0
  9
$DIMTOL
 70
     0
  9
$DIMLIM
 70
     0
  9
$DIMTIH
 70
     0
  9
$DIMTOH
 70
     0
  9
$DIMSE1
 70
     0
  9
$DIMSE2
 70
     0
  9
$DIMTAD
 70
     1
  9
$DIMZIN
 70
     0
  9
$DIMBLK
  1

  9
$DIMASO
 70
     1
  9
$DIMSHO
 70
     0
  9
$DIMPOST
  1

  9
$DIMAPOST
  1

  9
$DIMALT
 70
     0
  9
$DIMALTD
 70
     2
  9
$DIMALTF
 40
25.399999999999999
  9
$DIMLFAC
 40
1.0
  9
$DIMTOFL
 70
     1
  9
$DIMTVP
 40
1.6000000000000001
  9
$DIMTIX
 70
     1
  9
$DIMSOXD
 70
     0
  9
$DIMSAH
 70
     0
  9
$DIMBLK1
  1

  9
$DIMBLK2
  1

  9
$DIMSTYLE
  2
STANDARD
  9
$DIMCLRD
 70
     0
  9
$DIMCLRE
 70
     0
  9
$DIMCLRT
 70
     0
  9
$DIMTFAC
 40
1.0
  9
$DIMGAP
 40
0.09
  9
$LUNITS
 70
     2
  9
$LUPREC
 70
     4
  9
$SKETCHINC
 40
0.1
  9
$FILLETRAD
 40
0.0
  9
$AUNITS
 70
     0
  9
$AUPREC
 70
     4
  9
$MENU
  1
E:\r13\win\SUPPORT\ACAD
  9
$ELEVATION
 40
0.0
  9
$PELEVATION
 40
0.0
  9
$THICKNESS
 40
0.0
  9
$LIMCHECK
 70
     0
  9
$BLIPMODE
 70
     0
  9
$CHAMFERA
 40
0.0
  9
$CHAMFERB
 40
0.0
  9
$SKPOLY
 70
     0
  9
$TDCREATE
 40
2449839.7932291669
  9
$TDUPDATE
 40
2456598.4634504281
  9
$TDINDWG
 40
0.0057704398
  9
$TDUSRTIMER
 40
0.0057704398
  9
$USRTIMER
 70
     1
  9
$ANGBASE
 50
0.0
  9
$ANGDIR
 70
     0
  9
$PDMODE
 70
     0
  9
$PDSIZE
 40
0.0
  9
$PLINEWID
 40
0.0
  9
$COORDS
 70
     1
  9
$SPLFRAME
 70
     0
  9
$SPLINETYPE
 70
     6
  9
$SPLINESEGS
 70
     8
  9
$ATTDIA
 70
     0
  9
$ATTREQ
 70
     1
  9
$HANDLING
 70
     1
  9
$HANDSEED
  5
463
  9
$SURFTAB1
 70
     6
  9
$SURFTAB2
 70
     6
  9
$SURFTYPE
 70
     6
  9
$SURFU
 70
     6
  9
$SURFV
 70
     6
  9
$UCSNAME
  2

  9
$UCSORG
 10
0.0
 20
0.0
 30
0.0
  9
$UCSXDIR
 10
1.0
 20
0.0
 30
0.0
  9
$UCSYDIR
 10
0.0
 20
1.0
 30
0.0
  9
$PUCSNAME
  2

  9
$PUCSORG
 10
0.0
 20
0.0
 30
0.0
  9
$PUCSXDIR
 10
1.0
 20
0.0
 30
0.0
  9
$PUCSYDIR
 10
0.0
 20
1.0
 30
0.0
  9
$USERI1
 70
     0
  9
$USERI2
 70
     1
  9
$USERI3
 70
     1
  9
$USERI4
 70
     0
  9
$USERI5
 70
     0
  9
$USERR1
 40
0.0
  9
$USERR2
 40
0.0
  9
$USERR3
 40
0.0
  9
$USERR4
 40
0.0
  9
$USERR5
 40
0.0
  9
$WORLDVIEW
 70
     1
  9
$SHADEDGE
 70
     3
  9
$SHADEDIF
 70
    70
  9
$TILEMODE
 70
     1
  9
$MAXACTVP
 70
    16
  9
$PLIMCHECK
 70
     0
  9
$PEXTMIN
 10
1.0000000000000000E+020
 20
1.0000000000000000E+020
 30
1.0000000000000000E+020
  9
$PEXTMAX
 10
-1.0000000000000000E+020
 20
-1.0000000000000000E+020
 30
-1.0000000000000000E+020
  9
$PLIMMIN
 10
0.0
 20
0.0
  9
$PLIMMAX
 10
12.0
 20
9.0
  9
$UNITMODE
 70
     0
  9
$VISRETAIN
 70
     0
  9
$PLINEGEN
 70
     0
  9
$PSLTSCALE
 70
     0
  0
ENDSEC
  0
SECTION
  2
TABLES
  0
TABLE
  2
VPORT
 70
     1
  0
VPORT
  2
*ACTIVE
 70
     0
 10
0.0
 20
0.0
 11
1.0
 21
1.0
 12
195.0581083320873
 22
133.5127261426681
 13
0.0
 23
0.0
 14
10.0
 24
10.0
 15
10.0
 25
10.0
 16
0.0
 26
0.0
 36
1.0
 17
0.0
 27
0.0
 37
0.0
 40
275.42274993631997
 41
1.831871345029239
 42
50.0
 43
0.0
 44
0.0
 50
0.0
 51
0.0
 71
     0
 72
   500
 73
     1
 74
     0
 75
     0
 76
     0
 77
     0
 78
     2
  0
ENDTAB
  0
TABLE
  2
LTYPE
 70
     3
  0
LTYPE
  2
CONTINUOUS
 70
     0
  3
Solid Line
 72
    65
 73
     0
 40
0.0
  0
LTYPE
  2
CENTER
 70
     0
  3
____ _ ____ _ ____ _ ____ _ ____ _ ____ _ ____
 72
    65
 73
     4
 40
2.0
 49
1.25
 49
-0.25
 49
0.25
 49
-0.25
  0
LTYPE
  2
PHANTOM2
 70
     0
  3
___ _ _ ___ _ _ ___ _ _ ___ _ _
 72
    65
 73
     6
 40
1.25
 49
0.625
 49
-0.125
 49
0.125
 49
-0.125
 49
0.125
 49
-0.125
  0
ENDTAB
  0
TABLE
  2
LAYER
 70
     3
  0
LAYER
  2
0
 70
     0
 62
     7
  6
CONTINUOUS
  0
LAYER
  2
1
 70
     0
 62
     1
  6
CENTER
  0
LAYER
  2
3
 70
     0
 62
     3
  6
CONTINUOUS
  0
ENDTAB
  0
TABLE
  2
STYLE
 70
     3
  0
STYLE
  2
STANDARD
 70
     0
 40
0.0
 41
1.0
 50
0.0
 71
     0
 42
4.000000000000048
  3
TXT
  4
BIGFONT
  0
STYLE
  2
SIM080
 70
     0
 40
0.0
 41
0.8
 50
0.0
 71
     0
 42
1.8
  3
SIMPLEX
  4

  0
STYLE
  2
STANDARD1
 70
     0
 40
0.0
 41
1.0
 50
0.0
 71
     0
 42
3.0
  3
txt
  4

  0
ENDTAB
  0
TABLE
  2
VIEW
 70
     1
  0
VIEW
  2
ALL
 70
     0
 40
270.0
 10
220.99159663865549
 20
135.0
 41
0.0
 11
0.0
 21
0.0
 31
1.0
 12
0.0
 22
0.0
 32
0.0
 42
0.0
 43
0.0
 44
0.0
 50
0.0
 71
     0
  0
ENDTAB
  0
TABLE
  2
UCS
 70
     0
  0
ENDTAB
  0
TABLE
  2
APPID
 70
     4
  0
APPID
  2
ACAD
 70
     0
  0
APPID
  2
ACAD_MLEADERVER
 70
     0
  0
APPID
  2
ACAD_NAV_VCDISPLAY
 70
     0
  0
APPID
  2
ACAD_EXEMPT_FROM_CAD_STANDARDS
 70
     0
  0
ENDTAB
  0
TABLE
  2
DIMSTYLE
 70
     2
  0
DIMSTYLE
  2
STANDARD
 70
     0
  3

  4

  5

  6

  7

 40
1.0
 41
0.18
 42
0.0625
 43
0.38
 44
0.18
 45
0.0
 46
0.0
 47
0.0
 48
0.0
140
0.18
141
0.09
142
0.0
143
25.399999999999999
144
1.0
145
0.0
146
1.0
147
0.09
 71
     0
 72
     0
 73
     1
 74
     1
 75
     0
 76
     0
 77
     0
 78
     0
170
     0
171
     2
172
     0
173
     0
174
     0
175
     0
176
     0
177
     0
178
     0
  0
DIMSTYLE
  2
ISO-25
 70
     0
  3

  4

  5

  6

  7

 40
1.0
 41
2.5
 42
0.625
 43
3.75
 44
1.25
 45
0.0
 46
0.0
 47
0.0
 48
0.0
140
2.5
141
2.5
142
0.0
143
0.03937007874016
144
1.0
145
0.0
146
1.0
147
0.625
 71
     0
 72
     0
 73
     0
 74
     0
 75
     0
 76
     0
 77
     1
 78
     8
170
     0
171
     3
172
     1
173
     0
174
     0
175
     0
176
     0
177
     0
178
     0
  0
ENDTAB
  0
ENDSEC
  0
SECTION
  2
BLOCKS
  0
BLOCK
  8
0
  2
$MODEL_SPACE
 70
     0
 10
0.0
 20
0.0
 30
0.0
  3
$MODEL_SPACE
  1

  0
ENDBLK
  5
1E6
  8
0
  0
BLOCK
 67
     1
  8
0
  2
$PAPER_SPACE
 70
     0
 10
0.0
 20
0.0
 30
0.0
  3
$PAPER_SPACE
  1

  0
ENDBLK
  5
1E4
 67
     1
  8
0
  0
ENDSEC
  0
SECTION
  2
ENTITIES
  0
LINE
  5
35
  8
0
 10
169.0000000000002
 20
50.000000000000007
 30
0.0
 11
209.0000000000002
 21
50.0
 31
0.0
  0
LINE
  5
36
  8
0
 10
169.00000000000011
 20
51.500000000000021
 30
0.0
 11
169.0000000000002
 21
50.000000000000007
 31
0.0
  0
LINE
  5
37
  8
0
 10
209.0000000000002
 20
51.5
 30
0.0
 11
209.0000000000002
 21
50.0
 31
0.0
  0
LINE
  5
38
  8
0
 10
168.74999999999989
 20
54.499999999999929
 30
0.0
 11
168.75
 21
51.500000000000043
 31
0.0
  0
LINE
  5
39
  8
0
 10
209.25
 20
54.500000000000021
 30
0.0
 11
209.25
 21
51.499999999999972
 31
0.0
  0
LINE
  5
3A
  8
0
 10
168.74999999999989
 20
54.499999999999929
 30
0.0
 11
209.25
 21
54.499999999999922
 31
0.0
  0
LINE
  5
3B
  8
0
 10
168.75
 20
51.500000000000043
 30
0.0
 11
209.25
 21
51.500000000000092
 31
0.0
  0
LINE
  5
3C
  8
0
 10
176.94149999999999
 20
41.499999999999979
 30
0.0
 11
176.94149999999999
 21
39.999999999999993
 31
0.0
  0
LINE
  5
3D
  8
3
 10
201.05850000000001
 20
50.000000000000007
 30
0.0
 11
201.05850000000001
 21
41.499999999999972
 31
0.0
  0
LINE
  5
3E
  8
0
 10
175.7794999999999
 20
41.499999999999979
 30
0.0
 11
202.22049999999999
 21
41.49999999999995
 31
0.0
  0
LINE
  5
3F
  8
0
 10
176.94149999999999
 20
39.999999999999993
 30
0.0
 11
201.0584999999999
 21
39.999999999999979
 31
0.0
  0
LINE
  5
40
  8
0
 10
175.7794999999999
 20
50.000000000000007
 30
0.0
 11
175.7794999999999
 21
41.499999999999979
 31
0.0
  0
LINE
  5
41
  8
3
 10
176.94149999999999
 20
50.000000000000007
 30
0.0
 11
176.94149999999999
 21
41.499999999999979
 31
0.0
  0
LINE
  5
42
  8
0
 10
202.22049999999999
 20
50.000000000000007
 30
0.0
 11
202.22049999999999
 21
41.499999999999972
 31
0.0
  0
LINE
  5
43
  8
0
 10
201.0584999999999
 20
41.499999999999972
 30
0.0
 11
201.0584999999999
 21
39.999999999999979
 31
0.0
  0
LINE
  5
44
  8
1
 10
189.0
 20
81.499999999999986
 30
0.0
 11
188.99999999999989
 21
34.999999999999993
 31
0.0
  0
LINE
  5
45
  8
0
 10
173.49999999999989
 20
56.500000000000043
 30
0.0
 11
173.49999999999989
 21
54.499999999999993
 31
0.0
  0
LINE
  5
46
  8
0
 10
204.49999999999989
 20
56.500000000000043
 30
0.0
 11
204.49999999999989
 21
54.499999999999993
 31
0.0
  0
LINE
  5
47
  8
1
 10
189.0
 20
165.0
 30
0.0
 11
189.0
 21
113.0
 31
0.0
  0
LINE
  5
48
  8
1
 10
215.0
 20
139.0
 30
0.0
 11
163.0
 21
139.0
 31
0.0
  0
TEXT
  5
49
  8
3
 10
196.98738027840631
 20
123.6474518115554
 30
0.0
 40
1.5
  1
A
 50
28.999999999999972
 41
0.8
  7
SIM080
 72
     1
 11
197.38720643024141
 21
123.8690790665252
 31
0.0
  0
TEXT
  5
4A
  8
3
 10
195.0391198477561
 20
122.7833717603507
 30
0.0
 40
1.5
  1
S
 50
21.749999999999961
 41
0.8
  7
SIM080
 72
     1
 11
195.41064366890481
 21
122.93159473535469
 31
0.0
  0
TEXT
  5
4B
  8
3
 10
192.97197637513389
 20
122.15804753427911
 30
0.0
 40
1.5
  1
E
 50
14.49999999999995
 41
0.8
  7
SIM080
 72
     1
 11
193.3315740701315
 21
122.2510458214993
 31
0.0
  0
TEXT
  5
4C
  8
3
 10
190.8431261832975
 20
121.7950461525931
 30
0.0
 40
1.5
  1
L
 50
7.2499999999999423
 41
0.8
  7
SIM080
 72
     1
 11
191.18324216604481
 21
121.83831437058249
 31
0.0
  0
TEXT
  5
4D
  8
3
 10
188.6285714285716
 20
121.7000000000419
 30
0.0
 40
1.5
  1
E
 50
360.0
 41
0.8
  7
SIM080
 72
     1
 11
189.0000000000002
 21
121.7000000000419
 31
0.0
  0
TEXT
  5
4E
  8
3
 10
186.76007183683109
 20
121.8455257402474
 30
0.0
 40
1.5
  1
.
 50
352.75
 41
0.8
  7
SIM080
 72
     1
 11
186.81675783395559
 21
121.83831437058249
 31
0.0
  0
TEXT
  5
4F
  8
3
 10
184.28116687371769
 20
122.3511978231211
 30
0.0
 40
1.5
  1
T
 50
345.5
 41
0.8
  7
SIM080
 72
     1
 11
184.6684259298689
 21
122.2510458214993
 31
0.0
  0
TEXT
  5
50
  8
3
 10
182.16475767835411
 20
123.1009924210733
 30
0.0
 40
1.5
  1
A
 50
338.25
 41
0.8
  7
SIM080
 72
     1
 11
182.58935633109559
 21
122.93159473535449
 31
0.0
  0
TEXT
  5
51
  8
3
 10
180.26294568690309
 20
124.0630029146235
 30
0.0
 40
1.5
  1
P
 50
331.0
 41
0.8
  7
SIM080
 72
     1
 11
180.61279356975879
 21
123.869079066525
 31
0.0
  0
ARC
  5
52
  8
0
 10
189.0
 20
139.0
 30
0.0
 40
20.0
 50
261.93320626438452
 51
278.06679373561383
  0
ARC
  5
53
  8
0
 10
189.0
 20
139.0
 30
0.0
 40
20.0
 50
225.93320626438449
 51
242.0667937356138
  0
ARC
  5
54
  8
0
 10
189.0
 20
139.0
 30
0.0
 40
20.0
 50
189.93320626438449
 51
206.0667937356138
  0
ARC
  5
55
  8
0
 10
189.0
 20
138.99999999999989
 30
0.0
 40
20.0
 50
153.93320626438449
 51
170.0667937356138
  0
ARC
  5
56
  8
0
 10
189.0
 20
139.0
 30
0.0
 40
20.0
 50
117.93320626438449
 51
134.0667937356138
  0
ARC
  5
57
  8
0
 10
189.0
 20
139.0
 30
0.0
 40
20.0
 50
81.933206264384538
 51
98.066793735613814
  0
ARC
  5
58
  8
0
 10
189.0
 20
139.0
 30
0.0
 40
20.0
 50
45.933206264384538
 51
62.066793735613821
  0
ARC
  5
59
  8
0
 10
189.0
 20
139.0
 30
0.0
 40
20.0
 50
9.933206264384534
 51
26.06679373561381
  0
ARC
  5
5A
  8
0
 10
189.0
 20
139.0
 30
0.0
 40
20.0
 50
333.93320626438452
 51
350.06679373561383
  0
ARC
  5
5B
  8
0
 10
189.0
 20
139.0
 30
0.0
 40
21.0
 50
242.54425731736501
 51
261.45574268263442
  0
LINE
  5
5C
  8
0
 10
179.6311614068471
 20
121.3301142217753
 30
0.0
 11
179.31767035279151
 21
120.36528796565651
 31
0.0
  0
LINE
  5
5D
  8
0
 10
186.19345136928291
 20
119.1978969605853
 30
0.0
 11
185.879960315229
 21
118.233070704472
 31
0.0
  0
ARC
  5
5E
  8
0
 10
189.0
 20
139.0
 30
0.0
 40
21.0
 50
206.54425731736501
 51
225.45574268263439
  0
LINE
  5
5F
  8
0
 10
171.0343520904504
 20
130.2116272729159
 30
0.0
 11
170.21362185576379
 21
129.6153318533961
 31
0.0
  0
LINE
  5
60
  8
0
 10
175.09007033126611
 20
124.6294100117269
 30
0.0
 11
174.26934009658419
 21
124.0331145922105
 31
0.0
  0
ARC
  5
61
  8
0
 10
189.0
 20
139.0
 30
0.0
 40
21.0
 50
170.54425731736501
 51
189.45574268263431
  0
LINE
  5
62
  8
0
 10
169.29980964558831
 20
142.44999999999999
 30
0.0
 11
168.28533128432611
 21
142.4499999999999
 31
0.0
  0
LINE
  5
63
  8
0
 10
169.29980964558521
 20
135.54999999999981
 30
0.0
 11
168.285331284329
 21
135.54999999999981
 31
0.0
  0
ARC
  5
64
  8
0
 10
189.0
 20
138.99999999999989
 30
0.0
 40
21.0
 50
134.54425731736501
 51
153.45574268263431
  0
LINE
  5
65
  8
0
 10
175.09007033126849
 20
153.37058998827109
 30
0.0
 11
174.2693400965818
 21
153.96688540779081
 31
0.0
  0
LINE
  5
66
  8
0
 10
171.0343520904479
 20
147.78837272708569
 30
0.0
 11
170.21362185576589
 21
148.38466814660191
 31
0.0
  0
ARC
  5
67
  8
0
 10
189.0
 20
139.0
 30
0.0
 40
21.0
 50
98.544257317364981
 51
117.45574268263429
  0
LINE
  5
68
  8
0
 10
186.19345136928359
 20
158.80210303941169
 30
0.0
 11
185.87996031522789
 21
159.76692929553039
 31
0.0
  0
LINE
  5
69
  8
0
 10
179.63116140684599
 20
156.66988577822741
 30
0.0
 11
179.31767035279211
 21
157.63471203434059
 31
0.0
  0
ARC
  5
6A
  8
0
 10
189.0
 20
139.0
 30
0.0
 40
21.0
 50
62.54425731736503
 51
81.455742682634323
  0
LINE
  5
6B
  8
0
 10
198.3688385931529
 20
156.6698857782246
 30
0.0
 11
198.68232964720841
 21
157.63471203434341
 31
0.0
  0
LINE
  5
6C
  8
0
 10
191.8065486307172
 20
158.80210303941459
 30
0.0
 11
192.120039684771
 21
159.76692929552789
 31
0.0
  0
ARC
  5
6D
  8
0
 10
189.0
 20
139.0
 30
0.0
 40
21.0
 50
26.544257317365041
 51
45.455742682634323
  0
LINE
  5
6E
  8
0
 10
206.96564790954949
 20
147.7883727270841
 30
0.0
 11
207.78637814423621
 21
148.38466814660379
 31
0.0
  0
LINE
  5
6F
  8
0
 10
202.90992966873389
 20
153.37058998827311
 30
0.0
 11
203.73065990341581
 21
153.96688540778939
 31
0.0
  0
ARC
  5
70
  8
0
 10
189.0
 20
139.0
 30
0.0
 40
21.0
 50
350.54425731736512
 51
9.4557426826343232
  0
LINE
  5
71
  8
0
 10
208.7001903544118
 20
135.55000000000001
 30
0.0
 11
209.71466871567389
 21
135.5500000000001
 31
0.0
  0
LINE
  5
72
  8
0
 10
208.70019035441479
 20
142.4500000000001
 30
0.0
 11
209.71466871567111
 21
142.45000000000019
 31
0.0
  0
ARC
  5
73
  8
0
 10
189.0
 20
139.0
 30
0.0
 40
21.0
 50
314.54425731736512
 51
333.45574268263442
  0
LINE
  5
74
  8
0
 10
202.90992966873151
 20
124.62941001172879
 30
0.0
 11
203.7306599034182
 21
124.0331145922092
 31
0.0
  0
LINE
  5
75
  8
0
 10
206.9656479095521
 20
130.21162727291431
 30
0.0
 11
207.78637814423399
 21
129.615331853398
 31
0.0
  0
LINE
  5
76
  8
0
 10
198.36883859315401
 20
121.3301142217725
 30
0.0
 11
198.68232964720789
 21
120.36528796565931
 31
0.0
  0
LINE
  5
77
  8
0
 10
191.80654863071641
 20
119.1978969605882
 30
0.0
 11
192.12003968477211
 21
118.2330707044694
 31
0.0
  0
ARC
  5
78
  8
0
 10
179.75000000000011
 20
140.44999999999999
 30
0.0
 40
1.45
 50
0.0
 51
180.0
  0
LINE
  5
79
  8
0
 10
178.3000000000001
 20
137.5499999999999
 30
0.0
 11
178.3000000000001
 21
140.44999999999999
 31
0.0
  0
LINE
  5
7A
  8
0
 10
181.2000000000001
 20
137.5499999999999
 30
0.0
 11
181.2000000000001
 21
140.44999999999999
 31
0.0
  0
ARC
  5
7B
  8
0
 10
179.75000000000011
 20
137.5499999999999
 30
0.0
 40
1.45
 50
180.0
 51
0.0
  0
ARC
  5
7C
  8
0
 10
179.75000000000011
 20
140.44999999999999
 30
0.0
 40
4.25
 50
0.0
 51
180.0
  0
ARC
  5
7D
  8
0
 10
179.75000000000011
 20
137.5499999999999
 30
0.0
 40
4.25
 50
180.0
 51
0.0
  0
LINE
  5
7E
  8
0
 10
184.00000000000011
 20
137.5499999999999
 30
0.0
 11
184.00000000000011
 21
140.44999999999999
 31
0.0
  0
LINE
  5
7F
  8
0
 10
175.50000000000011
 20
137.5499999999999
 30
0.0
 11
175.50000000000011
 21
140.44999999999999
 31
0.0
  0
LINE
  5
80
  8
0
 10
196.79999999999981
 20
136.09999999999999
 30
0.0
 11
196.79999999999981
 21
144.69999999999999
 31
0.0
  0
LINE
  5
81
  8
0
 10
202.50000000000011
 20
136.09999999999999
 30
0.0
 11
196.79999999999981
 21
136.09999999999999
 31
0.0
  0
LINE
  5
82
  8
0
 10
190.40000000000001
 20
133.2999999999999
 30
0.0
 11
187.59999999999999
 21
133.2999999999999
 31
0.0
  0
LINE
  5
83
  8
0
 10
193.99999999999989
 20
144.69999999999999
 30
0.0
 11
196.79999999999981
 21
144.69999999999999
 31
0.0
  0
LINE
  5
84
  8
0
 10
187.59999999999999
 20
144.69999999999999
 30
0.0
 11
190.40000000000001
 21
144.69999999999999
 31
0.0
  0
LINE
  5
85
  8
0
 10
193.99999999999989
 20
133.30000000000001
 30
0.0
 11
193.99999999999989
 21
144.69999999999999
 31
0.0
  0
LINE
  5
86
  8
0
 10
190.40000000000009
 20
144.69999999999999
 30
0.0
 11
190.40000000000009
 21
133.30000000000001
 31
0.0
  0
LINE
  5
87
  8
0
 10
187.60000000000011
 20
144.69999999999999
 30
0.0
 11
187.60000000000011
 21
133.30000000000001
 31
0.0
  0
LINE
  5
88
  8
0
 10
202.50000000000011
 20
133.30000000000001
 30
0.0
 11
193.99999999999989
 21
133.30000000000001
 31
0.0
  0
LINE
  5
89
  8
0
 10
202.50000000000011
 20
136.09999999999999
 30
0.0
 11
202.50000000000011
 21
133.30000000000001
 31
0.0
  0
CIRCLE
  5
8A
  8
0
 10
189.0
 20
139.0
 30
0.0
 40
18.5
  0
ARC
  5
8B
  8
0
 10
189.0
 20
139.0
 30
0.0
 40
20.0
 50
297.93320626438452
 51
314.06679373561383
  0
ARC
  5
8C
  8
0
 10
189.0
 20
139.0
 30
0.0
 40
21.0
 50
278.54425731736501
 51
297.45574268263431
  0
LINE
  5
8D
  8
0
 10
261.99999999999989
 20
120.5000000000002
 30
0.0
 11
261.99999999999989
 21
157.50000000000011
 31
0.0
  0
LINE
  5
8E
  8
0
 10
261.49999999999989
 20
144.69999999999999
 30
0.0
 11
262.0
 21
144.69999999999999
 31
0.0
  0
LINE
  5
8F
  8
0
 10
261.49999999999989
 20
133.30000000000001
 30
0.0
 11
261.99999999999989
 21
133.30000000000001
 31
0.0
  0
LINE
  5
90
  8
0
 10
261.49999999999989
 20
144.69999999999999
 30
0.0
 11
261.5
 21
133.30000000000001
 31
0.0
  0
LINE
  5
91
  8
0
 10
281.49999999999989
 20
154.49999999999989
 30
0.0
 11
283.5
 21
154.49999999999989
 31
0.0
  0
LINE
  5
92
  8
0
 10
281.49999999999989
 20
123.4999999999999
 30
0.0
 11
283.5
 21
123.4999999999999
 31
0.0
  0
LINE
  5
93
  8
1
 10
256.5
 20
139.0
 30
0.0
 11
303.0
 21
139.0
 31
0.0
  0
LINE
  5
94
  8
0
 10
262.0
 20
157.50000000000011
 30
0.0
 11
263.49999999999989
 21
159.00000000000011
 31
0.0
  0
LINE
  5
95
  8
0
 10
262.0
 20
120.5000000000002
 30
0.0
 11
263.49999999999989
 21
119.0000000000001
 31
0.0
  0
LINE
  5
96
  8
0
 10
296.5
 20
151.0584999999999
 30
0.0
 11
298.0
 21
151.0584999999999
 31
0.0
  0
LINE
  5
97
  8
0
 10
288.0
 20
152.22049999999999
 30
0.0
 11
296.5
 21
152.22049999999999
 31
0.0
  0
LINE
  5
98
  8
3
 10
288.0
 20
126.9415
 30
0.0
 11
296.5
 21
126.9415
 31
0.0
  0
LINE
  5
99
  8
0
 10
288.0
 20
125.7794999999999
 30
0.0
 11
296.5
 21
125.7794999999999
 31
0.0
  0
LINE
  5
9A
  8
0
 10
298.0
 20
126.9415
 30
0.0
 11
298.0
 21
151.0584999999999
 31
0.0
  0
LINE
  5
9B
  8
0
 10
296.5
 20
125.7794999999999
 30
0.0
 11
296.5
 21
152.22049999999999
 31
0.0
  0
LINE
  5
9C
  8
3
 10
288.0
 20
151.05850000000001
 30
0.0
 11
296.5
 21
151.05850000000001
 31
0.0
  0
LINE
  5
9D
  8
0
 10
296.5
 20
126.9415
 30
0.0
 11
298.0
 21
126.9415
 31
0.0
  0
LINE
  5
9E
  8
0
 10
286.49999999999989
 20
118.75
 30
0.0
 11
286.49999999999989
 21
159.25
 31
0.0
  0
LINE
  5
9F
  8
0
 10
283.5
 20
118.75
 30
0.0
 11
283.5
 21
159.25
 31
0.0
  0
LINE
  5
A0
  8
0
 10
283.49999999999989
 20
159.25
 30
0.0
 11
286.5
 21
159.25
 31
0.0
  0
LINE
  5
A1
  8
0
 10
283.5
 20
118.75
 30
0.0
 11
286.49999999999989
 21
118.75
 31
0.0
  0
LINE
  5
A2
  8
0
 10
281.49999999999989
 20
159.7669292955278
 30
0.0
 11
281.49999999999989
 21
118.233070704472
 31
0.0
  0
LINE
  5
A3
  8
0
 10
286.5
 20
159.0000000000002
 30
0.0
 11
288.0
 21
159.0000000000002
 31
0.0
  0
LINE
  5
A4
  8
0
 10
286.5
 20
119.0000000000002
 30
0.0
 11
288.0
 21
119.0000000000002
 31
0.0
  0
LINE
  5
A5
  8
0
 10
288.0
 20
119.0000000000002
 30
0.0
 11
288.0
 21
159.0000000000002
 31
0.0
  0
LINE
  5
A6
  8
0
 10
207.4999999999998
 20
76.000000000000057
 30
0.0
 11
209.99999999999989
 21
73.500000000000057
 31
0.0
  0
LINE
  5
A7
  8
0
 10
209.99999999999989
 20
73.500000000000057
 30
0.0
 11
209.9999999999998
 21
56.50000000000005
 31
0.0
  0
LINE
  5
A8
  8
0
 10
209.9999999999998
 20
73.500000000000085
 30
0.0
 11
209.71466871567191
 21
73.500000000000114
 31
0.0
  0
LINE
  5
A9
  8
0
 10
192.12003968477109
 20
73.499999999999886
 30
0.0
 11
192.12003968477109
 21
56.50000000000005
 31
0.0
  0
LINE
  5
AA
  8
0
 10
191.80654863071589
 20
74.499999999999744
 30
0.0
 11
191.80654863071589
 21
56.50000000000005
 31
0.0
  0
LINE
  5
AB
  8
0
 10
208.70019035441121
 20
74.499999999999886
 30
0.0
 11
206.9656479095502
 21
74.499999999999886
 31
0.0
  0
LINE
  5
AC
  8
0
 10
191.80654863071589
 20
74.499999999999844
 30
0.0
 11
192.12003968477109
 21
73.500000000000085
 31
0.0
  0
LINE
  5
AD
  8
0
 10
198.68232964720809
 20
73.500000000000142
 30
0.0
 11
198.68232964720809
 21
56.500000000000313
 31
0.0
  0
LINE
  5
AE
  8
0
 10
203.7306599034157
 20
73.500000000000142
 30
0.0
 11
203.7306599034157
 21
56.500000000000313
 31
0.0
  0
LINE
  5
AF
  8
0
 10
207.78637814423561
 20
73.499999999999886
 30
0.0
 11
207.78637814423561
 21
56.50000000000005
 31
0.0
  0
LINE
  5
B0
  8
0
 10
209.71466871567191
 20
73.499999999999886
 30
0.0
 11
209.71466871567191
 21
56.50000000000005
 31
0.0
  0
LINE
  5
B1
  8
0
 10
198.68232964720801
 20
73.500000000000114
 30
0.0
 11
192.12003968477109
 21
73.500000000000085
 31
0.0
  0
LINE
  5
B2
  8
0
 10
207.78637814423561
 20
73.500000000000114
 30
0.0
 11
203.7306599034157
 21
73.500000000000114
 31
0.0
  0
LINE
  5
B3
  8
0
 10
202.9099296687302
 20
74.499999999999886
 30
0.0
 11
202.9099296687302
 21
56.500000000000028
 31
0.0
  0
LINE
  5
B4
  8
0
 10
208.70019035441121
 20
74.499999999999886
 30
0.0
 11
208.70019035441189
 21
56.50000000000005
 31
0.0
  0
LINE
  5
B5
  8
0
 10
198.36883859315299
 20
74.499999999999886
 30
0.0
 11
198.68232964720809
 21
73.500000000000114
 31
0.0
  0
LINE
  5
B6
  8
0
 10
202.9099296687304
 20
74.499999999999886
 30
0.0
 11
203.7306599034157
 21
73.500000000000142
 31
0.0
  0
LINE
  5
B7
  8
0
 10
207.78637814423561
 20
73.500000000000142
 30
0.0
 11
206.9656479095502
 21
74.499999999999886
 31
0.0
  0
LINE
  5
B8
  8
0
 10
209.71466871567191
 20
73.500000000000142
 30
0.0
 11
208.70019035441121
 21
74.499999999999844
 31
0.0
  0
LINE
  5
B9
  8
0
 10
202.9099296687304
 20
74.499999999999886
 30
0.0
 11
198.3688385931531
 21
74.499999999999915
 31
0.0
  0
LINE
  5
BA
  8
0
 10
186.19345136928411
 20
74.499999999999886
 30
0.0
 11
191.80654863071581
 21
74.499999999999844
 31
0.0
  0
LINE
  5
BB
  8
0
 10
175.0900703312696
 20
74.499999999999886
 30
0.0
 11
179.6311614068469
 21
74.499999999999915
 31
0.0
  0
LINE
  5
BC
  8
0
 10
168.28533128432809
 20
73.500000000000142
 30
0.0
 11
169.29980964558871
 21
74.499999999999844
 31
0.0
  0
LINE
  5
BD
  8
0
 10
170.21362185576439
 20
73.500000000000142
 30
0.0
 11
171.03435209044969
 21
74.499999999999886
 31
0.0
  0
LINE
  5
BE
  8
0
 10
175.0900703312696
 20
74.499999999999886
 30
0.0
 11
174.2693400965843
 21
73.500000000000142
 31
0.0
  0
LINE
  5
BF
  8
0
 10
179.63116140684701
 20
74.499999999999886
 30
0.0
 11
179.31767035279191
 21
73.500000000000114
 31
0.0
  0
LINE
  5
C0
  8
0
 10
169.29980964558879
 20
74.499999999999886
 30
0.0
 11
169.299809645588
 21
56.50000000000005
 31
0.0
  0
LINE
  5
C1
  8
0
 10
175.09007033126969
 20
74.499999999999886
 30
0.0
 11
175.09007033126969
 21
56.500000000000028
 31
0.0
  0
LINE
  5
C2
  8
0
 10
170.2136218557643
 20
73.500000000000114
 30
0.0
 11
174.26934009658419
 21
73.500000000000114
 31
0.0
  0
LINE
  5
C3
  8
0
 10
179.31767035279199
 20
73.500000000000114
 30
0.0
 11
185.87996031522891
 21
73.500000000000085
 31
0.0
  0
LINE
  5
C4
  8
0
 10
168.28533128432801
 20
73.499999999999886
 30
0.0
 11
168.28533128432801
 21
56.50000000000005
 31
0.0
  0
LINE
  5
C5
  8
0
 10
170.2136218557643
 20
73.499999999999886
 30
0.0
 11
170.2136218557643
 21
56.50000000000005
 31
0.0
  0
LINE
  5
C6
  8
0
 10
174.26934009658419
 20
73.500000000000142
 30
0.0
 11
174.26934009658419
 21
56.500000000000313
 31
0.0
  0
LINE
  5
C7
  8
0
 10
179.31767035279191
 20
73.500000000000142
 30
0.0
 11
179.31767035279191
 21
56.500000000000313
 31
0.0
  0
LINE
  5
C8
  8
0
 10
186.19345136928399
 20
74.499999999999844
 30
0.0
 11
185.87996031522891
 21
73.500000000000085
 31
0.0
  0
LINE
  5
C9
  8
0
 10
169.29980964558871
 20
74.499999999999886
 30
0.0
 11
171.03435209044969
 21
74.499999999999886
 31
0.0
  0
LINE
  5
CA
  8
0
 10
186.19345136928399
 20
74.499999999999744
 30
0.0
 11
186.19345136928399
 21
56.50000000000005
 31
0.0
  0
LINE
  5
CB
  8
0
 10
185.87996031522891
 20
73.499999999999886
 30
0.0
 11
185.87996031522891
 21
56.50000000000005
 31
0.0
  0
LINE
  5
CC
  8
0
 10
168.0000000000002
 20
73.500000000000085
 30
0.0
 11
168.28533128432801
 21
73.500000000000114
 31
0.0
  0
LINE
  5
CD
  8
0
 10
187.59999999999999
 20
76.500000000000057
 30
0.0
 11
190.40000000000001
 21
76.500000000000057
 31
0.0
  0
LINE
  5
CE
  8
0
 10
193.99999999999969
 20
76.500000000000057
 30
0.0
 11
202.5
 21
76.500000000000057
 31
0.0
  0
LINE
  5
CF
  8
0
 10
175.50000000000011
 20
76.500000000000057
 30
0.0
 11
184.0
 21
76.5
 31
0.0
  0
LINE
  5
D0
  8
0
 10
175.5
 20
76.000000000000057
 30
0.0
 11
175.5
 21
76.500000000000057
 31
0.0
  0
LINE
  5
D1
  8
0
 10
184.0
 20
76.000000000000057
 30
0.0
 11
184.0
 21
76.5
 31
0.0
  0
LINE
  5
D2
  8
0
 10
187.59999999999999
 20
76.500000000000057
 30
0.0
 11
187.59999999999999
 21
76.000000000000057
 31
0.0
  0
LINE
  5
D3
  8
0
 10
190.40000000000001
 20
76.500000000000057
 30
0.0
 11
190.40000000000001
 21
76.000000000000057
 31
0.0
  0
LINE
  5
D4
  8
0
 10
193.99999999999969
 20
76.000000000000057
 30
0.0
 11
193.99999999999969
 21
76.500000000000057
 31
0.0
  0
LINE
  5
D5
  8
0
 10
202.5
 20
76.500000000000057
 30
0.0
 11
202.5
 21
76.000000000000057
 31
0.0
  0
LINE
  5
D6
  8
0
 10
168.00000000000011
 20
73.500000000000057
 30
0.0
 11
168.0000000000002
 21
56.50000000000005
 31
0.0
  0
LINE
  5
D7
  8
0
 10
170.5000000000002
 20
76.000000000000057
 30
0.0
 11
168.00000000000011
 21
73.500000000000057
 31
0.0
  0
LINE
  5
D8
  8
0
 10
170.5000000000002
 20
76.000000000000057
 30
0.0
 11
207.50000000000011
 21
76.000000000000057
 31
0.0
  0
LINE
  5
D9
  8
0
 10
168.0000000000002
 20
56.50000000000005
 30
0.0
 11
210.0
 21
56.50000000000005
 31
0.0
  0
LINE
  5
DA
  8
0
 10
264.49999999999989
 20
118.233070704472
 30
0.0
 11
281.49999999999989
 21
118.233070704472
 31
0.0
  0
LINE
  5
DB
  8
0
 10
264.49999999999989
 20
120.36528796565931
 30
0.0
 11
281.49999999999989
 21
120.36528796565931
 31
0.0
  0
LINE
  5
DC
  8
0
 10
264.49999999999989
 20
124.03311459221069
 30
0.0
 11
281.49999999999989
 21
124.03311459221069
 31
0.0
  0
LINE
  5
DD
  8
0
 10
264.49999999999989
 20
129.615331853398
 30
0.0
 11
281.49999999999989
 21
129.615331853398
 31
0.0
  0
LINE
  5
DE
  8
0
 10
263.49999999999989
 20
135.5500000000001
 30
0.0
 11
281.49999999999989
 21
135.5500000000001
 31
0.0
  0
LINE
  5
DF
  8
0
 10
263.49999999999989
 20
142.45000000000019
 30
0.0
 11
281.49999999999989
 21
142.45000000000019
 31
0.0
  0
LINE
  5
E0
  8
0
 10
264.49999999999989
 20
148.38466814660211
 30
0.0
 11
281.49999999999989
 21
148.38466814660211
 31
0.0
  0
LINE
  5
E1
  8
0
 10
264.49999999999989
 20
153.96688540778931
 30
0.0
 11
281.49999999999989
 21
153.96688540778931
 31
0.0
  0
LINE
  5
E2
  8
0
 10
264.49999999999989
 20
157.63471203434079
 30
0.0
 11
281.49999999999989
 21
157.63471203434079
 31
0.0
  0
LINE
  5
E3
  8
0
 10
264.49999999999989
 20
159.7669292955278
 30
0.0
 11
281.49999999999989
 21
159.7669292955278
 31
0.0
  0
LINE
  5
E4
  8
0
 10
263.49999999999989
 20
156.66988577822329
 30
0.0
 11
281.49999999999989
 21
156.66988577822329
 31
0.0
  0
LINE
  5
E5
  8
0
 10
263.49999999999989
 20
147.78837272708321
 30
0.0
 11
281.49999999999989
 21
147.78837272708321
 31
0.0
  0
LINE
  5
E6
  8
0
 10
263.49999999999989
 20
130.21162727291701
 30
0.0
 11
281.49999999999989
 21
130.21162727291701
 31
0.0
  0
LINE
  5
E7
  8
0
 10
263.49999999999989
 20
121.3301142217767
 30
0.0
 11
281.49999999999989
 21
121.3301142217768
 31
0.0
  0
LINE
  5
E8
  8
0
 10
264.49999999999989
 20
118.233070704472
 30
0.0
 11
264.49999999999989
 21
120.36528796565931
 31
0.0
  0
LINE
  5
E9
  8
0
 10
264.49999999999989
 20
124.03311459221069
 30
0.0
 11
264.49999999999989
 21
129.615331853398
 31
0.0
  0
LINE
  5
EA
  8
0
 10
264.49999999999989
 20
135.5500000000001
 30
0.0
 11
264.49999999999989
 21
142.45000000000019
 31
0.0
  0
LINE
  5
EB
  8
0
 10
264.49999999999989
 20
148.38466814660211
 30
0.0
 11
264.49999999999989
 21
153.96688540778931
 31
0.0
  0
LINE
  5
EC
  8
0
 10
264.49999999999989
 20
157.63471203434079
 30
0.0
 11
264.49999999999989
 21
159.7669292955278
 31
0.0
  0
LINE
  5
ED
  8
0
 10
263.49999999999989
 20
158.80210303941041
 30
0.0
 11
263.49999999999989
 21
159.00000000000011
 31
0.0
  0
LINE
  5
EE
  8
0
 10
263.49999999999989
 20
119.1978969605894
 30
0.0
 11
263.49999999999989
 21
119.0000000000001
 31
0.0
  0
LINE
  5
EF
  8
0
 10
264.5
 20
159.7669292955278
 30
0.0
 11
263.49999999999989
 21
158.80210303941041
 31
0.0
  0
LINE
  5
F0
  8
0
 10
264.49999999999989
 20
157.63471203434079
 30
0.0
 11
263.49999999999989
 21
156.66988577822329
 31
0.0
  0
LINE
  5
F1
  8
0
 10
263.49999999999989
 20
156.66988577822329
 30
0.0
 11
263.49999999999989
 21
153.3705899882703
 31
0.0
  0
LINE
  5
F2
  8
0
 10
263.49999999999989
 20
153.3705899882703
 30
0.0
 11
264.49999999999989
 21
153.96688540778931
 31
0.0
  0
LINE
  5
F3
  8
0
 10
264.49999999999989
 20
148.38466814660211
 30
0.0
 11
263.49999999999989
 21
147.78837272708321
 31
0.0
  0
LINE
  5
F4
  8
0
 10
263.49999999999989
 20
147.78837272708321
 30
0.0
 11
263.49999999999989
 21
142.45000000000019
 31
0.0
  0
LINE
  5
F5
  8
0
 10
263.49999999999989
 20
119.1978969605894
 30
0.0
 11
264.49999999999989
 21
118.233070704472
 31
0.0
  0
LINE
  5
F6
  8
0
 10
264.49999999999989
 20
120.36528796565931
 30
0.0
 11
263.49999999999989
 21
121.3301142217767
 31
0.0
  0
LINE
  5
F7
  8
0
 10
263.49999999999989
 20
121.3301142217767
 30
0.0
 11
263.49999999999989
 21
124.6294100117296
 31
0.0
  0
LINE
  5
F8
  8
0
 10
263.49999999999989
 20
124.6294100117296
 30
0.0
 11
264.49999999999989
 21
124.03311459221069
 31
0.0
  0
LINE
  5
F9
  8
0
 10
264.49999999999989
 20
129.615331853398
 30
0.0
 11
263.49999999999989
 21
130.21162727291701
 31
0.0
  0
LINE
  5
FA
  8
0
 10
263.49999999999989
 20
130.21162727291701
 30
0.0
 11
263.49999999999989
 21
135.5500000000001
 31
0.0
  0
LINE
  5
104
  8
0
 10
168.0000000000002
 20
221.49999999999989
 30
0.0
 11
210.0
 21
221.49999999999989
 31
0.0
  0
LINE
  5
105
  8
0
 10
170.5000000000002
 20
202.0
 30
0.0
 11
207.50000000000011
 21
202.0
 31
0.0
  0
LINE
  5
106
  8
0
 10
170.5000000000002
 20
202.0
 30
0.0
 11
168.00000000000011
 21
204.49999999999989
 31
0.0
  0
LINE
  5
107
  8
0
 10
168.00000000000011
 20
204.49999999999989
 30
0.0
 11
168.0000000000002
 21
221.49999999999989
 31
0.0
  0
LINE
  5
108
  8
0
 10
202.5
 20
201.5
 30
0.0
 11
202.5
 21
202.0
 31
0.0
  0
LINE
  5
109
  8
0
 10
193.99999999999969
 20
202.0
 30
0.0
 11
193.99999999999969
 21
201.5
 31
0.0
  0
LINE
  5
10A
  8
0
 10
190.40000000000001
 20
201.5
 30
0.0
 11
190.40000000000001
 21
202.0
 31
0.0
  0
LINE
  5
10B
  8
0
 10
187.59999999999999
 20
201.5
 30
0.0
 11
187.59999999999999
 21
202.0
 31
0.0
  0
LINE
  5
10C
  8
0
 10
184.0
 20
202.0
 30
0.0
 11
184.0
 21
201.5
 31
0.0
  0
LINE
  5
10D
  8
0
 10
175.5
 20
202.0
 30
0.0
 11
175.5
 21
201.5
 31
0.0
  0
LINE
  5
10E
  8
0
 10
175.50000000000011
 20
201.5
 30
0.0
 11
184.0
 21
201.5
 31
0.0
  0
LINE
  5
10F
  8
0
 10
193.99999999999969
 20
201.5
 30
0.0
 11
202.5
 21
201.5
 31
0.0
  0
LINE
  5
110
  8
0
 10
187.59999999999999
 20
201.5
 30
0.0
 11
190.40000000000001
 21
201.5
 31
0.0
  0
LINE
  5
111
  8
0
 10
168.0000000000002
 20
204.49999999999989
 30
0.0
 11
168.28533128432801
 21
204.49999999999989
 31
0.0
  0
LINE
  5
112
  8
0
 10
185.87996031522891
 20
204.50000000000011
 30
0.0
 11
185.87996031522891
 21
221.49999999999989
 31
0.0
  0
LINE
  5
113
  8
0
 10
186.19345136928399
 20
203.50000000000031
 30
0.0
 11
186.19345136928399
 21
221.49999999999989
 31
0.0
  0
LINE
  5
114
  8
0
 10
169.29980964558871
 20
203.50000000000011
 30
0.0
 11
171.03435209044969
 21
203.50000000000011
 31
0.0
  0
LINE
  5
115
  8
0
 10
186.19345136928399
 20
203.50000000000011
 30
0.0
 11
185.87996031522891
 21
204.49999999999989
 31
0.0
  0
LINE
  5
116
  8
0
 10
179.31767035279191
 20
204.49999999999989
 30
0.0
 11
179.31767035279191
 21
221.49999999999969
 31
0.0
  0
LINE
  5
117
  8
0
 10
174.26934009658419
 20
204.49999999999989
 30
0.0
 11
174.26934009658419
 21
221.49999999999969
 31
0.0
  0
LINE
  5
118
  8
0
 10
170.2136218557643
 20
204.50000000000011
 30
0.0
 11
170.2136218557643
 21
221.49999999999989
 31
0.0
  0
LINE
  5
119
  8
0
 10
168.28533128432801
 20
204.50000000000011
 30
0.0
 11
168.28533128432801
 21
221.49999999999989
 31
0.0
  0
LINE
  5
11A
  8
0
 10
179.31767035279199
 20
204.49999999999989
 30
0.0
 11
185.87996031522891
 21
204.49999999999989
 31
0.0
  0
LINE
  5
11B
  8
0
 10
170.2136218557643
 20
204.49999999999989
 30
0.0
 11
174.26934009658419
 21
204.49999999999989
 31
0.0
  0
LINE
  5
11C
  8
0
 10
175.09007033126969
 20
203.50000000000011
 30
0.0
 11
175.09007033126969
 21
221.5
 31
0.0
  0
LINE
  5
11D
  8
0
 10
169.29980964558879
 20
203.50000000000011
 30
0.0
 11
169.299809645588
 21
221.49999999999989
 31
0.0
  0
LINE
  5
11E
  8
0
 10
179.63116140684701
 20
203.50000000000011
 30
0.0
 11
179.31767035279191
 21
204.49999999999989
 31
0.0
  0
LINE
  5
11F
  8
0
 10
175.0900703312696
 20
203.50000000000011
 30
0.0
 11
174.2693400965843
 21
204.49999999999989
 31
0.0
  0
LINE
  5
120
  8
0
 10
170.21362185576439
 20
204.49999999999989
 30
0.0
 11
171.03435209044969
 21
203.50000000000011
 31
0.0
  0
LINE
  5
121
  8
0
 10
168.28533128432809
 20
204.49999999999989
 30
0.0
 11
169.29980964558871
 21
203.50000000000011
 31
0.0
  0
LINE
  5
122
  8
0
 10
175.0900703312696
 20
203.50000000000011
 30
0.0
 11
179.6311614068469
 21
203.50000000000011
 31
0.0
  0
LINE
  5
123
  8
0
 10
186.19345136928411
 20
203.50000000000011
 30
0.0
 11
191.80654863071581
 21
203.50000000000011
 31
0.0
  0
LINE
  5
124
  8
0
 10
202.9099296687304
 20
203.50000000000011
 30
0.0
 11
198.3688385931531
 21
203.50000000000011
 31
0.0
  0
LINE
  5
125
  8
0
 10
209.71466871567191
 20
204.49999999999989
 30
0.0
 11
208.70019035441121
 21
203.50000000000011
 31
0.0
  0
LINE
  5
126
  8
0
 10
207.78637814423561
 20
204.49999999999989
 30
0.0
 11
206.9656479095502
 21
203.50000000000011
 31
0.0
  0
LINE
  5
127
  8
0
 10
202.9099296687304
 20
203.50000000000011
 30
0.0
 11
203.7306599034157
 21
204.49999999999989
 31
0.0
  0
LINE
  5
128
  8
0
 10
198.36883859315299
 20
203.50000000000011
 30
0.0
 11
198.68232964720809
 21
204.49999999999989
 31
0.0
  0
LINE
  5
129
  8
0
 10
208.70019035441121
 20
203.50000000000011
 30
0.0
 11
208.70019035441189
 21
221.49999999999989
 31
0.0
  0
LINE
  5
12A
  8
0
 10
202.9099296687302
 20
203.50000000000011
 30
0.0
 11
202.9099296687302
 21
221.5
 31
0.0
  0
LINE
  5
12B
  8
0
 10
207.78637814423561
 20
204.49999999999989
 30
0.0
 11
203.7306599034157
 21
204.49999999999989
 31
0.0
  0
LINE
  5
12C
  8
0
 10
198.68232964720801
 20
204.49999999999989
 30
0.0
 11
192.12003968477109
 21
204.49999999999989
 31
0.0
  0
LINE
  5
12D
  8
0
 10
209.71466871567191
 20
204.50000000000011
 30
0.0
 11
209.71466871567191
 21
221.49999999999989
 31
0.0
  0
LINE
  5
12E
  8
0
 10
207.78637814423561
 20
204.50000000000011
 30
0.0
 11
207.78637814423561
 21
221.49999999999989
 31
0.0
  0
LINE
  5
12F
  8
0
 10
203.7306599034157
 20
204.49999999999989
 30
0.0
 11
203.7306599034157
 21
221.49999999999969
 31
0.0
  0
LINE
  5
130
  8
0
 10
198.68232964720809
 20
204.49999999999989
 30
0.0
 11
198.68232964720809
 21
221.49999999999969
 31
0.0
  0
LINE
  5
131
  8
0
 10
191.80654863071589
 20
203.50000000000011
 30
0.0
 11
192.12003968477109
 21
204.49999999999989
 31
0.0
  0
LINE
  5
132
  8
0
 10
208.70019035441121
 20
203.50000000000011
 30
0.0
 11
206.9656479095502
 21
203.50000000000011
 31
0.0
  0
LINE
  5
133
  8
0
 10
191.80654863071589
 20
203.50000000000031
 30
0.0
 11
191.80654863071589
 21
221.49999999999989
 31
0.0
  0
LINE
  5
134
  8
0
 10
192.12003968477109
 20
204.50000000000011
 30
0.0
 11
192.12003968477109
 21
221.49999999999989
 31
0.0
  0
LINE
  5
135
  8
0
 10
209.9999999999998
 20
204.49999999999989
 30
0.0
 11
209.71466871567191
 21
204.49999999999989
 31
0.0
  0
LINE
  5
136
  8
0
 10
209.99999999999989
 20
204.49999999999989
 30
0.0
 11
209.9999999999998
 21
221.49999999999989
 31
0.0
  0
LINE
  5
137
  8
0
 10
207.4999999999998
 20
202.0
 30
0.0
 11
209.99999999999989
 21
204.49999999999989
 31
0.0
  0
LINE
  5
138
  8
0
 10
204.49999999999989
 20
221.49999999999989
 30
0.0
 11
204.49999999999989
 21
223.5
 31
0.0
  0
LINE
  5
139
  8
0
 10
173.49999999999989
 20
221.49999999999989
 30
0.0
 11
173.49999999999989
 21
223.5
 31
0.0
  0
LINE
  5
13A
  8
1
 10
189.0
 20
196.5
 30
0.0
 11
188.99999999999989
 21
243.0
 31
0.0
  0
LINE
  5
13B
  8
0
 10
201.0584999999999
 20
236.5
 30
0.0
 11
201.0584999999999
 21
238.0
 31
0.0
  0
LINE
  5
13C
  8
0
 10
202.22049999999999
 20
228.0
 30
0.0
 11
202.22049999999999
 21
236.5
 31
0.0
  0
LINE
  5
13D
  8
3
 10
176.94149999999999
 20
228.0
 30
0.0
 11
176.94149999999999
 21
236.5
 31
0.0
  0
LINE
  5
13E
  8
0
 10
175.7794999999999
 20
228.0
 30
0.0
 11
175.7794999999999
 21
236.5
 31
0.0
  0
LINE
  5
13F
  8
0
 10
176.94149999999999
 20
238.0
 30
0.0
 11
201.0584999999999
 21
238.0
 31
0.0
  0
LINE
  5
140
  8
0
 10
175.7794999999999
 20
236.5
 30
0.0
 11
202.22049999999999
 21
236.50000000000011
 31
0.0
  0
LINE
  5
141
  8
3
 10
201.05850000000001
 20
228.0
 30
0.0
 11
201.05850000000001
 21
236.5
 31
0.0
  0
LINE
  5
142
  8
0
 10
176.94149999999999
 20
236.5
 30
0.0
 11
176.94149999999999
 21
238.0
 31
0.0
  0
LINE
  5
143
  8
0
 10
168.75
 20
226.5
 30
0.0
 11
209.25
 21
226.49999999999989
 31
0.0
  0
LINE
  5
144
  8
0
 10
168.74999999999989
 20
223.50000000000011
 30
0.0
 11
209.25
 21
223.50000000000011
 31
0.0
  0
LINE
  5
145
  8
0
 10
209.25
 20
223.5
 30
0.0
 11
209.25
 21
226.5
 31
0.0
  0
LINE
  5
146
  8
0
 10
168.74999999999989
 20
223.50000000000011
 30
0.0
 11
168.75
 21
226.5
 31
0.0
  0
LINE
  5
147
  8
0
 10
209.0000000000002
 20
226.5
 30
0.0
 11
209.0000000000002
 21
228.0
 31
0.0
  0
LINE
  5
148
  8
0
 10
169.00000000000011
 20
226.5
 30
0.0
 11
169.0000000000002
 21
228.0
 31
0.0
  0
LINE
  5
149
  8
0
 10
169.0000000000002
 20
228.0
 30
0.0
 11
209.0000000000002
 21
228.0
 31
0.0
  0
LINE
  5
14A
  8
0
 10
114.5000000000001
 20
130.21162727291701
 30
0.0
 11
114.5000000000001
 21
135.5500000000001
 31
0.0
  0
LINE
  5
14B
  8
0
 10
113.5000000000001
 20
129.615331853398
 30
0.0
 11
114.5000000000001
 21
130.21162727291701
 31
0.0
  0
LINE
  5
14C
  8
0
 10
114.5000000000001
 20
124.6294100117296
 30
0.0
 11
113.5000000000001
 21
124.03311459221069
 31
0.0
  0
LINE
  5
14D
  8
0
 10
114.5000000000001
 20
121.3301142217767
 30
0.0
 11
114.5000000000001
 21
124.6294100117296
 31
0.0
  0
LINE
  5
14E
  8
0
 10
113.5000000000001
 20
120.36528796565931
 30
0.0
 11
114.5000000000001
 21
121.3301142217767
 31
0.0
  0
LINE
  5
14F
  8
0
 10
114.5000000000001
 20
119.1978969605894
 30
0.0
 11
113.5000000000001
 21
118.233070704472
 31
0.0
  0
LINE
  5
150
  8
0
 10
114.5000000000001
 20
147.78837272708321
 30
0.0
 11
114.5000000000001
 21
142.45000000000019
 31
0.0
  0
LINE
  5
151
  8
0
 10
113.5000000000001
 20
148.38466814660211
 30
0.0
 11
114.5000000000001
 21
147.78837272708321
 31
0.0
  0
LINE
  5
152
  8
0
 10
114.5000000000001
 20
153.3705899882703
 30
0.0
 11
113.5000000000001
 21
153.96688540778931
 31
0.0
  0
LINE
  5
153
  8
0
 10
114.5000000000001
 20
156.66988577822329
 30
0.0
 11
114.5000000000001
 21
153.3705899882703
 31
0.0
  0
LINE
  5
154
  8
0
 10
113.5000000000001
 20
157.63471203434079
 30
0.0
 11
114.5000000000001
 21
156.66988577822329
 31
0.0
  0
LINE
  5
155
  8
0
 10
113.5
 20
159.7669292955278
 30
0.0
 11
114.5000000000001
 21
158.80210303941041
 31
0.0
  0
LINE
  5
156
  8
0
 10
114.5000000000001
 20
119.1978969605894
 30
0.0
 11
114.5000000000001
 21
119.0000000000001
 31
0.0
  0
LINE
  5
157
  8
0
 10
114.5000000000001
 20
158.80210303941041
 30
0.0
 11
114.5
 21
159.00000000000011
 31
0.0
  0
LINE
  5
158
  8
0
 10
113.5000000000001
 20
157.63471203434079
 30
0.0
 11
113.5000000000001
 21
159.7669292955278
 31
0.0
  0
LINE
  5
159
  8
0
 10
113.5000000000001
 20
148.38466814660211
 30
0.0
 11
113.5000000000001
 21
153.96688540778931
 31
0.0
  0
LINE
  5
15A
  8
0
 10
113.5000000000001
 20
135.5500000000001
 30
0.0
 11
113.5000000000001
 21
142.45000000000019
 31
0.0
  0
LINE
  5
15B
  8
0
 10
113.5000000000001
 20
124.03311459221069
 30
0.0
 11
113.5000000000001
 21
129.615331853398
 31
0.0
  0
LINE
  5
15C
  8
0
 10
113.5000000000001
 20
118.233070704472
 30
0.0
 11
113.5000000000001
 21
120.36528796565931
 31
0.0
  0
LINE
  5
15D
  8
0
 10
114.5000000000001
 20
121.3301142217767
 30
0.0
 11
96.500000000000057
 21
121.3301142217768
 31
0.0
  0
LINE
  5
15E
  8
0
 10
114.5000000000001
 20
130.21162727291701
 30
0.0
 11
96.500000000000057
 21
130.21162727291701
 31
0.0
  0
LINE
  5
15F
  8
0
 10
114.5000000000001
 20
147.78837272708321
 30
0.0
 11
96.500000000000057
 21
147.78837272708321
 31
0.0
  0
LINE
  5
160
  8
0
 10
114.5000000000001
 20
156.66988577822329
 30
0.0
 11
96.500000000000057
 21
156.66988577822329
 31
0.0
  0
LINE
  5
161
  8
0
 10
113.5000000000001
 20
159.7669292955278
 30
0.0
 11
96.500000000000057
 21
159.7669292955278
 31
0.0
  0
LINE
  5
162
  8
0
 10
113.5000000000001
 20
157.63471203434079
 30
0.0
 11
96.500000000000057
 21
157.63471203434079
 31
0.0
  0
LINE
  5
163
  8
0
 10
113.5000000000001
 20
153.96688540778931
 30
0.0
 11
96.500000000000057
 21
153.96688540778931
 31
0.0
  0
LINE
  5
164
  8
0
 10
113.5000000000001
 20
148.38466814660211
 30
0.0
 11
96.500000000000057
 21
148.38466814660211
 31
0.0
  0
LINE
  5
165
  8
0
 10
114.5000000000001
 20
142.45000000000019
 30
0.0
 11
96.500000000000057
 21
142.45000000000019
 31
0.0
  0
LINE
  5
166
  8
0
 10
114.5000000000001
 20
135.5500000000001
 30
0.0
 11
96.500000000000057
 21
135.5500000000001
 31
0.0
  0
LINE
  5
167
  8
0
 10
113.5000000000001
 20
129.615331853398
 30
0.0
 11
96.500000000000057
 21
129.615331853398
 31
0.0
  0
LINE
  5
168
  8
0
 10
113.5000000000001
 20
124.03311459221069
 30
0.0
 11
96.500000000000057
 21
124.03311459221069
 31
0.0
  0
LINE
  5
169
  8
0
 10
113.5000000000001
 20
120.36528796565931
 30
0.0
 11
96.500000000000057
 21
120.36528796565931
 31
0.0
  0
LINE
  5
16A
  8
0
 10
113.5000000000001
 20
118.233070704472
 30
0.0
 11
96.500000000000057
 21
118.233070704472
 31
0.0
  0
LINE
  5
16B
  8
0
 10
90.0
 20
119.0000000000002
 30
0.0
 11
90.0
 21
159.0000000000002
 31
0.0
  0
LINE
  5
16C
  8
0
 10
91.5
 20
119.0000000000002
 30
0.0
 11
90.0
 21
119.0000000000002
 31
0.0
  0
LINE
  5
16D
  8
0
 10
91.5
 20
159.0000000000002
 30
0.0
 11
90.0
 21
159.0000000000002
 31
0.0
  0
LINE
  5
16E
  8
0
 10
96.500000000000057
 20
159.7669292955278
 30
0.0
 11
96.500000000000057
 21
118.233070704472
 31
0.0
  0
LINE
  5
16F
  8
0
 10
94.499999999999929
 20
118.75
 30
0.0
 11
91.500000000000057
 21
118.75
 31
0.0
  0
LINE
  5
170
  8
0
 10
94.500000000000057
 20
159.25
 30
0.0
 11
91.5
 21
159.25
 31
0.0
  0
LINE
  5
171
  8
0
 10
94.499999999999929
 20
118.75
 30
0.0
 11
94.499999999999929
 21
159.25
 31
0.0
  0
LINE
  5
172
  8
0
 10
91.500000000000057
 20
118.75
 30
0.0
 11
91.500000000000114
 21
159.25
 31
0.0
  0
LINE
  5
173
  8
0
 10
81.5
 20
126.9415
 30
0.0
 11
80.0
 21
126.9415
 31
0.0
  0
LINE
  5
174
  8
3
 10
90.0
 20
151.05850000000001
 30
0.0
 11
81.5
 21
151.05850000000001
 31
0.0
  0
LINE
  5
175
  8
0
 10
81.5
 20
125.7794999999999
 30
0.0
 11
81.5
 21
152.22049999999999
 31
0.0
  0
LINE
  5
176
  8
0
 10
80.0
 20
126.9415
 30
0.0
 11
80.0
 21
151.0584999999999
 31
0.0
  0
LINE
  5
177
  8
0
 10
90.0
 20
125.7794999999999
 30
0.0
 11
81.5
 21
125.7794999999999
 31
0.0
  0
LINE
  5
178
  8
3
 10
90.0
 20
126.9415
 30
0.0
 11
81.5
 21
126.9415
 31
0.0
  0
LINE
  5
179
  8
0
 10
90.0
 20
152.22049999999999
 30
0.0
 11
81.5
 21
152.22049999999999
 31
0.0
  0
LINE
  5
17A
  8
0
 10
81.5
 20
151.0584999999999
 30
0.0
 11
80.0
 21
151.0584999999999
 31
0.0
  0
LINE
  5
17B
  8
0
 10
116.0
 20
120.5000000000002
 30
0.0
 11
114.5000000000001
 21
119.0000000000001
 31
0.0
  0
LINE
  5
17C
  8
0
 10
116.0
 20
157.50000000000011
 30
0.0
 11
114.5
 21
159.00000000000011
 31
0.0
  0
LINE
  5
17D
  8
1
 10
121.5
 20
139.0
 30
0.0
 11
75.0
 21
139.0
 31
0.0
  0
LINE
  5
17E
  8
0
 10
96.500000000000057
 20
123.4999999999999
 30
0.0
 11
94.500000000000014
 21
123.4999999999999
 31
0.0
  0
LINE
  5
17F
  8
0
 10
96.500000000000057
 20
154.49999999999989
 30
0.0
 11
94.500000000000014
 21
154.49999999999989
 31
0.0
  0
LINE
  5
180
  8
0
 10
116.5
 20
144.69999999999999
 30
0.0
 11
116.5
 21
133.30000000000001
 31
0.0
  0
LINE
  5
181
  8
0
 10
116.5
 20
133.30000000000001
 30
0.0
 11
116.0000000000001
 21
133.30000000000001
 31
0.0
  0
LINE
  5
182
  8
0
 10
116.5
 20
144.69999999999999
 30
0.0
 11
116.0
 21
144.69999999999999
 31
0.0
  0
LINE
  5
183
  8
0
 10
116.0000000000001
 20
120.5000000000002
 30
0.0
 11
116.0000000000001
 21
157.50000000000011
 31
0.0
  0
LINE
  5
184
  8
0
 10
261.49999999999989
 20
136.09999999999999
 30
0.0
 11
261.99999999999989
 21
136.09999999999999
 31
0.0
  0
LINE
  5
185
  8
0
 10
196.79999999999981
 20
201.5
 30
0.0
 11
196.79999999999981
 21
201.99999999999989
 31
0.0
  0
TEXT
  5
40A
  8
0
 62
     3
 10
0.0
 20
0.0
 30
0.0
 40
10.0
  1
BM-3/4
  7
STANDARD1
  0
ENDSEC
  0
EOF
