  0
SECTION
  2
HEADER
  9
$ACADVER
  1
AC1009
  9
$INSBASE
 10
0.0
 20
0.0
 30
0.0
  9
$EXTMIN
 10
0.0
 20
-2.960436562073669
 30
0.0
  9
$EXTMAX
 10
136.5
 20
156.5
 30
0.0
  9
$LIMMIN
 10
0.0
 20
0.0
  9
$LIMMAX
 10
187.5
 20
135.0
  9
$ORTHOMODE
 70
     1
  9
$REGENMODE
 70
     1
  9
$FILLMODE
 70
     1
  9
$QTEXTMODE
 70
     0
  9
$MIRRTEXT
 70
     0
  9
$DRAGMODE
 70
     2
  9
$LTSCALE
 40
5.0
  9
$OSMODE
 70
  3071
  9
$ATTMODE
 70
     1
  9
$TEXTSIZE
 40
1.0
  9
$TRACEWID
 40
0.05
  9
$TEXTSTYLE
  7
K80
  9
$CLAYER
  8
0
  9
$CELTYPE
  6
BYLAYER
  9
$CECOLOR
 62
   256
  9
$DIMSCALE
 40
0.5
  9
$DIMASZ
 40
3.0
  9
$DIMEXO
 40
2.0
  9
$DIMDLI
 40
0.38
  9
$DIMRND
 40
0.0
  9
$DIMDLE
 40
0.0
  9
$DIMEXE
 40
2.0
  9
$DIMTP
 40
0.0
  9
$DIMTM
 40
0.0
  9
$DIMTXT
 40
3.2000000000000002
  9
$DIMCEN
 40
0.0
  9
$DIMTSZ
 40
0.0
  9
$DIMTOL
 70
     0
  9
$DIMLIM
 70
     0
  9
$DIMTIH
 70
     0
  9
$DIMTOH
 70
     0
  9
$DIMSE1
 70
     0
  9
$DIMSE2
 70
     0
  9
$DIMTAD
 70
     1
  9
$DIMZIN
 70
     0
  9
$DIMBLK
  1

  9
$DIMASO
 70
     1
  9
$DIMSHO
 70
     0
  9
$DIMPOST
  1

  9
$DIMAPOST
  1

  9
$DIMALT
 70
     0
  9
$DIMALTD
 70
     2
  9
$DIMALTF
 40
25.399999999999999
  9
$DIMLFAC
 40
1.0
  9
$DIMTOFL
 70
     1
  9
$DIMTVP
 40
1.6000000000000001
  9
$DIMTIX
 70
     1
  9
$DIMSOXD
 70
     0
  9
$DIMSAH
 70
     0
  9
$DIMBLK1
  1

  9
$DIMBLK2
  1

  9
$DIMSTYLE
  2
STANDARD
  9
$DIMCLRD
 70
     0
  9
$DIMCLRE
 70
     0
  9
$DIMCLRT
 70
     0
  9
$DIMTFAC
 40
1.0
  9
$DIMGAP
 40
0.09
  9
$LUNITS
 70
     2
  9
$LUPREC
 70
     4
  9
$SKETCHINC
 40
0.1
  9
$FILLETRAD
 40
1.0
  9
$AUNITS
 70
     1
  9
$AUPREC
 70
     4
  9
$MENU
  1
E:\r13\win\SUPPORT\ACAD
  9
$ELEVATION
 40
0.0
  9
$PELEVATION
 40
0.0
  9
$THICKNESS
 40
0.0
  9
$LIMCHECK
 70
     0
  9
$BLIPMODE
 70
     0
  9
$CHAMFERA
 40
0.0
  9
$CHAMFERB
 40
0.0
  9
$SKPOLY
 70
     0
  9
$TDCREATE
 40
2449839.7933217599
  9
$TDUPDATE
 40
2456598.4633909608
  9
$TDINDWG
 40
0.012696956
  9
$TDUSRTIMER
 40
0.012696956
  9
$USRTIMER
 70
     1
  9
$ANGBASE
 50
0.0
  9
$ANGDIR
 70
     0
  9
$PDMODE
 70
     0
  9
$PDSIZE
 40
0.0
  9
$PLINEWID
 40
0.0
  9
$COORDS
 70
     1
  9
$SPLFRAME
 70
     0
  9
$SPLINETYPE
 70
     6
  9
$SPLINESEGS
 70
     8
  9
$ATTDIA
 70
     0
  9
$ATTREQ
 70
     1
  9
$HANDLING
 70
     1
  9
$HANDSEED
  5
49A
  9
$SURFTAB1
 70
     6
  9
$SURFTAB2
 70
     6
  9
$SURFTYPE
 70
     6
  9
$SURFU
 70
     6
  9
$SURFV
 70
     6
  9
$UCSNAME
  2

  9
$UCSORG
 10
0.0
 20
0.0
 30
0.0
  9
$UCSXDIR
 10
1.0
 20
0.0
 30
0.0
  9
$UCSYDIR
 10
0.0
 20
1.0
 30
0.0
  9
$PUCSNAME
  2

  9
$PUCSORG
 10
0.0
 20
0.0
 30
0.0
  9
$PUCSXDIR
 10
1.0
 20
0.0
 30
0.0
  9
$PUCSYDIR
 10
0.0
 20
1.0
 30
0.0
  9
$USERI1
 70
     0
  9
$USERI2
 70
     1
  9
$USERI3
 70
     1
  9
$USERI4
 70
     0
  9
$USERI5
 70
     0
  9
$USERR1
 40
0.0
  9
$USERR2
 40
0.0
  9
$USERR3
 40
0.0
  9
$USERR4
 40
0.0
  9
$USERR5
 40
0.0
  9
$WORLDVIEW
 70
     1
  9
$SHADEDGE
 70
     3
  9
$SHADEDIF
 70
    70
  9
$TILEMODE
 70
     1
  9
$MAXACTVP
 70
    16
  9
$PLIMCHECK
 70
     0
  9
$PEXTMIN
 10
1.0000000000000000E+020
 20
1.0000000000000000E+020
 30
1.0000000000000000E+020
  9
$PEXTMAX
 10
-1.0000000000000000E+020
 20
-1.0000000000000000E+020
 30
-1.0000000000000000E+020
  9
$PLIMMIN
 10
0.0
 20
0.0
  9
$PLIMMAX
 10
12.0
 20
9.0
  9
$UNITMODE
 70
     0
  9
$VISRETAIN
 70
     0
  9
$PLINEGEN
 70
     0
  9
$PSLTSCALE
 70
     0
  0
ENDSEC
  0
SECTION
  2
TABLES
  0
TABLE
  2
VPORT
 70
     1
  0
VPORT
  2
*ACTIVE
 70
     0
 10
0.0
 20
0.0
 11
1.0
 21
1.0
 12
98.165899326529996
 22
76.769440059921934
 13
0.0
 23
0.0
 14
5.0
 24
5.0
 15
5.0
 25
5.0
 16
0.0
 26
0.0
 36
1.0
 17
0.0
 27
0.0
 37
0.0
 40
160.9009028585113
 41
1.8318713450292401
 42
50.0
 43
0.0
 44
0.0
 50
0.0
 51
0.0
 71
     0
 72
   500
 73
     1
 74
     0
 75
     0
 76
     0
 77
     0
 78
     2
  0
ENDTAB
  0
TABLE
  2
LTYPE
 70
     3
  0
LTYPE
  2
CONTINUOUS
 70
     0
  3
Solid Line
 72
    65
 73
     0
 40
0.0
  0
LTYPE
  2
CENTER
 70
     0
  3
____ _ ____ _ ____ _ ____ _ ____ _ ____ _ ____
 72
    65
 73
     4
 40
2.0
 49
1.25
 49
-0.25
 49
0.25
 49
-0.25
  0
LTYPE
  2
PHANTOM2
 70
     0
  3
___ _ _ ___ _ _ ___ _ _ ___ _ _
 72
    65
 73
     6
 40
1.25
 49
0.625
 49
-0.125
 49
0.125
 49
-0.125
 49
0.125
 49
-0.125
  0
ENDTAB
  0
TABLE
  2
LAYER
 70
     3
  0
LAYER
  2
0
 70
     0
 62
     7
  6
CONTINUOUS
  0
LAYER
  2
3
 70
     0
 62
     3
  6
CONTINUOUS
  0
LAYER
  2
1
 70
     0
 62
     1
  6
CENTER
  0
ENDTAB
  0
TABLE
  2
STYLE
 70
     3
  0
STYLE
  2
STANDARD
 70
     0
 40
0.0
 41
1.0
 50
0.0
 71
     0
 42
1.0
  3
romans.shx
  4

  0
STYLE
  2
K80
 70
     0
 40
0.0
 41
1.0
 50
0.0
 71
     0
 42
1.0
  3
romans.shx
  4

  0
STYLE
  2
STANDARD1
 70
     0
 40
0.0
 41
1.0
 50
0.0
 71
     0
 42
3.0
  3
txt
  4

  0
ENDTAB
  0
TABLE
  2
VIEW
 70
     1
  0
VIEW
  2
ALL
 70
     0
 40
135.0
 10
110.4957983193277
 20
67.5
 41
0.0
 11
0.0
 21
0.0
 31
1.0
 12
0.0
 22
0.0
 32
0.0
 42
0.0
 43
0.0
 44
0.0
 50
0.0
 71
     0
  0
ENDTAB
  0
TABLE
  2
UCS
 70
     0
  0
ENDTAB
  0
TABLE
  2
APPID
 70
     4
  0
APPID
  2
ACAD
 70
     0
  0
APPID
  2
ACAD_MLEADERVER
 70
     0
  0
APPID
  2
ACAD_NAV_VCDISPLAY
 70
     0
  0
APPID
  2
ACAD_EXEMPT_FROM_CAD_STANDARDS
 70
     0
  0
ENDTAB
  0
TABLE
  2
DIMSTYLE
 70
     2
  0
DIMSTYLE
  2
STANDARD
 70
     0
  3

  4

  5

  6

  7

 40
1.0
 41
0.18
 42
0.0625
 43
0.38
 44
0.18
 45
0.0
 46
0.0
 47
0.0
 48
0.0
140
0.18
141
0.09
142
0.0
143
25.399999999999999
144
1.0
145
0.0
146
1.0
147
0.09
 71
     0
 72
     0
 73
     1
 74
     1
 75
     0
 76
     0
 77
     0
 78
     0
170
     0
171
     2
172
     0
173
     0
174
     0
175
     0
176
     0
177
     0
178
     0
  0
DIMSTYLE
  2
ISO-25
 70
     0
  3

  4

  5

  6

  7

 40
1.0
 41
2.5
 42
0.625
 43
3.75
 44
1.25
 45
0.0
 46
0.0
 47
0.0
 48
0.0
140
2.5
141
2.5
142
0.0
143
0.03937007874016
144
1.0
145
0.0
146
1.0
147
0.625
 71
     0
 72
     0
 73
     0
 74
     0
 75
     0
 76
     0
 77
     1
 78
     8
170
     0
171
     3
172
     1
173
     0
174
     0
175
     0
176
     0
177
     0
178
     0
  0
ENDTAB
  0
ENDSEC
  0
SECTION
  2
BLOCKS
  0
BLOCK
  8
0
  2
$MODEL_SPACE
 70
     0
 10
0.0
 20
0.0
 30
0.0
  3
$MODEL_SPACE
  1

  0
ENDBLK
  5
14E
  8
0
  0
BLOCK
 67
     1
  8
0
  2
$PAPER_SPACE
 70
     0
 10
0.0
 20
0.0
 30
0.0
  3
$PAPER_SPACE
  1

  0
ENDBLK
  5
14C
 67
     1
  8
0
  0
ENDSEC
  0
SECTION
  2
ENTITIES
  0
ARC
  5
34
  8
0
 10
70.0
 20
90.0
 30
0.0
 40
15.5
 50
10.96304096718457
 51
34.03695903281556
  0
LINE
  5
35
  8
1
 10
88.000000000000057
 20
90.0
 30
0.0
 11
51.99999999999995
 21
90.0
 31
0.0
  0
LINE
  5
36
  8
1
 10
70.0
 20
108.0
 30
0.0
 11
70.0
 21
71.999999999999943
 31
0.0
  0
ARC
  5
37
  8
0
 10
70.0
 20
90.0
 30
0.0
 40
14.5
 50
79.844730972899853
 51
100.1552690271003
  0
LINE
  5
38
  8
0
 10
82.844488678081404
 20
98.675777233115383
 30
0.0
 11
81.90019931856898
 21
98.284639773600745
 31
0.0
  0
LINE
  5
39
  8
0
 10
85.217125958744745
 20
92.947724131545343
 30
0.0
 11
84.272836599232605
 21
92.556586672030846
 31
0.0
  0
LINE
  5
3A
  8
0
 10
72.947724131545442
 20
105.2171259587449
 30
0.0
 11
72.556586672030775
 21
104.27283659923251
 31
0.0
  0
ARC
  5
3B
  8
0
 10
70.0
 20
90.0
 30
0.0
 40
15.5
 50
55.963040967184568
 51
79.03695903281556
  0
LINE
  5
3C
  8
0
 10
78.675777233115298
 20
102.84448867808121
 30
0.0
 11
78.284639773600759
 21
101.90019931856899
 31
0.0
  0
LINE
  5
3D
  8
0
 10
78.675777233115298
 20
77.155511321918809
 30
0.0
 11
78.284639773600759
 21
78.099800681430935
 31
0.0
  0
ARC
  5
3E
  8
0
 10
70.0
 20
90.0
 30
0.0
 40
15.5
 50
280.9630409671845
 51
304.03695903281539
  0
LINE
  5
3F
  8
0
 10
72.947724131545442
 20
74.782874041255056
 30
0.0
 11
72.556586672030775
 21
75.727163400767452
 31
0.0
  0
LINE
  5
40
  8
0
 10
85.217125958744745
 20
87.052275868454643
 30
0.0
 11
84.272836599232605
 21
87.443413327969168
 31
0.0
  0
LINE
  5
41
  8
0
 10
82.844488678081404
 20
81.324222766884617
 30
0.0
 11
81.90019931856898
 21
81.715360226399255
 31
0.0
  0
ARC
  5
42
  8
0
 10
70.0
 20
90.0
 30
0.0
 40
15.5
 50
325.9630409671845
 51
349.0369590328155
  0
ARC
  5
43
  8
0
 10
70.0
 20
90.0
 30
0.0
 40
15.5
 50
190.96304096718461
 51
214.0369590328155
  0
LINE
  5
44
  8
0
 10
57.155511321918588
 20
81.324222766884617
 30
0.0
 11
58.09980068143102
 21
81.715360226399255
 31
0.0
  0
LINE
  5
45
  8
0
 10
54.782874041255241
 20
87.052275868454643
 30
0.0
 11
55.727163400767381
 21
87.443413327969168
 31
0.0
  0
LINE
  5
46
  8
0
 10
67.052275868454558
 20
74.782874041255056
 30
0.0
 11
67.443413327969211
 21
75.727163400767452
 31
0.0
  0
ARC
  5
47
  8
0
 10
70.0
 20
90.0
 30
0.0
 40
15.5
 50
235.96304096718461
 51
259.03695903281562
  0
LINE
  5
48
  8
0
 10
61.324222766884702
 20
77.155511321918809
 30
0.0
 11
61.715360226399241
 21
78.099800681430935
 31
0.0
  0
LINE
  5
49
  8
0
 10
61.324222766884702
 20
102.84448867808121
 30
0.0
 11
61.715360226399241
 21
101.90019931856899
 31
0.0
  0
ARC
  5
4A
  8
0
 10
70.0
 20
90.0
 30
0.0
 40
15.5
 50
100.9630409671844
 51
124.0369590328155
  0
LINE
  5
4B
  8
0
 10
67.052275868454558
 20
105.2171259587449
 30
0.0
 11
67.443413327969211
 21
104.27283659923251
 31
0.0
  0
LINE
  5
4C
  8
0
 10
54.782874041255241
 20
92.947724131545343
 30
0.0
 11
55.727163400767381
 21
92.556586672030846
 31
0.0
  0
LINE
  5
4D
  8
0
 10
57.155511321918588
 20
98.675777233115383
 30
0.0
 11
58.09980068143102
 21
98.284639773600745
 31
0.0
  0
ARC
  5
4E
  8
0
 10
70.0
 20
90.0
 30
0.0
 40
15.5
 50
145.96304096718441
 51
169.03695903281539
  0
ARC
  5
4F
  8
0
 10
70.0
 20
90.0
 30
0.0
 40
14.5
 50
34.844730972899697
 51
55.155269027100267
  0
ARC
  5
50
  8
0
 10
70.0
 20
90.0
 30
0.0
 40
14.5
 50
349.8447309728997
 51
10.15526902710031
  0
ARC
  5
51
  8
0
 10
70.0
 20
90.0
 30
0.0
 40
14.5
 50
304.84473097289953
 51
325.15526902710019
  0
ARC
  5
52
  8
0
 10
70.0
 20
90.0
 30
0.0
 40
14.5
 50
259.84473097289981
 51
280.1552690271003
  0
ARC
  5
53
  8
0
 10
70.0
 20
90.0
 30
0.0
 40
14.5
 50
169.84473097289961
 51
190.15526902710039
  0
ARC
  5
54
  8
0
 10
70.0
 20
90.0
 30
0.0
 40
14.5
 50
214.8447309728997
 51
235.1552690271003
  0
ARC
  5
55
  8
0
 10
70.0
 20
90.0
 30
0.0
 40
14.5
 50
124.8447309728996
 51
145.1552690271001
  0
CIRCLE
  5
56
  8
0
 10
70.0
 20
90.0
 30
0.0
 40
13.0
  0
LINE
  5
57
  8
0
 10
69.0
 20
94.0
 30
0.0
 11
71.0
 21
94.0
 31
0.0
  0
LINE
  5
58
  8
0
 10
71.0
 20
94.0
 30
0.0
 11
71.0
 21
86.0
 31
0.0
  0
LINE
  5
59
  8
0
 10
71.0
 20
86.0
 30
0.0
 11
69.0
 21
86.0
 31
0.0
  0
LINE
  5
5A
  8
0
 10
69.0
 20
86.0
 30
0.0
 11
69.0
 21
94.0
 31
0.0
  0
LINE
  5
5B
  8
0
 10
62.5
 20
91.0
 30
0.0
 11
62.5
 21
89.0
 31
0.0
  0
LINE
  5
5C
  8
0
 10
64.5
 20
91.0
 30
0.0
 11
64.5
 21
89.0
 31
0.0
  0
ARC
  5
5D
  8
0
 10
63.5
 20
91.0
 30
0.0
 40
3.0
 50
0.0
 51
180.0
  0
ARC
  5
5E
  8
0
 10
63.5
 20
89.0
 30
0.0
 40
3.0
 50
180.0
 51
0.0
  0
LINE
  5
5F
  8
0
 10
60.5
 20
91.0
 30
0.0
 11
60.5
 21
89.0
 31
0.0
  0
LINE
  5
60
  8
0
 10
66.5
 20
91.0
 30
0.0
 11
66.5
 21
89.0
 31
0.0
  0
ARC
  5
61
  8
0
 10
63.5
 20
91.0
 30
0.0
 40
1.0
 50
0.0
 51
180.0
  0
ARC
  5
62
  8
0
 10
63.5
 20
89.0
 30
0.0
 40
1.0
 50
180.0
 51
0.0
  0
LINE
  5
63
  8
0
 10
73.5
 20
94.0
 30
0.0
 11
75.5
 21
94.0
 31
0.0
  0
LINE
  5
64
  8
0
 10
75.5
 20
94.0
 30
0.0
 11
75.5
 21
88.0
 31
0.0
  0
LINE
  5
65
  8
0
 10
75.5
 20
88.0
 30
0.0
 11
79.5
 21
88.0
 31
0.0
  0
LINE
  5
66
  8
0
 10
79.5
 20
88.0
 30
0.0
 11
79.5
 21
86.0
 31
0.0
  0
LINE
  5
67
  8
0
 10
79.5
 20
86.0
 30
0.0
 11
73.5
 21
86.0
 31
0.0
  0
LINE
  5
68
  8
0
 10
73.5
 20
86.0
 30
0.0
 11
73.5
 21
94.0
 31
0.0
  0
TEXT
  5
69
  8
3
 10
64.146316549806016
 20
79.511493600985986
 30
0.0
 40
1.0
  1
P
 50
333.33333333333019
 72
     1
 11
64.614409837594451
 21
79.276408316119046
 31
0.0
  0
TEXT
  5
6A
  8
3
 10
65.493032871183772
 20
78.870268611994419
 30
0.0
 40
1.0
  1
A
 50
340.00000000000023
 72
     1
 11
65.895758280092025
 21
78.723688550569136
 31
0.0
  0
TEXT
  5
6B
  8
3
 10
66.861925790869947
 20
78.411315218086813
 30
0.0
 40
1.0
  1
T
 50
346.66666666666703
 72
     1
 11
67.232609551090832
 21
78.323461553042065
 31
0.0
  0
TEXT
  5
6C
  8
3
 10
68.370399707225488
 20
78.108780877126392
 30
0.0
 40
1.0
  1
.
 50
353.33333333333331
 72
     1
 11
68.606885030497381
 21
78.081139707096582
 31
0.0
  0
TEXT
  5
6D
  8
3
 10
69.5
 20
78.0
 30
0.0
 40
1.0
  1
E
 72
     1
 11
70.0
 21
78.0
 31
0.0
  0
TEXT
  5
6E
  8
3
 10
70.920144322958834
 20
78.025857367036977
 30
0.0
 40
1.0
  1
L
 50
6.6666666666665391
 72
     1
 11
71.393114969502619
 21
78.081139707096611
 31
0.0
  0
TEXT
  5
6F
  8
3
 10
72.280868013619255
 20
78.208153617670874
 30
0.0
 40
1.0
  1
E
 50
13.333333333331909
 72
     1
 11
72.767390448909154
 21
78.323461553042094
 31
0.0
  0
TEXT
  5
70
  8
3
 10
73.656769043343203
 20
78.560821815652233
 30
0.0
 40
1.0
  1
S
 50
20.000000000002199
 72
     1
 11
74.104241719907918
 21
78.723688550569236
 31
0.0
  0
TEXT
  5
71
  8
3
 10
75.002604745124074
 20
79.084065810318847
 30
0.0
 40
1.0
  1
A
 50
26.666666666666568
 72
     1
 11
75.385590162405535
 21
79.276408316119046
 31
0.0
  0
LINE
  5
72
  8
0
 10
107.5
 20
87.052275868454615
 30
0.0
 11
107.5
 21
81.324222766884645
 31
0.0
  0
LINE
  5
73
  8
0
 10
105.0
 20
77.000000000000057
 30
0.0
 11
106.5
 21
75.500000000000057
 31
0.0
  0
LINE
  5
74
  8
0
 10
107.5
 20
81.324222766884645
 30
0.0
 11
120.5
 21
81.324222766884645
 31
0.0
  0
LINE
  5
75
  8
0
 10
107.5
 20
77.155511321918652
 30
0.0
 11
120.5
 21
77.155511321918652
 31
0.0
  0
LINE
  5
76
  8
0
 10
107.5
 20
81.324222766884645
 30
0.0
 11
106.5
 21
81.715360226399184
 31
0.0
  0
LINE
  5
77
  8
0
 10
106.5
 20
78.099800681430963
 30
0.0
 11
107.5
 21
77.155511321918652
 31
0.0
  0
LINE
  5
78
  8
0
 10
106.5
 20
81.715360226399184
 30
0.0
 11
106.5
 21
78.099800681430906
 31
0.0
  0
LINE
  5
79
  8
0
 10
106.5
 20
78.099800681430906
 30
0.0
 11
120.5
 21
78.099800681430906
 31
0.0
  0
LINE
  5
7A
  8
0
 10
107.5
 20
74.782874041255184
 30
0.0
 11
120.5
 21
74.782874041255184
 31
0.0
  0
LINE
  5
7B
  8
0
 10
107.5
 20
77.155511321918652
 30
0.0
 11
107.5
 21
74.782874041255184
 31
0.0
  0
LINE
  5
7C
  8
0
 10
107.5
 20
74.782874041255184
 30
0.0
 11
106.5
 21
75.727163400767495
 31
0.0
  0
LINE
  5
7D
  8
0
 10
106.5
 20
75.727163400767552
 30
0.0
 11
106.5
 21
75.500000000000057
 31
0.0
  0
LINE
  5
7E
  8
0
 10
105.0
 20
103.0
 30
0.0
 11
106.5
 21
104.5
 31
0.0
  0
LINE
  5
7F
  8
0
 10
106.5
 20
104.27283659923251
 30
0.0
 11
106.5
 21
104.5
 31
0.0
  0
LINE
  5
80
  8
0
 10
107.5
 20
105.2171259587449
 30
0.0
 11
106.5
 21
104.27283659923251
 31
0.0
  0
LINE
  5
81
  8
0
 10
107.5
 20
102.84448867808131
 30
0.0
 11
107.5
 21
105.2171259587449
 31
0.0
  0
LINE
  5
82
  8
0
 10
107.5
 20
105.2171259587449
 30
0.0
 11
120.5
 21
105.2171259587449
 31
0.0
  0
LINE
  5
83
  8
0
 10
106.5
 20
101.90019931856909
 30
0.0
 11
120.5
 21
101.90019931856909
 31
0.0
  0
LINE
  5
84
  8
0
 10
106.5
 20
92.556586672030846
 30
0.0
 11
120.5
 21
92.556586672030846
 31
0.0
  0
LINE
  5
85
  8
0
 10
106.5
 20
87.443413327969211
 30
0.0
 11
120.5
 21
87.443413327969211
 31
0.0
  0
LINE
  5
86
  8
0
 10
106.5
 20
98.284639773600944
 30
0.0
 11
106.5
 21
101.90019931856909
 31
0.0
  0
LINE
  5
87
  8
0
 10
106.5
 20
101.90019931856909
 30
0.0
 11
107.5
 21
102.84448867808131
 31
0.0
  0
LINE
  5
88
  8
0
 10
107.5
 20
98.675777233115483
 30
0.0
 11
106.5
 21
98.284639773600944
 31
0.0
  0
LINE
  5
89
  8
0
 10
106.5
 20
92.556586672030846
 30
0.0
 11
107.5
 21
92.947724131545456
 31
0.0
  0
LINE
  5
8A
  8
0
 10
107.5
 20
87.052275868454672
 30
0.0
 11
106.5
 21
87.443413327969211
 31
0.0
  0
LINE
  5
8B
  8
0
 10
107.5
 20
102.84448867808131
 30
0.0
 11
120.5
 21
102.84448867808131
 31
0.0
  0
LINE
  5
8C
  8
0
 10
107.5
 20
98.675777233115483
 30
0.0
 11
120.5
 21
98.675777233115483
 31
0.0
  0
LINE
  5
8D
  8
0
 10
107.5
 20
92.947724131545456
 30
0.0
 11
120.5
 21
92.947724131545456
 31
0.0
  0
LINE
  5
8E
  8
0
 10
107.5
 20
87.052275868454615
 30
0.0
 11
120.5
 21
87.052275868454615
 31
0.0
  0
LINE
  5
8F
  8
0
 10
106.5
 20
87.443413327969211
 30
0.0
 11
106.5
 21
92.556586672030903
 31
0.0
  0
LINE
  5
90
  8
0
 10
107.5
 20
92.947724131545456
 30
0.0
 11
107.5
 21
98.675777233115483
 31
0.0
  0
LINE
  5
91
  8
3
 10
132.49999999999989
 20
84.277500000000032
 30
0.0
 11
126.0
 21
84.277500000000032
 31
0.0
  0
LINE
  5
92
  8
3
 10
132.5
 20
95.722499999999954
 30
0.0
 11
126.0
 21
95.722499999999954
 31
0.0
  0
LINE
  5
93
  8
0
 10
132.5
 20
96.578500000000034
 30
0.0
 11
132.5
 21
83.421500000000023
 31
0.0
  0
LINE
  5
94
  8
0
 10
126.0
 20
96.578500000000034
 30
0.0
 11
132.5
 21
96.578500000000034
 31
0.0
  0
LINE
  5
95
  8
0
 10
126.0
 20
83.421500000000023
 30
0.0
 11
132.5
 21
83.421500000000023
 31
0.0
  0
LINE
  5
96
  8
0
 10
132.49999999999989
 20
95.722499999999954
 30
0.0
 11
134.0
 21
95.722499999999954
 31
0.0
  0
LINE
  5
97
  8
0
 10
132.49999999999989
 20
84.277500000000032
 30
0.0
 11
134.0
 21
84.277500000000032
 31
0.0
  0
LINE
  5
98
  8
0
 10
124.5
 20
99.100000000000037
 30
0.0
 11
126.0
 21
99.100000000000037
 31
0.0
  0
LINE
  5
99
  8
0
 10
124.5
 20
80.900000000000034
 30
0.0
 11
126.0
 21
80.900000000000034
 31
0.0
  0
LINE
  5
9A
  8
0
 10
126.0
 20
99.100000000000037
 30
0.0
 11
126.0
 21
80.900000000000034
 31
0.0
  0
LINE
  5
9B
  8
0
 10
120.5
 20
100.0
 30
0.0
 11
121.5
 21
100.0
 31
0.0
  0
LINE
  5
9C
  8
0
 10
120.5
 20
80.0
 30
0.0
 11
121.5
 21
80.000000000000057
 31
0.0
  0
LINE
  5
9D
  8
0
 10
122.0
 20
105.0
 30
0.0
 11
124.5
 21
105.0
 31
0.0
  0
LINE
  5
9E
  8
0
 10
122.0
 20
105.0
 30
0.0
 11
122.0
 21
75.000000000000057
 31
0.0
  0
LINE
  5
9F
  8
0
 10
124.5
 20
105.0
 30
0.0
 11
124.5
 21
75.0
 31
0.0
  0
LINE
  5
A0
  8
0
 10
120.5
 20
74.782874041255184
 30
0.0
 11
120.5
 21
105.2171259587449
 31
0.0
  0
LINE
  5
A1
  8
1
 10
102.0
 20
90.0
 30
0.0
 11
136.5
 21
90.0
 31
0.0
  0
LINE
  5
A2
  8
0
 10
134.0
 20
95.722499999999954
 30
0.0
 11
134.0
 21
84.277500000000032
 31
0.0
  0
LINE
  5
A3
  8
0
 10
105.0
 20
77.000000000000057
 30
0.0
 11
105.0
 21
103.0
 31
0.0
  0
LINE
  5
A4
  8
0
 10
124.5
 20
75.000000000000057
 30
0.0
 11
122.0
 21
75.0
 31
0.0
  0
ARC
  5
A5
  8
0
 10
121.5
 20
100.5
 30
0.0
 40
0.5
 50
269.99999999999932
 51
360.0
  0
ARC
  5
A6
  8
0
 10
121.5
 20
79.500000000000057
 30
0.0
 40
0.5
 50
360.0
 51
90.000000000000455
  0
ARC
  5
A7
  8
0
 10
59.500000000000057
 20
38.5
 30
0.0
 40
0.5
 50
270.0
 51
0.000000000000458
  0
ARC
  5
A8
  8
0
 10
80.5
 20
38.5
 30
0.0
 40
0.5
 50
179.9999999999992
 51
270.0
  0
LINE
  5
A9
  8
0
 10
55.000000000000057
 20
35.5
 30
0.0
 11
55.0
 21
38.0
 31
0.0
  0
LINE
  5
AA
  8
0
 10
57.000000000000057
 20
55.0
 30
0.0
 11
83.0
 21
55.0
 31
0.0
  0
LINE
  5
AB
  8
0
 10
75.722499999999954
 20
26.0
 30
0.0
 11
64.277500000000032
 21
26.0
 31
0.0
  0
LINE
  5
AC
  8
0
 10
54.782874041255177
 20
39.5
 30
0.0
 11
85.217125958744873
 21
39.5
 31
0.0
  0
LINE
  5
AD
  8
0
 10
60.5
 20
55.5
 30
0.0
 11
66.5
 21
55.5
 31
0.0
  0
LINE
  5
AE
  8
0
 10
85.0
 20
35.5
 30
0.0
 11
55.0
 21
35.5
 31
0.0
  0
LINE
  5
AF
  8
0
 10
85.0
 20
38.0
 30
0.0
 11
55.000000000000057
 21
37.999999999999972
 31
0.0
  0
LINE
  5
B0
  8
0
 10
85.0
 20
38.0
 30
0.0
 11
85.0
 21
35.5
 31
0.0
  0
LINE
  5
B1
  8
0
 10
60.0
 20
39.5
 30
0.0
 11
60.000000000000057
 21
38.5
 31
0.0
  0
LINE
  5
B2
  8
0
 10
80.000000000000057
 20
39.5
 30
0.0
 11
80.0
 21
38.5
 31
0.0
  0
LINE
  5
B3
  8
0
 10
79.100000000000023
 20
34.0
 30
0.0
 11
60.900000000000027
 21
34.0
 31
0.0
  0
LINE
  5
B4
  8
0
 10
60.900000000000027
 20
35.5
 30
0.0
 11
60.900000000000027
 21
34.0
 31
0.0
  0
LINE
  5
B5
  8
0
 10
79.100000000000023
 20
35.5
 30
0.0
 11
79.100000000000023
 21
34.0
 31
0.0
  0
LINE
  5
B6
  8
0
 10
64.277500000000032
 20
27.500000000000028
 30
0.0
 11
64.277500000000032
 21
26.0
 31
0.0
  0
LINE
  5
B7
  8
0
 10
75.722499999999954
 20
27.500000000000028
 30
0.0
 11
75.722499999999954
 21
26.0
 31
0.0
  0
LINE
  5
B8
  8
0
 10
63.42150000000003
 20
34.0
 30
0.0
 11
63.42150000000003
 21
27.5
 31
0.0
  0
LINE
  5
B9
  8
0
 10
76.57850000000002
 20
34.0
 30
0.0
 11
76.57850000000002
 21
27.5
 31
0.0
  0
LINE
  5
BA
  8
0
 10
76.57850000000002
 20
27.5
 30
0.0
 11
63.42150000000003
 21
27.5
 31
0.0
  0
LINE
  5
BB
  8
3
 10
75.722499999999954
 20
27.5
 30
0.0
 11
75.722499999999954
 21
34.0
 31
0.0
  0
LINE
  5
BC
  8
3
 10
64.277500000000032
 20
27.500000000000028
 30
0.0
 11
64.277500000000032
 21
34.0
 31
0.0
  0
LINE
  5
BD
  8
0
 10
60.5
 20
55.5
 30
0.0
 11
60.5
 21
55.0
 31
0.0
  0
LINE
  5
BE
  8
0
 10
66.5
 20
55.5
 30
0.0
 11
66.5
 21
55.0
 31
0.0
  0
LINE
  5
BF
  8
0
 10
69.0
 20
55.5
 30
0.0
 11
69.0
 21
55.0
 31
0.0
  0
LINE
  5
C0
  8
0
 10
71.0
 20
55.5
 30
0.0
 11
71.0
 21
55.0
 31
0.0
  0
LINE
  5
C1
  8
0
 10
73.5
 20
55.5
 30
0.0
 11
73.5
 21
55.0
 31
0.0
  0
LINE
  5
C2
  8
0
 10
79.5
 20
55.5
 30
0.0
 11
79.5
 21
55.0
 31
0.0
  0
LINE
  5
C3
  8
0
 10
73.5
 20
55.5
 30
0.0
 11
79.5
 21
55.5
 31
0.0
  0
LINE
  5
C4
  8
0
 10
69.0
 20
55.5
 30
0.0
 11
71.0
 21
55.5
 31
0.0
  0
LINE
  5
C5
  8
0
 10
72.947724131545442
 20
52.5
 30
0.0
 11
78.675777233115468
 21
52.5
 31
0.0
  0
LINE
  5
C6
  8
0
 10
67.443413327969211
 20
53.5
 30
0.0
 11
72.556586672030903
 21
53.5
 31
0.0
  0
LINE
  5
C7
  8
0
 10
67.052275868454615
 20
52.499999999999972
 30
0.0
 11
67.052275868454615
 21
39.5
 31
0.0
  0
LINE
  5
C8
  8
0
 10
72.947724131545442
 20
52.499999999999957
 30
0.0
 11
72.947724131545442
 21
39.5
 31
0.0
  0
LINE
  5
C9
  8
0
 10
78.675777233115468
 20
52.5
 30
0.0
 11
78.675777233115468
 21
39.5
 31
0.0
  0
LINE
  5
CA
  8
0
 10
82.844488678081348
 20
52.5
 30
0.0
 11
82.844488678081348
 21
39.5
 31
0.0
  0
LINE
  5
CB
  8
0
 10
67.052275868454672
 20
52.5
 30
0.0
 11
67.443413327969211
 21
53.5
 31
0.0
  0
LINE
  5
CC
  8
0
 10
72.556586672030846
 20
53.5
 30
0.0
 11
72.947724131545442
 21
52.5
 31
0.0
  0
LINE
  5
CD
  8
0
 10
78.675777233115468
 20
52.5
 30
0.0
 11
78.284639773600929
 21
53.5
 31
0.0
  0
LINE
  5
CE
  8
0
 10
81.900199318569094
 20
53.500000000000007
 30
0.0
 11
82.844488678081348
 21
52.5
 31
0.0
  0
LINE
  5
CF
  8
0
 10
78.284639773600929
 20
53.5
 30
0.0
 11
81.900199318569094
 21
53.5
 31
0.0
  0
LINE
  5
D0
  8
0
 10
67.443413327969211
 20
53.5
 30
0.0
 11
67.443413327969211
 21
39.5
 31
0.0
  0
LINE
  5
D1
  8
0
 10
72.556586672030846
 20
53.5
 30
0.0
 11
72.556586672030846
 21
39.5
 31
0.0
  0
LINE
  5
D2
  8
0
 10
81.900199318569094
 20
53.5
 30
0.0
 11
81.900199318569094
 21
39.5
 31
0.0
  0
LINE
  5
D3
  8
0
 10
85.217125958744873
 20
52.499999999999993
 30
0.0
 11
85.217125958744873
 21
39.5
 31
0.0
  0
LINE
  5
D4
  8
0
 10
82.844488678081348
 20
52.5
 30
0.0
 11
85.217125958744873
 21
52.500000000000007
 31
0.0
  0
LINE
  5
D5
  8
0
 10
85.217125958744873
 20
52.500000000000007
 30
0.0
 11
84.272836599232562
 21
53.5
 31
0.0
  0
LINE
  5
D6
  8
0
 10
84.272836599232505
 20
53.500000000000007
 30
0.0
 11
84.500000000000014
 21
53.5
 31
0.0
  0
LINE
  5
D7
  8
0
 10
83.0
 20
55.0
 30
0.0
 11
84.500000000000014
 21
53.5
 31
0.0
  0
LINE
  5
D8
  8
0
 10
55.727163400767552
 20
53.500000000000007
 30
0.0
 11
55.500000000000057
 21
53.5
 31
0.0
  0
LINE
  5
D9
  8
0
 10
54.782874041255177
 20
52.500000000000007
 30
0.0
 11
55.727163400767488
 21
53.5
 31
0.0
  0
LINE
  5
DA
  8
0
 10
57.155511321918652
 20
52.5
 30
0.0
 11
54.782874041255177
 21
52.500000000000007
 31
0.0
  0
LINE
  5
DB
  8
0
 10
54.782874041255177
 20
52.499999999999993
 30
0.0
 11
54.782874041255177
 21
39.5
 31
0.0
  0
LINE
  5
DC
  8
0
 10
58.099800681430899
 20
53.5
 30
0.0
 11
58.099800681430899
 21
39.5
 31
0.0
  0
LINE
  5
DD
  8
0
 10
61.715360226399177
 20
53.5
 30
0.0
 11
58.099800681430899
 21
53.5
 31
0.0
  0
LINE
  5
DE
  8
0
 10
58.099800681430963
 20
53.500000000000007
 30
0.0
 11
57.155511321918652
 21
52.5
 31
0.0
  0
LINE
  5
DF
  8
0
 10
61.324222766884652
 20
52.5
 30
0.0
 11
61.715360226399177
 21
53.5
 31
0.0
  0
LINE
  5
E0
  8
0
 10
57.155511321918652
 20
52.5
 30
0.0
 11
57.155511321918652
 21
39.5
 31
0.0
  0
LINE
  5
E1
  8
0
 10
61.324222766884652
 20
52.5
 30
0.0
 11
61.324222766884652
 21
39.5
 31
0.0
  0
LINE
  5
E2
  8
0
 10
57.000000000000057
 20
55.0
 30
0.0
 11
55.500000000000057
 21
53.5
 31
0.0
  0
LINE
  5
E3
  8
0
 10
67.052275868454615
 20
52.5
 30
0.0
 11
61.324222766884652
 21
52.5
 31
0.0
  0
LINE
  5
E4
  8
1
 10
70.0
 20
58.0
 30
0.0
 11
70.0
 21
23.5
 31
0.0
  0
LINE
  5
E5
  8
0
 10
104.5
 20
94.0
 30
0.0
 11
105.0
 21
94.0
 31
0.0
  0
LINE
  5
E6
  8
0
 10
104.5
 20
86.0
 30
0.0
 11
105.0
 21
86.0
 31
0.0
  0
LINE
  5
E7
  8
0
 10
104.5
 20
88.0
 30
0.0
 11
105.0
 21
88.0
 31
0.0
  0
LINE
  5
E8
  8
0
 10
104.5
 20
86.0
 30
0.0
 11
104.5
 21
94.0
 31
0.0
  0
LINE
  5
33D
  8
0
 10
32.5
 20
87.052275868454615
 30
0.0
 11
32.5
 21
81.324222766884645
 31
0.0
  0
LINE
  5
33E
  8
0
 10
35.0
 20
77.000000000000057
 30
0.0
 11
33.5
 21
75.500000000000057
 31
0.0
  0
LINE
  5
33F
  8
0
 10
32.5
 20
81.324222766884645
 30
0.0
 11
19.5
 21
81.324222766884645
 31
0.0
  0
LINE
  5
340
  8
0
 10
32.5
 20
77.155511321918652
 30
0.0
 11
19.5
 21
77.155511321918652
 31
0.0
  0
LINE
  5
341
  8
0
 10
32.5
 20
81.324222766884645
 30
0.0
 11
33.5
 21
81.715360226399184
 31
0.0
  0
LINE
  5
342
  8
0
 10
33.5
 20
78.099800681430963
 30
0.0
 11
32.5
 21
77.155511321918652
 31
0.0
  0
LINE
  5
343
  8
0
 10
33.5
 20
81.715360226399184
 30
0.0
 11
33.5
 21
78.099800681430906
 31
0.0
  0
LINE
  5
344
  8
0
 10
33.5
 20
78.099800681430906
 30
0.0
 11
19.5
 21
78.099800681430906
 31
0.0
  0
LINE
  5
345
  8
0
 10
32.499999999999972
 20
74.782874041255184
 30
0.0
 11
19.5
 21
74.782874041255184
 31
0.0
  0
LINE
  5
346
  8
0
 10
32.5
 20
77.155511321918652
 30
0.0
 11
32.5
 21
74.782874041255184
 31
0.0
  0
LINE
  5
347
  8
0
 10
32.5
 20
74.782874041255184
 30
0.0
 11
33.5
 21
75.727163400767495
 31
0.0
  0
LINE
  5
348
  8
0
 10
33.5
 20
75.727163400767552
 30
0.0
 11
33.5
 21
75.500000000000057
 31
0.0
  0
LINE
  5
349
  8
0
 10
35.0
 20
103.0
 30
0.0
 11
33.5
 21
104.5
 31
0.0
  0
LINE
  5
34A
  8
0
 10
33.5
 20
104.27283659923251
 30
0.0
 11
33.5
 21
104.5
 31
0.0
  0
LINE
  5
34B
  8
0
 10
32.5
 20
105.2171259587449
 30
0.0
 11
33.5
 21
104.27283659923251
 31
0.0
  0
LINE
  5
34C
  8
0
 10
32.5
 20
102.84448867808131
 30
0.0
 11
32.5
 21
105.2171259587449
 31
0.0
  0
LINE
  5
34D
  8
0
 10
32.499999999999972
 20
105.2171259587449
 30
0.0
 11
19.5
 21
105.2171259587449
 31
0.0
  0
LINE
  5
34E
  8
0
 10
33.5
 20
101.90019931856909
 30
0.0
 11
19.5
 21
101.90019931856909
 31
0.0
  0
LINE
  5
34F
  8
0
 10
33.5
 20
92.556586672030846
 30
0.0
 11
19.5
 21
92.556586672030846
 31
0.0
  0
LINE
  5
350
  8
0
 10
33.5
 20
87.443413327969211
 30
0.0
 11
19.5
 21
87.443413327969211
 31
0.0
  0
LINE
  5
351
  8
0
 10
33.5
 20
98.284639773600944
 30
0.0
 11
33.5
 21
101.90019931856909
 31
0.0
  0
LINE
  5
352
  8
0
 10
33.5
 20
101.90019931856909
 30
0.0
 11
32.5
 21
102.84448867808131
 31
0.0
  0
LINE
  5
353
  8
0
 10
32.5
 20
98.675777233115483
 30
0.0
 11
33.5
 21
98.284639773600944
 31
0.0
  0
LINE
  5
354
  8
0
 10
33.5
 20
92.556586672030846
 30
0.0
 11
32.5
 21
92.947724131545456
 31
0.0
  0
LINE
  5
355
  8
0
 10
32.5
 20
87.052275868454672
 30
0.0
 11
33.5
 21
87.443413327969211
 31
0.0
  0
LINE
  5
356
  8
0
 10
32.5
 20
102.84448867808131
 30
0.0
 11
19.5
 21
102.84448867808131
 31
0.0
  0
LINE
  5
357
  8
0
 10
32.5
 20
98.675777233115483
 30
0.0
 11
19.5
 21
98.675777233115483
 31
0.0
  0
LINE
  5
358
  8
0
 10
32.49999999999995
 20
92.947724131545456
 30
0.0
 11
19.5
 21
92.947724131545456
 31
0.0
  0
LINE
  5
359
  8
0
 10
32.499999999999972
 20
87.052275868454615
 30
0.0
 11
19.5
 21
87.052275868454615
 31
0.0
  0
LINE
  5
35A
  8
0
 10
33.5
 20
87.443413327969211
 30
0.0
 11
33.5
 21
92.556586672030903
 31
0.0
  0
LINE
  5
35B
  8
0
 10
32.5
 20
92.947724131545456
 30
0.0
 11
32.5
 21
98.675777233115483
 31
0.0
  0
LINE
  5
35C
  8
3
 10
7.5000000000000284
 20
84.277500000000032
 30
0.0
 11
14.0
 21
84.277500000000032
 31
0.0
  0
LINE
  5
35D
  8
3
 10
7.5
 20
95.722499999999954
 30
0.0
 11
14.0
 21
95.722499999999954
 31
0.0
  0
LINE
  5
35E
  8
0
 10
7.5
 20
96.578500000000034
 30
0.0
 11
7.5
 21
83.421500000000023
 31
0.0
  0
LINE
  5
35F
  8
0
 10
14.0
 20
96.578500000000034
 30
0.0
 11
7.5
 21
96.578500000000034
 31
0.0
  0
LINE
  5
360
  8
0
 10
14.0
 20
83.421500000000023
 30
0.0
 11
7.5
 21
83.421500000000023
 31
0.0
  0
LINE
  5
361
  8
0
 10
7.5000000000000284
 20
95.722499999999954
 30
0.0
 11
6.0
 21
95.722499999999954
 31
0.0
  0
LINE
  5
362
  8
0
 10
7.5000000000000284
 20
84.277500000000032
 30
0.0
 11
6.0
 21
84.277500000000032
 31
0.0
  0
LINE
  5
363
  8
0
 10
15.5
 20
99.100000000000037
 30
0.0
 11
14.0
 21
99.100000000000037
 31
0.0
  0
LINE
  5
364
  8
0
 10
15.5
 20
80.900000000000034
 30
0.0
 11
14.0
 21
80.900000000000034
 31
0.0
  0
LINE
  5
365
  8
0
 10
14.0
 20
99.100000000000037
 30
0.0
 11
14.0
 21
80.900000000000034
 31
0.0
  0
LINE
  5
366
  8
0
 10
19.5
 20
100.0
 30
0.0
 11
18.5
 21
100.0
 31
0.0
  0
LINE
  5
367
  8
0
 10
19.5
 20
80.0
 30
0.0
 11
18.5
 21
80.000000000000057
 31
0.0
  0
LINE
  5
368
  8
0
 10
18.0
 20
105.0
 30
0.0
 11
15.5
 21
105.0
 31
0.0
  0
LINE
  5
369
  8
0
 10
18.0
 20
105.0
 30
0.0
 11
17.999999999999972
 21
75.000000000000057
 31
0.0
  0
LINE
  5
36A
  8
0
 10
15.5
 20
105.0
 30
0.0
 11
15.5
 21
75.0
 31
0.0
  0
LINE
  5
36B
  8
0
 10
19.5
 20
74.782874041255184
 30
0.0
 11
19.5
 21
105.2171259587449
 31
0.0
  0
LINE
  5
36C
  8
1
 10
38.0
 20
90.0
 30
0.0
 11
3.5
 21
90.0
 31
0.0
  0
LINE
  5
36D
  8
0
 10
6.0
 20
95.722499999999954
 30
0.0
 11
6.0
 21
84.277500000000032
 31
0.0
  0
LINE
  5
36E
  8
0
 10
35.0
 20
77.000000000000057
 30
0.0
 11
35.0
 21
103.0
 31
0.0
  0
LINE
  5
36F
  8
0
 10
15.5
 20
75.000000000000057
 30
0.0
 11
18.0
 21
75.0
 31
0.0
  0
ARC
  5
370
  8
0
 10
18.5
 20
100.5
 30
0.0
 40
0.5
 50
180.0
 51
270.0
  0
ARC
  5
371
  8
0
 10
18.5
 20
79.500000000000057
 30
0.0
 40
0.5
 50
90.0
 51
180.0
  0
LINE
  5
372
  8
0
 10
35.5
 20
94.0
 30
0.0
 11
35.0
 21
94.0
 31
0.0
  0
LINE
  5
373
  8
0
 10
35.5
 20
86.0
 30
0.0
 11
35.0
 21
86.0
 31
0.0
  0
LINE
  5
375
  8
0
 10
35.5
 20
86.0
 30
0.0
 11
35.5
 21
94.0
 31
0.0
  0
ARC
  5
376
  8
0
 10
59.500000000000057
 20
141.5
 30
0.0
 40
0.5
 50
0.0
 51
90.000000000000028
  0
ARC
  5
377
  8
0
 10
80.5
 20
141.5
 30
0.0
 40
0.5
 50
90.000000000000028
 51
180.0
  0
LINE
  5
378
  8
0
 10
55.000000000000057
 20
144.5
 30
0.0
 11
55.0
 21
142.0
 31
0.0
  0
LINE
  5
379
  8
0
 10
57.000000000000057
 20
125.0
 30
0.0
 11
83.0
 21
125.0
 31
0.0
  0
LINE
  5
37A
  8
0
 10
75.722499999999954
 20
154.0
 30
0.0
 11
64.277500000000032
 21
154.0
 31
0.0
  0
LINE
  5
37B
  8
0
 10
54.782874041255177
 20
140.5
 30
0.0
 11
85.217125958744873
 21
140.5
 31
0.0
  0
LINE
  5
37C
  8
0
 10
60.5
 20
124.5
 30
0.0
 11
66.5
 21
124.5
 31
0.0
  0
LINE
  5
37D
  8
0
 10
85.0
 20
144.5
 30
0.0
 11
55.0
 21
144.5
 31
0.0
  0
LINE
  5
37E
  8
0
 10
85.0
 20
142.0
 30
0.0
 11
55.000000000000057
 21
142.0
 31
0.0
  0
LINE
  5
37F
  8
0
 10
85.0
 20
142.0
 30
0.0
 11
85.0
 21
144.5
 31
0.0
  0
LINE
  5
380
  8
0
 10
60.0
 20
140.5
 30
0.0
 11
60.000000000000057
 21
141.5
 31
0.0
  0
LINE
  5
381
  8
0
 10
80.000000000000057
 20
140.5
 30
0.0
 11
80.0
 21
141.5
 31
0.0
  0
LINE
  5
382
  8
0
 10
79.100000000000023
 20
146.0
 30
0.0
 11
60.900000000000027
 21
146.0
 31
0.0
  0
LINE
  5
383
  8
0
 10
60.900000000000027
 20
144.5
 30
0.0
 11
60.900000000000027
 21
146.0
 31
0.0
  0
LINE
  5
384
  8
0
 10
79.100000000000023
 20
144.5
 30
0.0
 11
79.100000000000023
 21
146.0
 31
0.0
  0
LINE
  5
385
  8
0
 10
64.277500000000032
 20
152.49999999999989
 30
0.0
 11
64.277500000000032
 21
154.0
 31
0.0
  0
LINE
  5
386
  8
0
 10
75.722499999999954
 20
152.49999999999989
 30
0.0
 11
75.722499999999954
 21
154.0
 31
0.0
  0
LINE
  5
387
  8
0
 10
63.42150000000003
 20
146.0
 30
0.0
 11
63.42150000000003
 21
152.5
 31
0.0
  0
LINE
  5
388
  8
0
 10
76.57850000000002
 20
146.0
 30
0.0
 11
76.57850000000002
 21
152.5
 31
0.0
  0
LINE
  5
389
  8
0
 10
76.57850000000002
 20
152.5
 30
0.0
 11
63.42150000000003
 21
152.5
 31
0.0
  0
LINE
  5
38A
  8
3
 10
75.722499999999954
 20
152.5
 30
0.0
 11
75.722499999999954
 21
146.0
 31
0.0
  0
LINE
  5
38B
  8
3
 10
64.277500000000032
 20
152.49999999999989
 30
0.0
 11
64.277500000000032
 21
146.0
 31
0.0
  0
LINE
  5
38C
  8
0
 10
60.5
 20
124.5
 30
0.0
 11
60.5
 21
125.0
 31
0.0
  0
LINE
  5
38D
  8
0
 10
66.5
 20
124.5
 30
0.0
 11
66.5
 21
125.0
 31
0.0
  0
LINE
  5
38E
  8
0
 10
69.0
 20
124.5
 30
0.0
 11
69.0
 21
125.0
 31
0.0
  0
LINE
  5
38F
  8
0
 10
71.0
 20
124.5
 30
0.0
 11
71.0
 21
125.0
 31
0.0
  0
LINE
  5
390
  8
0
 10
73.5
 20
124.5
 30
0.0
 11
73.5
 21
125.0
 31
0.0
  0
LINE
  5
391
  8
0
 10
79.5
 20
124.5
 30
0.0
 11
79.5
 21
125.0
 31
0.0
  0
LINE
  5
392
  8
0
 10
73.5
 20
124.5
 30
0.0
 11
79.5
 21
124.5
 31
0.0
  0
LINE
  5
393
  8
0
 10
69.0
 20
124.5
 30
0.0
 11
71.0
 21
124.5
 31
0.0
  0
LINE
  5
394
  8
0
 10
72.947724131545442
 20
127.5
 30
0.0
 11
78.675777233115468
 21
127.5
 31
0.0
  0
LINE
  5
395
  8
0
 10
67.443413327969211
 20
126.5
 30
0.0
 11
72.556586672030903
 21
126.5
 31
0.0
  0
LINE
  5
396
  8
0
 10
67.052275868454615
 20
127.5
 30
0.0
 11
67.052275868454615
 21
140.5
 31
0.0
  0
LINE
  5
397
  8
0
 10
72.947724131545442
 20
127.5
 30
0.0
 11
72.947724131545442
 21
140.5
 31
0.0
  0
LINE
  5
398
  8
0
 10
78.675777233115468
 20
127.5
 30
0.0
 11
78.675777233115468
 21
140.5
 31
0.0
  0
LINE
  5
399
  8
0
 10
82.844488678081348
 20
127.5
 30
0.0
 11
82.844488678081348
 21
140.5
 31
0.0
  0
LINE
  5
39A
  8
0
 10
67.052275868454672
 20
127.5
 30
0.0
 11
67.443413327969211
 21
126.5
 31
0.0
  0
LINE
  5
39B
  8
0
 10
72.556586672030846
 20
126.5
 30
0.0
 11
72.947724131545442
 21
127.5
 31
0.0
  0
LINE
  5
39C
  8
0
 10
78.675777233115468
 20
127.5
 30
0.0
 11
78.284639773600929
 21
126.5
 31
0.0
  0
LINE
  5
39D
  8
0
 10
81.900199318569094
 20
126.5
 30
0.0
 11
82.844488678081348
 21
127.5
 31
0.0
  0
LINE
  5
39E
  8
0
 10
78.284639773600929
 20
126.5
 30
0.0
 11
81.900199318569094
 21
126.5
 31
0.0
  0
LINE
  5
39F
  8
0
 10
67.443413327969211
 20
126.5
 30
0.0
 11
67.443413327969211
 21
140.5
 31
0.0
  0
LINE
  5
3A0
  8
0
 10
72.556586672030846
 20
126.5
 30
0.0
 11
72.556586672030846
 21
140.5
 31
0.0
  0
LINE
  5
3A1
  8
0
 10
81.900199318569094
 20
126.5
 30
0.0
 11
81.900199318569094
 21
140.5
 31
0.0
  0
LINE
  5
3A2
  8
0
 10
85.217125958744873
 20
127.5
 30
0.0
 11
85.217125958744873
 21
140.5
 31
0.0
  0
LINE
  5
3A3
  8
0
 10
82.844488678081348
 20
127.5
 30
0.0
 11
85.217125958744873
 21
127.5
 31
0.0
  0
LINE
  5
3A4
  8
0
 10
85.217125958744873
 20
127.5
 30
0.0
 11
84.272836599232562
 21
126.5
 31
0.0
  0
LINE
  5
3A5
  8
0
 10
84.272836599232505
 20
126.5
 30
0.0
 11
84.500000000000014
 21
126.5
 31
0.0
  0
LINE
  5
3A6
  8
0
 10
83.0
 20
125.0
 30
0.0
 11
84.500000000000014
 21
126.5
 31
0.0
  0
LINE
  5
3A7
  8
0
 10
55.727163400767552
 20
126.5
 30
0.0
 11
55.500000000000057
 21
126.5
 31
0.0
  0
LINE
  5
3A8
  8
0
 10
54.782874041255177
 20
127.5
 30
0.0
 11
55.727163400767488
 21
126.5
 31
0.0
  0
LINE
  5
3A9
  8
0
 10
57.155511321918652
 20
127.5
 30
0.0
 11
54.782874041255177
 21
127.5
 31
0.0
  0
LINE
  5
3AA
  8
0
 10
54.782874041255177
 20
127.5
 30
0.0
 11
54.782874041255177
 21
140.5
 31
0.0
  0
LINE
  5
3AB
  8
0
 10
58.099800681430899
 20
126.5
 30
0.0
 11
58.099800681430899
 21
140.5
 31
0.0
  0
LINE
  5
3AC
  8
0
 10
61.715360226399177
 20
126.5
 30
0.0
 11
58.099800681430899
 21
126.5
 31
0.0
  0
LINE
  5
3AD
  8
0
 10
58.099800681430963
 20
126.5
 30
0.0
 11
57.155511321918652
 21
127.5
 31
0.0
  0
LINE
  5
3AE
  8
0
 10
61.324222766884652
 20
127.5
 30
0.0
 11
61.715360226399177
 21
126.5
 31
0.0
  0
LINE
  5
3AF
  8
0
 10
57.155511321918652
 20
127.5
 30
0.0
 11
57.155511321918652
 21
140.5
 31
0.0
  0
LINE
  5
3B0
  8
0
 10
61.324222766884652
 20
127.5
 30
0.0
 11
61.324222766884652
 21
140.5
 31
0.0
  0
LINE
  5
3B1
  8
0
 10
57.000000000000057
 20
125.0
 30
0.0
 11
55.500000000000057
 21
126.5
 31
0.0
  0
LINE
  5
3B2
  8
0
 10
67.052275868454615
 20
127.5
 30
0.0
 11
61.324222766884652
 21
127.5
 31
0.0
  0
LINE
  5
3B3
  8
1
 10
70.0
 20
122.0
 30
0.0
 11
70.0
 21
156.5
 31
0.0
  0
LINE
  5
3B4
  8
0
 10
75.5
 20
124.5
 30
0.0
 11
75.5
 21
125.0
 31
0.0
  0
TEXT
  5
442
  8
0
 62
     3
 10
0.0
 20
0.0
 30
0.0
 40
10.0
  1
BM-1/4
  7
STANDARD1
  0
ENDSEC
  0
EOF
