  0
SECTION
  2
HEADER
  9
$ACADVER
  1
AC1009
  9
$INSBASE
 10
0.0
 20
0.0
 30
0.0
  9
$EXTMIN
 10
0.0
 20
-2.960436562073669
 30
0.0
  9
$EXTMAX
 10
229.7999999999991019
 20
266.4000027492091931
 30
0.0
  9
$LIMMIN
 10
0.0
 20
0.0
  9
$LIMMAX
 10
187.5
 20
135.0
  9
$ORTHOMODE
 70
     1
  9
$REGENMODE
 70
     1
  9
$FILLMODE
 70
     1
  9
$QTEXTMODE
 70
     0
  9
$MIRRTEXT
 70
     0
  9
$DRAGMODE
 70
     2
  9
$LTSCALE
 40
5.0
  9
$OSMODE
 70
    37
  9
$ATTMODE
 70
     1
  9
$TEXTSIZE
 40
4.0
  9
$TRACEWID
 40
0.05
  9
$TEXTSTYLE
  7
STANDARD
  9
$CLAYER
  8
0
  9
$CELTYPE
  6
BYLAYER
  9
$CECOLOR
 62
   256
  9
$DIMSCALE
 40
0.5
  9
$DIMASZ
 40
3.0
  9
$DIMEXO
 40
2.0
  9
$DIMDLI
 40
0.38
  9
$DIMRND
 40
0.0
  9
$DIMDLE
 40
0.0
  9
$DIMEXE
 40
2.0
  9
$DIMTP
 40
0.0
  9
$DIMTM
 40
0.0
  9
$DIMTXT
 40
3.0
  9
$DIMCEN
 40
0.0
  9
$DIMTSZ
 40
0.0
  9
$DIMTOL
 70
     0
  9
$DIMLIM
 70
     0
  9
$DIMTIH
 70
     0
  9
$DIMTOH
 70
     0
  9
$DIMSE1
 70
     0
  9
$DIMSE2
 70
     0
  9
$DIMTAD
 70
     1
  9
$DIMZIN
 70
     0
  9
$DIMBLK
  1

  9
$DIMASO
 70
     0
  9
$DIMSHO
 70
     0
  9
$DIMPOST
  1

  9
$DIMAPOST
  1

  9
$DIMALT
 70
     0
  9
$DIMALTD
 70
     2
  9
$DIMALTF
 40
25.3999999999999986
  9
$DIMLFAC
 40
1.0
  9
$DIMTOFL
 70
     0
  9
$DIMTVP
 40
1.6000000000000001
  9
$DIMTIX
 70
     1
  9
$DIMSOXD
 70
     0
  9
$DIMSAH
 70
     0
  9
$DIMBLK1
  1

  9
$DIMBLK2
  1

  9
$DIMSTYLE
  2
STANDARD
  9
$DIMCLRD
 70
     0
  9
$DIMCLRE
 70
     0
  9
$DIMCLRT
 70
     0
  9
$DIMTFAC
 40
1.0
  9
$DIMGAP
 40
0.09
  9
$LUNITS
 70
     2
  9
$LUPREC
 70
     1
  9
$SKETCHINC
 40
0.1
  9
$FILLETRAD
 40
1.0
  9
$AUNITS
 70
     0
  9
$AUPREC
 70
     0
  9
$MENU
  1
E:\r13\win\SUPPORT\ACAD
  9
$ELEVATION
 40
0.0
  9
$PELEVATION
 40
0.0
  9
$THICKNESS
 40
0.0
  9
$LIMCHECK
 70
     0
  9
$BLIPMODE
 70
     0
  9
$CHAMFERA
 40
0.0
  9
$CHAMFERB
 40
0.0
  9
$SKPOLY
 70
     0
  9
$TDCREATE
 40
2449840.6143865738995373
  9
$TDUPDATE
 40
2460864.3916550930589437
  9
$TDINDWG
 40
0.7420412384
  9
$TDUSRTIMER
 40
0.7420412384
  9
$USRTIMER
 70
     1
  9
$ANGBASE
 50
0.0
  9
$ANGDIR
 70
     0
  9
$PDMODE
 70
     0
  9
$PDSIZE
 40
0.0
  9
$PLINEWID
 40
0.0
  9
$COORDS
 70
     1
  9
$SPLFRAME
 70
     0
  9
$SPLINETYPE
 70
     6
  9
$SPLINESEGS
 70
     8
  9
$ATTDIA
 70
     1
  9
$ATTREQ
 70
     1
  9
$HANDLING
 70
     1
  9
$HANDSEED
  5
66EB
  9
$SURFTAB1
 70
     6
  9
$SURFTAB2
 70
     6
  9
$SURFTYPE
 70
     6
  9
$SURFU
 70
     6
  9
$SURFV
 70
     6
  9
$UCSNAME
  2

  9
$UCSORG
 10
0.0
 20
0.0
 30
0.0
  9
$UCSXDIR
 10
1.0
 20
0.0
 30
0.0
  9
$UCSYDIR
 10
0.0
 20
1.0
 30
0.0
  9
$PUCSNAME
  2

  9
$PUCSORG
 10
0.0
 20
0.0
 30
0.0
  9
$PUCSXDIR
 10
1.0
 20
0.0
 30
0.0
  9
$PUCSYDIR
 10
0.0
 20
1.0
 30
0.0
  9
$USERI1
 70
     0
  9
$USERI2
 70
     1
  9
$USERI3
 70
     1
  9
$USERI4
 70
     0
  9
$USERI5
 70
     0
  9
$USERR1
 40
0.0
  9
$USERR2
 40
0.0
  9
$USERR3
 40
0.0
  9
$USERR4
 40
0.0
  9
$USERR5
 40
0.0
  9
$WORLDVIEW
 70
     1
  9
$SHADEDGE
 70
     3
  9
$SHADEDIF
 70
    70
  9
$TILEMODE
 70
     1
  9
$MAXACTVP
 70
    16
  9
$PLIMCHECK
 70
     0
  9
$PEXTMIN
 10
1.0000000000000000E+20
 20
1.0000000000000000E+20
 30
1.0000000000000000E+20
  9
$PEXTMAX
 10
-1.0000000000000000E+20
 20
-1.0000000000000000E+20
 30
-1.0000000000000000E+20
  9
$PLIMMIN
 10
0.0
 20
0.0
  9
$PLIMMAX
 10
12.0
 20
9.0
  9
$UNITMODE
 70
     0
  9
$VISRETAIN
 70
     0
  9
$PLINEGEN
 70
     0
  9
$PSLTSCALE
 70
     0
  0
ENDSEC
  0
SECTION
  2
TABLES
  0
TABLE
  2
VPORT
 70
     1
  0
VPORT
  2
*ACTIVE
 70
     0
 10
0.0
 20
0.0
 11
1.0
 21
1.0
 12
539.4919168591223979
 22
229.7154884581055967
 13
0.0
 23
0.0
 14
5.0
 24
5.0
 15
5.0
 25
5.0
 16
0.0
 26
0.0
 36
1.0
 17
0.0
 27
0.0
 37
0.0
 40
459.4309769162111934
 41
2.3485221674876842
 42
50.0
 43
0.0
 44
0.0
 50
0.0
 51
0.0
 71
     0
 72
   100
 73
     1
 74
     0
 75
     0
 76
     0
 77
     0
 78
     0
  0
ENDTAB
  0
TABLE
  2
LTYPE
 70
     3
  0
LTYPE
  2
CONTINUOUS
 70
     0
  3
Solid Line
 72
    65
 73
     0
 40
0.0
  0
LTYPE
  2
CENTER
 70
     0
  3
____ _ ____ _ ____ _ ____ _ ____ _ ____ _ ____
 72
    65
 73
     4
 40
2.0
 49
1.25
 49
-0.25
 49
0.25
 49
-0.25
  0
LTYPE
  2
PHANTOM2
 70
     0
  3
___ _ _ ___ _ _ ___ _ _ ___ _ _
 72
    65
 73
     6
 40
1.25
 49
0.625
 49
-0.125
 49
0.125
 49
-0.125
 49
0.125
 49
-0.125
  0
ENDTAB
  0
TABLE
  2
LAYER
 70
     3
  0
LAYER
  2
0
 70
     0
 62
     7
  6
CONTINUOUS
  0
LAYER
  2
1
 70
     0
 62
     1
  6
CENTER
  0
LAYER
  2
3
 70
     0
 62
     3
  6
CONTINUOUS
  0
ENDTAB
  0
TABLE
  2
STYLE
 70
     2
  0
STYLE
  2
STANDARD
 70
     0
 40
0.0
 41
1.0
 50
0.0
 71
     0
 42
4.0
  3
TXT
  4
BIGFONT
  0
STYLE
  2
STANDARD1
 70
     0
 40
0.0
 41
1.0
 50
0.0
 71
     0
 42
3.0
  3
txt
  4

  0
ENDTAB
  0
TABLE
  2
VIEW
 70
     1
  0
VIEW
  2
ALL
 70
     0
 40
179.6615229999999883
 10
141.9039180000000044
 20
89.8307609999999954
 41
0.0
 11
0.0
 21
0.0
 31
1.0
 12
0.0
 22
0.0
 32
0.0
 42
0.0
 43
0.0
 44
0.0
 50
0.0
 71
     0
  0
ENDTAB
  0
TABLE
  2
UCS
 70
     0
  0
ENDTAB
  0
TABLE
  2
APPID
 70
    13
  0
APPID
  2
ACAD
 70
     0
  0
APPID
  2
DCO15
 70
     0
  0
APPID
  2
ACAD_EXEMPT_FROM_CAD_STANDARDS
 70
     0
  0
APPID
  2
ACAD_MLEADERVER
 70
     0
  0
APPID
  2
ACAD_NAV_VCDISPLAY
 70
     0
  0
APPID
  2
ACAD_DSTYLE_DIMJAG
 70
     0
  0
APPID
  2
ACAD_DSTYLE_DIMTALN
 70
     0
  0
APPID
  2
ACAD_PSEXT
 70
     0
  0
APPID
  2
ACAD_DSTYLE_DIMBREAK
 70
     0
  0
APPID
  2
ACAECLAYERSTANDARD
 70
     0
  0
APPID
  2
ACCMTRANSPARENCY
 70
     0
  0
APPID
  2
GRADIENTCOLOR1ACI
 70
     0
  0
APPID
  2
GRADIENTCOLOR2ACI
 70
     0
  0
ENDTAB
  0
TABLE
  2
DIMSTYLE
 70
     1
  0
DIMSTYLE
  2
STANDARD
 70
     0
  3

  4

  5

  6

  7

 40
1.0
 41
0.18
 42
0.0625
 43
0.38
 44
0.18
 45
0.0
 46
0.0
 47
0.0
 48
0.0
140
0.18
141
0.09
142
0.0
143
25.3999999999999986
144
1.0
145
0.0
146
1.0
147
0.09
 71
     0
 72
     0
 73
     1
 74
     1
 75
     0
 76
     0
 77
     0
 78
     0
170
     0
171
     2
172
     0
173
     0
174
     0
175
     0
176
     0
177
     0
178
     0
  0
ENDTAB
  0
ENDSEC
  0
SECTION
  2
BLOCKS
  0
BLOCK
  8
0
  2
$MODEL_SPACE
 70
     0
 10
0.0
 20
0.0
 30
0.0
  3
$MODEL_SPACE
  1

  0
ENDBLK
  5
1BD
  8
0
  0
BLOCK
 67
     1
  8
0
  2
$PAPER_SPACE
 70
     0
 10
0.0
 20
0.0
 30
0.0
  3
$PAPER_SPACE
  1

  0
ENDBLK
  5
1BB
 67
     1
  8
0
  0
ENDSEC
  0
SECTION
  2
ENTITIES
  0
TEXT
  5
189A
  8
0
 62
     3
 10
0.0
 20
0.0
 30
0.0
 40
10.0
  1
BLPLR16070
  7
STANDARD1
  0
ARC
  5
28D8
  8
0
 10
60.2011291330219933
 20
175.8011291330215045
 30
0.0
 40
0.7988716649422317
 50
359.9190175580811228
 51
90.0809824419179535
  0
ARC
  5
28D9
  8
0
 10
39.7990112328383319
 20
175.800988767161499
 30
0.0
 40
0.799011844631771
 50
89.9290971715546732
 51
180.0709028284638009
  0
ARC
  5
28DA
  8
0
 10
53.000103303807748
 20
166.399973397229104
 30
0.0
 40
7.999896696236493
 50
331.1178378048535933
 51
0.0001905307687144
  0
ARC
  5
28DB
  8
0
 10
46.992363239154372
 20
166.3980333891167902
 30
0.0
 40
7.9923634811077333
 50
179.9859017292033059
 51
208.8960699379568098
  0
ARC
  5
28DC
  8
0
 10
63.4921745202440775
 20
160.6093387229049938
 30
0.0
 40
3.9840518118006059
 50
151.0805470320293011
 51
169.7170213606696905
  0
ARC
  5
28DD
  8
0
 10
36.4910859036901414
 20
160.6033776277024003
 30
0.0
 40
4.0015876677381801
 50
10.3241746934864391
 51
28.8782569138139102
  0
ARC
  5
28DE
  8
0
 10
55.9999632433079526
 20
150.6761929206354864
 30
0.0
 40
4.0000367566945929
 50
0.0000645612076508
 51
13.9822460852966994
  0
ARC
  5
28DF
  8
0
 10
44.0017379227999186
 20
150.6759843098608087
 30
0.0
 40
4.0017379284748786
 50
166.0207407070849968
 51
179.9969486347231111
  0
LINE
  5
28E0
  8
0
 10
60.0
 20
133.5999999999995111
 30
0.0
 11
60.0
 21
146.0999999999995111
 31
0.0
  0
LINE
  5
28E1
  8
0
 10
40.0
 20
146.0999999999995111
 30
0.0
 11
40.0
 21
133.5999999999995111
 31
0.0
  0
LINE
  5
28E2
  8
0
 10
60.0
 20
148.5999999999995111
 30
0.0
 11
60.0
 21
150.6761974278994956
 31
0.0
  0
LINE
  5
28E3
  8
0
 10
40.0
 20
150.6761974278994956
 30
0.0
 11
40.0
 21
148.5999999999995111
 31
0.0
  0
LINE
  5
28E4
  8
0
 10
40.0
 20
133.5999999999995111
 30
0.0
 11
40.2886751345999912
 21
133.0999999999995111
 31
0.0
  0
LINE
  5
28E5
  8
0
 10
59.7113248654000017
 20
133.0999999999995111
 30
0.0
 11
60.0
 21
133.5999999999995111
 31
0.0
  0
ARC
  5
28E6
  8
0
 10
82.1997596608960066
 20
157.1999923171856892
 30
0.0
 40
22.999764925734631
 50
169.6794139690236989
 51
193.9824367414560129
  0
ARC
  5
28E7
  8
0
 10
17.7999641694430011
 20
157.2000011453822879
 30
0.0
 40
23.0000350457227896
 50
346.0177081487665873
 51
10.3204411407536494
  0
LINE
  5
28E8
  8
0
 10
59.0
 20
146.0999999999995111
 30
0.0
 11
59.0
 21
148.5999999999995111
 31
0.0
  0
LINE
  5
28E9
  8
0
 10
41.0
 20
148.5999999999995111
 30
0.0
 11
41.0
 21
146.0999999999995111
 31
0.0
  0
ARC
  5
28EA
  8
0
 10
55.9507032273834781
 20
176.8007032273829964
 30
0.0
 40
0.4992972678415796
 50
359.9193026338629124
 51
90.08069736613038
  0
ARC
  5
28EB
  8
0
 10
44.0498738800653769
 20
176.8001261199341059
 30
0.0
 40
0.4998738959756021
 50
89.9855440740121253
 51
180.0144559259898926
  0
LINE
  5
28EC
  8
0
 10
56.4500000000000384
 20
176.5999999999995111
 30
0.0
 11
56.4500000000000384
 21
176.7999999999994998
 31
0.0
  0
LINE
  5
28ED
  8
0
 10
43.5500000000000114
 20
176.7999999999994998
 30
0.0
 11
43.5500000000000114
 21
176.5999999999995111
 31
0.0
  0
LINE
  5
28F8
  8
0
 10
61.0
 20
173.0999999999995111
 30
0.0
 11
61.0
 21
175.7999999999994998
 31
0.0
  0
LINE
  5
28F9
  8
0
 10
61.0
 20
166.3999999999994941
 30
0.0
 11
61.0
 21
171.09999999999431
 31
0.0
  0
LINE
  5
28FA
  8
0
 10
39.0
 20
171.0999999999995111
 30
0.0
 11
39.0
 21
166.3999999999994941
 31
0.0
  0
LINE
  5
28FB
  8
0
 10
39.0
 20
175.7999999999994998
 30
0.0
 11
39.0000000000000568
 21
173.0999999999995111
 31
0.0
  0
LINE
  5
290F
  8
0
 10
46.721280737900031
 20
166.3999999999994941
 30
0.0
 11
46.721280737900031
 21
175.7999999999994998
 31
0.0
  0
LINE
  5
2911
  8
0
 10
53.2787192622000205
 20
175.7999999999994998
 30
0.0
 11
53.2787192622000205
 21
166.3999999999994941
 31
0.0
  0
LINE
  5
2913
  8
0
 10
57.4539071087000366
 20
175.7999999999994998
 30
0.0
 11
53.2787192622000205
 21
175.7999999999994998
 31
0.0
  0
LINE
  5
2914
  8
0
 10
46.721280737900031
 20
175.7999999999994998
 30
0.0
 11
42.5460928914000078
 21
175.7999999999994998
 31
0.0
  0
LINE
  5
2916
  8
0
 10
60.2000000000000384
 20
176.5999999999995111
 30
0.0
 11
39.8000000000000114
 21
176.5999999999995111
 31
0.0
  0
LINE
  5
2918
  8
0
 10
46.721280737900031
 20
166.3999999999994941
 30
0.0
 11
42.5460928914000078
 21
166.3999999999994941
 31
0.0
  0
LINE
  5
2919
  8
0
 10
57.4539071087000366
 20
166.3999999999994941
 30
0.0
 11
53.2787192622000205
 21
166.3999999999994941
 31
0.0
  0
LINE
  5
291B
  8
0
 10
57.4539071087000366
 20
166.3999999999994941
 30
0.0
 11
57.4539071087000366
 21
175.7999999999994998
 31
0.0
  0
LINE
  5
291C
  8
0
 10
42.5460928914000078
 20
175.7999999999994998
 30
0.0
 11
42.5460928914000078
 21
166.3999999999994941
 31
0.0
  0
LINE
  5
291D
  8
0
 10
60.0
 20
133.5999999999995111
 30
0.0
 11
40.0
 21
133.5999999999995111
 31
0.0
  0
LINE
  5
291E
  8
0
 10
60.0
 20
146.0999999999995111
 30
0.0
 11
40.0
 21
146.0999999999995111
 31
0.0
  0
LINE
  5
291F
  8
0
 10
60.0
 20
148.5999999999995111
 30
0.0
 11
40.0
 21
148.5999999999995111
 31
0.0
  0
LINE
  5
2920
  8
0
 10
59.7113248654000017
 20
133.0999999999995111
 30
0.0
 11
40.2886751345999912
 21
133.0999999999995111
 31
0.0
  0
LINE
  5
2921
  8
0
 10
60.7326263708000624
 20
175.7999999999994998
 30
0.0
 11
60.7326263708000624
 21
166.3999999999994941
 31
0.0
  0
LINE
  5
2922
  8
0
 10
39.2673736292000513
 20
166.3999999999994941
 30
0.0
 11
39.2673736292000513
 21
175.7999999999994998
 31
0.0
  0
LINE
  5
2923
  8
0
 10
55.9500000000000526
 20
177.2999999999994998
 30
0.0
 11
44.0500000000000114
 21
177.2999999999994998
 31
0.0
  0
LINE
  5
2936
  8
0
 10
61.0
 20
175.7999999999994998
 30
0.0
 11
60.7326263708000624
 21
175.7999999999994998
 31
0.0
  0
LINE
  5
2937
  8
0
 10
39.2673736292000513
 20
175.7999999999994998
 30
0.0
 11
39.0
 21
175.7999999999994998
 31
0.0
  0
LINE
  5
2938
  8
0
 10
60.0049324024000086
 20
162.5359448711994901
 30
0.0
 11
39.9950675977000287
 21
162.5359448711994901
 31
0.0
  0
LINE
  5
2939
  8
0
 10
39.2673736292000513
 20
166.3999999999994941
 30
0.0
 11
39.0
 21
166.3999999999994941
 31
0.0
  0
LINE
  5
293A
  8
0
 10
61.0
 20
166.3999999999994941
 30
0.0
 11
60.7326263708000624
 21
166.3999999999994941
 31
0.0
  0
LINE
  5
293B
  8
0
 10
59.5721140990000322
 20
161.3205314765995126
 30
0.0
 11
40.4278859011000122
 21
161.3205314765995126
 31
0.0
  0
LINE
  5
293C
  8
0
 10
60.0
 20
150.6761974278994956
 30
0.0
 11
40.0
 21
150.6761974278994956
 31
0.0
  0
LINE
  5
293D
  8
0
 10
59.8814814815000318
 20
151.6426866978995065
 30
0.0
 11
40.1185185186000126
 21
151.6426866978995065
 31
0.0
  0
ARC
  5
2957
  8
0
 10
51.0999999999999304
 20
253.8500027492115976
 30
0.0
 40
2.6457513110645912
 50
1.082852917500825
 51
178.9171470824992127
  0
ARC
  5
295F
  8
0
 10
49.9999999999999574
 20
252.9000027492116089
 30
0.0
 40
6.4500000000000091
 50
8.9190441940425131
 51
171.0809558059575011
  0
ARC
  5
2960
  8
0
 10
49.9999999999999574
 20
252.9000027492116089
 30
0.0
 40
6.4500000000000064
 50
188.4697264838995068
 51
351.0809558059606275
  0
ARC
  5
2965
  8
0
 10
49.8476185125463402
 20
252.6360702708014969
 30
0.0
 40
11.29755260017461
 50
47.6801509953130207
 51
72.3198490046913349
  0
ARC
  5
2967
  8
0
 10
49.9594212400963471
 20
252.9009935121264903
 30
0.0
 40
11.0398123857902508
 50
347.3825769457100137
 51
354.79778995003619
  0
ARC
  5
2969
  8
0
 10
49.9668265488102321
 20
252.9574608521367054
 30
0.0
 40
11.0647437810211802
 50
287.4167306283001722
 51
312.5832693716989752
  0
ARC
  5
296B
  8
0
 10
50.0582243304148307
 20
253.000850247729403
 30
0.0
 40
11.1136474762674808
 50
227.4730027233784142
 51
252.5269972766222963
  0
ARC
  5
2970
  8
0
 10
50.0937977238644621
 20
252.7375403258143933
 30
0.0
 40
11.18311118388878
 50
107.5520658880532068
 51
132.4479341117593094
  0
ARC
  5
2977
  8
0
 10
49.9999999999999574
 20
252.9000027492116089
 30
0.0
 40
7.5500000000000052
 50
7.6112106176016221
 51
172.3887893823983859
  0
ARC
  5
2978
  8
0
 10
49.9999999999999574
 20
252.9000027492116089
 30
0.0
 40
7.5500000000000016
 50
187.2285635296996134
 51
352.3887893824011144
  0
LINE
  5
2999
  8
0
 10
115.9998868313775944
 20
201.3999999999994941
 30
0.0
 11
115.999886831385993
 21
172.1000079135685894
 31
0.0
  0
LINE
  5
299A
  8
0
 10
117.9998868313009979
 20
172.1000079135770022
 30
0.0
 11
117.9998868313915068
 21
201.3999999999994941
 31
0.0
  0
ARC
  5
299D
  8
0
 10
116.9999999999992042
 20
201.3999999999994941
 30
0.0
 40
1.0000027492144641
 50
359.8656490015445115
 51
180.1343509997327885
  0
ARC
  5
29A0
  8
0
 10
127.2000126925503025
 20
175.8000652929939065
 30
0.0
 40
0.7999347071062188
 50
67.9976050201010764
 51
90.0009091112152362
  0
ARC
  5
29A1
  8
0
 10
106.7961701515866935
 20
175.8200846021732104
 30
0.0
 40
0.7799248012855049
 50
89.7186444268368746
 51
112.3174927859356984
  0
ARC
  5
29A2
  8
0
 10
120.2292039246303972
 20
166.2894038272864918
 30
0.0
 40
7.745898949645535
 50
331.0154534727964801
 51
339.8283806634443067
  0
ARC
  5
29A3
  8
0
 10
113.8734051627098012
 20
166.3363322111237039
 30
0.0
 40
7.8584013381663764
 50
200.2348041528651095
 51
208.9213257574606928
  0
ARC
  5
29A4
  8
0
 10
130.5084536297989075
 20
160.6035416037850894
 30
0.0
 40
4.0011052697292309
 50
151.1206147133794104
 51
169.6769536876869893
  0
ARC
  5
29A5
  8
0
 10
103.4913694365448009
 20
160.6034785963138063
 30
0.0
 40
4.0012906302899749
 50
10.3234799218407396
 51
28.8789516771016608
  0
LINE
  5
29A6
  8
0
 10
106.9999999999991047
 20
133.5999999999995111
 30
0.0
 11
107.288675134599103
 21
133.0999999999995111
 31
0.0
  0
LINE
  5
29A7
  8
0
 10
126.7113248653991064
 20
133.0999999999995111
 30
0.0
 11
126.9999999999991047
 21
133.5999999999995111
 31
0.0
  0
ARC
  5
29A8
  8
0
 10
123.0188631075184986
 20
150.6785105706867967
 30
0.0
 40
3.981137564478177
 50
359.9667096842460978
 51
14.0156009622584907
  0
ARC
  5
29A9
  8
0
 10
111.0004172519795986
 20
150.6761462613096114
 30
0.0
 40
4.0004172523078143
 50
166.0184221844662886
 51
179.9992671690293946
  0
LINE
  5
29AA
  8
0
 10
126.9999999999991047
 20
133.5999999999995111
 30
0.0
 11
126.9999999999991047
 21
146.0999999999995111
 31
0.0
  0
LINE
  5
29AB
  8
0
 10
106.9999999999991047
 20
146.0999999999995111
 30
0.0
 11
106.9999999999991047
 21
133.5999999999995111
 31
0.0
  0
LINE
  5
29AC
  8
0
 10
126.9999999999991047
 20
148.5999999999995111
 30
0.0
 11
126.9999999999991047
 21
150.6761974278994956
 31
0.0
  0
LINE
  5
29AD
  8
0
 10
106.9999999999991047
 20
150.6761974278994956
 30
0.0
 11
106.9999999999991047
 21
148.5999999999995111
 31
0.0
  0
ARC
  5
29AE
  8
0
 10
149.2000250001202062
 20
157.2000007991674124
 30
0.0
 40
23.0000244524377813
 50
169.6795531771579988
 51
193.9822975333210877
  0
ARC
  5
29AF
  8
0
 10
84.7999553972352942
 20
157.2000014257965859
 30
0.0
 40
23.0000436256703082
 50
346.0177127509247725
 51
10.3204365385937002
  0
LINE
  5
29B0
  8
0
 10
125.9999999999991047
 20
146.0999999999995111
 30
0.0
 11
125.9999999999991047
 21
148.5999999999995111
 31
0.0
  0
LINE
  5
29B1
  8
0
 10
107.9999999999991047
 20
148.5999999999995111
 30
0.0
 11
107.9999999999991047
 21
146.0999999999995111
 31
0.0
  0
ARC
  5
29B3
  8
0
 10
122.9559155691108998
 20
176.8059155691113062
 30
0.0
 40
0.4941198425525034
 50
359.3140424420569161
 51
90.6859575579343442
  0
ARC
  5
29B4
  8
0
 10
111.0351022572257023
 20
176.8148977427728141
 30
0.0
 40
0.4853309620312647
 50
88.2409696562823882
 51
181.7590303437154091
  0
LINE
  5
29B5
  8
0
 10
123.449999999999207
 20
176.5999999999995111
 30
0.0
 11
123.449999999999207
 21
176.7999999999994998
 31
0.0
  0
LINE
  5
29B6
  8
0
 10
110.5499999999991019
 20
176.7999999999994998
 30
0.0
 11
110.5499999999991019
 21
176.5999999999995111
 31
0.0
  0
ARC
  5
29C2
  8
0
 10
116.9998868313435025
 20
172.0991947632242898
 30
0.0
 40
1.0000003305641161
 50
179.9534099274262076
 51
0.0465900730525031
  0
LINE
  5
29C3
  8
0
 10
119.4105458270989999
 20
166.3999999999994941
 30
0.0
 11
114.5894541728989964
 21
166.3999999999994941
 31
0.0
  0
LINE
  5
29C4
  8
0
 10
114.5894541728989964
 20
175.7999999999994998
 30
0.0
 11
114.5894541728989964
 21
166.3999999999994941
 31
0.0
  0
LINE
  5
29C5
  8
0
 10
119.4105458270989999
 20
166.3999999999994941
 30
0.0
 11
119.4105458270989999
 21
175.7999999999994998
 31
0.0
  0
LINE
  5
29C7
  8
0
 10
127.4999999999991047
 20
175.7999999999994998
 30
0.0
 11
125.0894541728989964
 21
175.7999999999994998
 31
0.0
  0
LINE
  5
29CA
  8
0
 10
108.9105458270990994
 20
175.7999999999994998
 30
0.0
 11
106.4999999999991047
 21
175.7999999999994998
 31
0.0
  0
LINE
  5
29CC
  8
0
 10
127.199999999999207
 20
176.5999999999995111
 30
0.0
 11
118.6422613286991066
 21
176.5999999999995111
 31
0.0
  0
LINE
  5
29CD
  8
0
 10
116.6226061835992027
 20
176.5999999999995111
 30
0.0
 11
106.8000000201991071
 21
176.5999999999995111
 31
0.0
  0
LINE
  5
29CE
  8
0
 10
127.4999999999991047
 20
166.3999999999994941
 30
0.0
 11
125.0894541728989964
 21
166.3999999999994941
 31
0.0
  0
LINE
  5
29D1
  8
0
 10
108.9105458270990994
 20
166.3999999999994941
 30
0.0
 11
106.4999999999991047
 21
166.3999999999994941
 31
0.0
  0
LINE
  5
29D4
  8
0
 10
108.9105458270990994
 20
166.3999999999994941
 30
0.0
 11
108.9105458270990994
 21
175.7999999999994998
 31
0.0
  0
LINE
  5
29D5
  8
0
 10
125.0894541728989964
 20
175.7999999999994998
 30
0.0
 11
125.0894541728989964
 21
166.3999999999994941
 31
0.0
  0
LINE
  5
29D6
  8
0
 10
126.7113248653991064
 20
133.0999999999995111
 30
0.0
 11
107.288675134599103
 21
133.0999999999995111
 31
0.0
  0
LINE
  5
29D7
  8
0
 10
126.9999999999991047
 20
133.5999999999995111
 30
0.0
 11
106.9999999999991047
 21
133.5999999999995111
 31
0.0
  0
LINE
  5
29D8
  8
0
 10
126.9999999999991047
 20
146.0999999999995111
 30
0.0
 11
106.9999999999991047
 21
146.0999999999995111
 31
0.0
  0
LINE
  5
29D9
  8
0
 10
126.9999999999991047
 20
148.5999999999995111
 30
0.0
 11
106.9999999999991047
 21
148.5999999999995111
 31
0.0
  0
LINE
  5
29DD
  8
0
 10
106.4999999999991047
 20
175.7999999999994998
 30
0.0
 11
106.4999999999991047
 21
163.618360927573292
 31
0.0
  0
LINE
  5
29DE
  8
0
 10
127.4999999999991047
 20
163.6183600297187866
 30
0.0
 11
127.4999999999991047
 21
175.7999999999994998
 31
0.0
  0
LINE
  5
29DF
  8
0
 10
122.949999999999207
 20
177.2999999999994998
 30
0.0
 11
118.7406399129991001
 21
177.2999999999994998
 31
0.0
  0
LINE
  5
29E0
  8
0
 10
116.7209847678991963
 20
177.2999999999994998
 30
0.0
 11
111.0499999999991019
 21
177.2999999999994998
 31
0.0
  0
LINE
  5
29EB
  8
0
 10
119.4105458270989999
 20
175.7999999999994998
 30
0.0
 11
118.5298286608990992
 21
175.7999999999994998
 31
0.0
  0
LINE
  5
29EC
  8
0
 10
116.5101735158991971
 20
175.7999999999994998
 30
0.0
 11
114.5894541728989964
 21
175.7999999999994998
 31
0.0
  0
LINE
  5
29ED
  8
0
 10
127.0049324022991044
 20
162.5359448711994901
 30
0.0
 11
106.9950675976990055
 21
162.5359448711994901
 31
0.0
  0
LINE
  5
29EE
  8
0
 10
126.5721140989989948
 20
161.3205314765995126
 30
0.0
 11
107.427885900999101
 21
161.3205314765995126
 31
0.0
  0
LINE
  5
29EF
  8
0
 10
126.9999999999991047
 20
150.6761974278994956
 30
0.0
 11
106.9999999999991047
 21
150.6761974278994956
 31
0.0
  0
LINE
  5
29F0
  8
0
 10
126.8814814814991934
 20
151.6426866978995065
 30
0.0
 11
107.1185185184990019
 21
151.6426866978995065
 31
0.0
  0
POLYLINE
  5
4687
  8
0
 66
     1
 10
0.0
 20
0.0
 30
0.0
  0
VERTEX
  5
64CE
  8
0
 10
125.0894541728989964
 20
166.3999999999994941
 30
0.0
  0
VERTEX
  5
64CF
  8
0
 10
125.0729763672768939
 20
166.1029721914364927
 30
0.0
  0
VERTEX
  5
64D0
  8
0
 10
125.0238128246156037
 20
165.8108624105524882
 30
0.0
  0
VERTEX
  5
64D1
  8
0
 10
124.9436465229971986
 20
165.5281313507609866
 30
0.0
  0
VERTEX
  5
64D2
  8
0
 10
124.835510698777199
 20
165.25807198892511
 30
0.0
  0
VERTEX
  5
64D3
  8
0
 10
124.7024134279484002
 20
165.0026125623782036
 30
0.0
  0
VERTEX
  5
64D4
  8
0
 10
124.5465252202317004
 20
164.7644510285707895
 30
0.0
  0
VERTEX
  5
64D5
  8
0
 10
124.3700305018952008
 20
164.5463619446705081
 30
0.0
  0
VERTEX
  5
64D6
  8
0
 10
124.175488383591599
 20
164.3497366801842929
 30
0.0
  0
VERTEX
  5
64D7
  8
0
 10
123.9654940232621954
 20
164.1756389619721119
 30
0.0
  0
VERTEX
  5
64D8
  8
0
 10
123.7424235214640049
 20
164.0251679611394877
 30
0.0
  0
VERTEX
  5
64D9
  8
0
 10
123.5085873510931975
 20
163.8990522969367021
 30
0.0
  0
VERTEX
  5
64DA
  8
0
 10
123.2662555567007985
 20
163.7966536834329077
 30
0.0
  0
VERTEX
  5
64DB
  8
0
 10
123.0175815442888023
 20
163.717225824167798
 30
0.0
  0
VERTEX
  5
64DC
  8
0
 10
122.7643096123768061
 20
163.6607823448568979
 30
0.0
  0
VERTEX
  5
64DD
  8
0
 10
122.5080308979868988
 20
163.6273235035938001
 30
0.0
  0
VERTEX
  5
64DE
  8
0
 10
122.2501266721306052
 20
163.6161208859907106
 30
0.0
  0
VERTEX
  5
64DF
  8
0
 10
121.991987254781705
 20
163.6265851194183938
 30
0.0
  0
VERTEX
  5
64E0
  8
0
 10
121.7352420455079027
 20
163.6593982828833873
 30
0.0
  0
VERTEX
  5
64E1
  8
0
 10
121.4815668652282028
 20
163.7153943503327866
 30
0.0
  0
VERTEX
  5
64E2
  8
0
 10
121.232572190826204
 20
163.7946420101723959
 30
0.0
  0
VERTEX
  5
64E3
  8
0
 10
120.990014078889601
 20
163.8971559253245118
 30
0.0
  0
VERTEX
  5
64E4
  8
0
 10
120.7563433964365061
 20
164.023614924616993
 30
0.0
  0
VERTEX
  5
64E5
  8
0
 10
120.5340816831581066
 20
164.1745526073160022
 30
0.0
  0
VERTEX
  5
64E6
  8
0
 10
120.3252577188306986
 20
164.3491102908419066
 30
0.0
  0
VERTEX
  5
64E7
  8
0
 10
120.1318835872784945
 20
164.5460765970445038
 30
0.0
  0
VERTEX
  5
64E8
  8
0
 10
119.9564248961114998
 20
164.7643335061193
 30
0.0
  0
VERTEX
  5
64E9
  8
0
 10
119.8012719243693027
 20
165.0024778548171867
 30
0.0
  0
VERTEX
  5
64EA
  8
0
 10
119.6680756671655956
 20
165.2578799970868886
 30
0.0
  0
VERTEX
  5
64EB
  8
0
 10
119.5588867101499062
 20
165.5278891505448087
 30
0.0
  0
VERTEX
  5
64EC
  8
0
 10
119.4774426761432977
 20
165.8106304325976055
 30
0.0
  0
VERTEX
  5
64ED
  8
0
 10
119.4272790547168057
 20
166.1028299497239971
 30
0.0
  0
VERTEX
  5
64EE
  8
0
 10
119.4105458270989999
 20
166.3999999999994941
 30
0.0
  0
SEQEND
  5
64EF
  8
0
  0
POLYLINE
  5
4688
  8
0
 66
     1
 10
0.0
 20
0.0
 30
0.0
  0
VERTEX
  5
64F0
  8
0
 10
114.5894541728989964
 20
166.3999999999994941
 30
0.0
  0
VERTEX
  5
64F1
  8
0
 10
114.5727995846953036
 20
166.1029721914364927
 30
0.0
  0
VERTEX
  5
64F2
  8
0
 10
114.5230116734175994
 20
165.8108624105526019
 30
0.0
  0
VERTEX
  5
64F3
  8
0
 10
114.4419449577161032
 20
165.5281313507609866
 30
0.0
  0
VERTEX
  5
64F4
  8
0
 10
114.3331565253943012
 20
165.25807198892511
 30
0.0
  0
VERTEX
  5
64F5
  8
0
 10
114.2001636703278962
 20
165.0026125623778057
 30
0.0
  0
VERTEX
  5
64F6
  8
0
 10
114.0449028239283962
 20
164.7644510285703063
 30
0.0
  0
VERTEX
  5
64F7
  8
0
 10
113.8691985533914988
 20
164.5463619446701102
 30
0.0
  0
VERTEX
  5
64F8
  8
0
 10
113.6754902017203932
 20
164.3497366801844066
 30
0.0
  0
VERTEX
  5
64F9
  8
0
 10
113.4662703848032947
 20
164.175638961972993
 30
0.0
  0
VERTEX
  5
64FA
  8
0
 10
113.2436489592922015
 20
164.0251679611409941
 30
0.0
  0
VERTEX
  5
64FB
  8
0
 10
113.009754420037595
 20
163.8990522969376968
 30
0.0
  0
VERTEX
  5
64FC
  8
0
 10
112.7671249667929061
 20
163.7966536834329077
 30
0.0
  0
VERTEX
  5
64FD
  8
0
 10
112.5181978654627954
 20
163.7172258241668885
 30
0.0
  0
VERTEX
  5
64FE
  8
0
 10
112.2646754556202069
 20
163.6607823448557895
 30
0.0
  0
VERTEX
  5
64FF
  8
0
 10
112.0081073123464961
 20
163.6273235035930043
 30
0.0
  0
VERTEX
  5
6500
  8
0
 10
111.7501255343085944
 20
163.6161208859907106
 30
0.0
  0
VERTEX
  5
6501
  8
0
 10
111.4923291865224968
 20
163.6265851194189906
 30
0.0
  0
VERTEX
  5
6502
  8
0
 10
111.2361024484314953
 20
163.6593982828842968
 30
0.0
  0
VERTEX
  5
6503
  8
0
 10
110.9828290495820937
 20
163.7153943503334972
 30
0.0
  0
VERTEX
  5
6504
  8
0
 10
110.7341329997514947
 20
163.7946420101725096
 30
0.0
  0
VERTEX
  5
6505
  8
0
 10
110.4917994147403988
 20
163.8971559253238865
 30
0.0
  0
VERTEX
  5
6506
  8
0
 10
110.2580172789714936
 20
164.0236149246159982
 30
0.0
  0
VERTEX
  5
6507
  8
0
 10
110.0350774846445034
 20
164.1745526073154053
 30
0.0
  0
VERTEX
  5
6508
  8
0
 10
109.8252478571717035
 20
164.3491102908417929
 30
0.0
  0
VERTEX
  5
6509
  8
0
 10
109.6308561059744022
 20
164.5460765970441912
 30
0.0
  0
VERTEX
  5
650A
  8
0
 10
109.4544870772471938
 20
164.7643335061187884
 30
0.0
  0
VERTEX
  5
650B
  8
0
 10
109.2986618978638944
 20
165.0024778548165898
 30
0.0
  0
VERTEX
  5
650C
  8
0
 10
109.165398831997507
 20
165.2578799970866044
 30
0.0
  0
VERTEX
  5
650D
  8
0
 10
109.0569643752290006
 20
165.5278891505448939
 30
0.0
  0
VERTEX
  5
650E
  8
0
 10
108.9765261826886018
 20
165.8106304325976907
 30
0.0
  0
VERTEX
  5
650F
  8
0
 10
108.927070135405998
 20
166.1028299497239971
 30
0.0
  0
VERTEX
  5
6510
  8
0
 10
108.9105458270990994
 20
166.3999999999994941
 30
0.0
  0
SEQEND
  5
6511
  8
0
  0
POLYLINE
  5
468B
  8
0
 66
     1
 10
0.0
 20
0.0
 30
0.0
  0
VERTEX
  5
6512
  8
0
 10
106.5000025880739969
 20
176.5415882196161022
 30
0.0
  0
VERTEX
  5
6513
  8
0
 10
106.5002895184062055
 20
176.5396704002747015
 30
0.0
  0
VERTEX
  5
6514
  8
0
 10
106.5005312170258946
 20
176.5359376895958121
 30
0.0
  0
VERTEX
  5
6515
  8
0
 10
106.5006796484839953
 20
176.5286801850608924
 30
0.0
  0
VERTEX
  5
6516
  8
0
 10
106.5006636307963959
 20
176.5170547302311093
 30
0.0
  0
VERTEX
  5
6517
  8
0
 10
106.5004156234659973
 20
176.500602789049708
 30
0.0
  0
VERTEX
  5
6518
  8
0
 10
106.5000901239095015
 20
176.4782418117092107
 30
0.0
  0
VERTEX
  5
6519
  8
0
 10
106.499988206370702
 20
176.4483729471679965
 30
0.0
  0
VERTEX
  5
651A
  8
0
 10
106.4999182746828978
 20
176.4085395636165003
 30
0.0
  0
VERTEX
  5
651B
  8
0
 10
106.4997852788853976
 20
176.3552858157549963
 30
0.0
  0
VERTEX
  5
651C
  8
0
 10
106.5001480160367038
 20
176.2837964966234949
 30
0.0
  0
VERTEX
  5
651D
  8
0
 10
106.5001814816565968
 20
176.1837453465562078
 30
0.0
  0
VERTEX
  5
651E
  8
0
 10
106.4999454859296009
 20
176.0346878533707979
 30
0.0
  0
VERTEX
  5
651F
  8
0
 10
106.4999999999991047
 20
175.7999999999994998
 30
0.0
  0
SEQEND
  5
6520
  8
0
  0
POLYLINE
  5
468C
  8
0
 66
     1
 10
0.0
 20
0.0
 30
0.0
  0
VERTEX
  5
6521
  8
0
 10
108.9105458270989999
 20
175.8000000000388923
 30
0.0
  0
VERTEX
  5
6522
  8
0
 10
108.9158189521376983
 20
175.8545363542212101
 30
0.0
  0
VERTEX
  5
6523
  8
0
 10
108.922377176522005
 20
175.8809772442722874
 30
0.0
  0
VERTEX
  5
6524
  8
0
 10
108.9312137372840965
 20
175.9065265692956928
 30
0.0
  0
VERTEX
  5
6525
  8
0
 10
108.9544219664291944
 20
175.9544349599607074
 30
0.0
  0
VERTEX
  5
6526
  8
0
 10
108.9835277454186979
 20
175.9978748925331047
 30
0.0
  0
VERTEX
  5
6527
  8
0
 10
109.0167901331547
 20
176.037118230662486
 30
0.0
  0
VERTEX
  5
6528
  8
0
 10
109.0530441442474938
 20
176.072662250198789
 30
0.0
  0
VERTEX
  5
6529
  8
0
 10
109.0914830868090064
 20
176.1050144913546092
 30
0.0
  0
VERTEX
  5
652A
  8
0
 10
109.1315625848323947
 20
176.1346273349722082
 30
0.0
  0
VERTEX
  5
652B
  8
0
 10
109.2152774597876004
 20
176.1870268436514095
 30
0.0
  0
VERTEX
  5
652C
  8
0
 10
109.3023432212792017
 20
176.2317183783943051
 30
0.0
  0
VERTEX
  5
652D
  8
0
 10
109.3914580017339944
 20
176.2701469316114071
 30
0.0
  0
VERTEX
  5
652E
  8
0
 10
109.4820324162951977
 20
176.3035433308500046
 30
0.0
  0
VERTEX
  5
652F
  8
0
 10
109.5736536685010947
 20
176.3329910490969041
 30
0.0
  0
VERTEX
  5
6530
  8
0
 10
109.6660886948885008
 20
176.3590491546810881
 30
0.0
  0
VERTEX
  5
6531
  8
0
 10
109.7591603712842954
 20
176.3821135025837066
 30
0.0
  0
VERTEX
  5
6532
  8
0
 10
109.852691666276101
 20
176.4025797993353137
 30
0.0
  0
VERTEX
  5
6533
  8
0
 10
110.040650657132403
 20
176.4370111078773107
 30
0.0
  0
VERTEX
  5
6534
  8
0
 10
110.2294996989305957
 20
176.4642877424070946
 30
0.0
  0
VERTEX
  5
6535
  8
0
 10
110.4189417258231032
 20
176.4860086754351016
 30
0.0
  0
VERTEX
  5
6536
  8
0
 10
110.6087856621397947
 20
176.5030689843310938
 30
0.0
  0
VERTEX
  5
6537
  8
0
 10
110.7988696544475999
 20
176.5161696776270048
 30
0.0
  0
VERTEX
  5
6538
  8
0
 10
110.989031866546398
 20
176.5260117220649931
 30
0.0
  0
VERTEX
  5
6539
  8
0
 10
111.3692577372114982
 20
176.5380370950308873
 30
0.0
  0
VERTEX
  5
653A
  8
0
 10
111.7496019125208022
 20
176.5416198377768069
 30
0.0
  0
VERTEX
  5
653B
  8
0
 10
112.1302931739380995
 20
176.5380576813903133
 30
0.0
  0
VERTEX
  5
653C
  8
0
 10
112.5109089342201969
 20
176.5260558273159859
 30
0.0
  0
VERTEX
  5
653D
  8
0
 10
112.7010061066452948
 20
176.5162248287242051
 30
0.0
  0
VERTEX
  5
653E
  8
0
 10
112.8908772330305936
 20
176.5031415690199879
 30
0.0
  0
VERTEX
  5
653F
  8
0
 10
113.0804643204980948
 20
176.4860999425266073
 30
0.0
  0
VERTEX
  5
6540
  8
0
 10
113.2697093803015065
 20
176.4643937221111969
 30
0.0
  0
VERTEX
  5
6541
  8
0
 10
113.4584916313258987
 20
176.4371421743325072
 30
0.0
  0
VERTEX
  5
6542
  8
0
 10
113.646432155870599
 20
176.4027471782019916
 30
0.0
  0
VERTEX
  5
6543
  8
0
 10
113.7399409978730063
 20
176.3823005015659078
 30
0.0
  0
VERTEX
  5
6544
  8
0
 10
113.833003782296899
 20
176.3592611637618006
 30
0.0
  0
VERTEX
  5
6545
  8
0
 10
113.9254752771960995
 20
176.3332258196666089
 30
0.0
  0
VERTEX
  5
6546
  8
0
 10
114.0172100503176011
 20
176.3037907204412988
 30
0.0
  0
VERTEX
  5
6547
  8
0
 10
114.1079767597712049
 20
176.2704223432129993
 30
0.0
  0
VERTEX
  5
6548
  8
0
 10
114.1971900884500997
 20
176.2320524545245064
 30
0.0
  0
VERTEX
  5
6549
  8
0
 10
114.284126769001503
 20
176.1874385837037948
 30
0.0
  0
VERTEX
  5
654A
  8
0
 10
114.3677658630574996
 20
176.135105827655309
 30
0.0
  0
VERTEX
  5
654B
  8
0
 10
114.4079237803440066
 20
176.1055160828441046
 30
0.0
  0
VERTEX
  5
654C
  8
0
 10
114.4464091246838962
 20
176.0731703949070095
 30
0.0
  0
VERTEX
  5
654D
  8
0
 10
114.4826513157225065
 20
176.0376297965134995
 30
0.0
  0
VERTEX
  5
654E
  8
0
 10
114.515976869728803
 20
175.9983884681259951
 30
0.0
  0
VERTEX
  5
654F
  8
0
 10
114.5455699015612936
 20
175.9548849863654993
 30
0.0
  0
VERTEX
  5
6550
  8
0
 10
114.5691113529822047
 20
175.9068976715794008
 30
0.0
  0
VERTEX
  5
6551
  8
0
 10
114.5773139774243958
 20
175.881286064976706
 30
0.0
  0
VERTEX
  5
6552
  8
0
 10
114.5828814618036944
 20
175.854727996921099
 30
0.0
  0
VERTEX
  5
6553
  8
0
 10
114.5894541728991953
 20
175.8000000000388923
 30
0.0
  0
SEQEND
  5
6554
  8
0
  0
POLYLINE
  5
468D
  8
0
 66
     1
 10
0.0
 20
0.0
 30
0.0
  0
VERTEX
  5
6555
  8
0
 10
119.4105458270988009
 20
175.8000000000388923
 30
0.0
  0
VERTEX
  5
6556
  8
0
 10
119.4157954677928046
 20
175.8545363542212954
 30
0.0
  0
VERTEX
  5
6557
  8
0
 10
119.4223352523354009
 20
175.8809772442727137
 30
0.0
  0
VERTEX
  5
6558
  8
0
 10
119.4311570787152021
 20
175.9065265692964033
 30
0.0
  0
VERTEX
  5
6559
  8
0
 10
119.4543580287579942
 20
175.9544349599621
 30
0.0
  0
VERTEX
  5
655A
  8
0
 10
119.4834843050580986
 20
175.9978748925350942
 30
0.0
  0
VERTEX
  5
655B
  8
0
 10
119.5167822472236026
 20
176.0371182306645039
 30
0.0
  0
VERTEX
  5
655C
  8
0
 10
119.5530686427702989
 20
176.0726622502002101
 30
0.0
  0
VERTEX
  5
655D
  8
0
 10
119.5915176906997033
 20
176.1050144913548934
 30
0.0
  0
VERTEX
  5
655E
  8
0
 10
119.6315688974217011
 20
176.1346273349709861
 30
0.0
  0
VERTEX
  5
655F
  8
0
 10
119.7151244058232038
 20
176.1870268436485105
 30
0.0
  0
VERTEX
  5
6560
  8
0
 10
119.8020751166139064
 20
176.2317183783914061
 30
0.0
  0
VERTEX
  5
6561
  8
0
 10
119.8912768726495983
 20
176.2701469316097018
 30
0.0
  0
VERTEX
  5
6562
  8
0
 10
119.9820213779556042
 20
176.3035433308494078
 30
0.0
  0
VERTEX
  5
6563
  8
0
 10
120.0737495204325995
 20
176.3329910490959946
 30
0.0
  0
VERTEX
  5
6564
  8
0
 10
120.1662174984794973
 20
176.3590491546788996
 30
0.0
  0
VERTEX
  5
6565
  8
0
 10
120.2592796463177933
 20
176.3821135025800118
 30
0.0
  0
VERTEX
  5
6566
  8
0
 10
120.3527903800443966
 20
176.4025797993309084
 30
0.0
  0
VERTEX
  5
6567
  8
0
 10
120.5407273468140943
 20
176.4370111078742127
 30
0.0
  0
VERTEX
  5
6568
  8
0
 10
120.7295041136786011
 20
176.4642877424066967
 30
0.0
  0
VERTEX
  5
6569
  8
0
 10
120.9187495217123001
 20
176.4860086754366932
 30
0.0
  0
VERTEX
  5
656A
  8
0
 10
121.1083372523609967
 20
176.5030689843335949
 30
0.0
  0
VERTEX
  5
656B
  8
0
 10
121.2982084912813008
 20
176.5161696776297049
 30
0.0
  0
VERTEX
  5
656C
  8
0
 10
121.4883044251896962
 20
176.526011722067409
 30
0.0
  0
VERTEX
  5
656D
  8
0
 10
121.8689143787757985
 20
176.5380370950321094
 30
0.0
  0
VERTEX
  5
656E
  8
0
 10
122.2496019462607961
 20
176.5416198377768069
 30
0.0
  0
VERTEX
  5
656F
  8
0
 10
122.6299433707657016
 20
176.5380576813901996
 30
0.0
  0
VERTEX
  5
6570
  8
0
 10
123.0101618684596048
 20
176.5260558273164122
 30
0.0
  0
VERTEX
  5
6571
  8
0
 10
123.200322095897306
 20
176.5162248287248872
 30
0.0
  0
VERTEX
  5
6572
  8
0
 10
123.3904093346714035
 20
176.5031415690206131
 30
0.0
  0
VERTEX
  5
6573
  8
0
 10
123.5802594181214005
 20
176.4860999425270904
 30
0.0
  0
VERTEX
  5
6574
  8
0
 10
123.769708123556299
 20
176.4643937221115095
 30
0.0
  0
VERTEX
  5
6575
  8
0
 10
123.958563834040504
 20
176.4371421743323936
 30
0.0
  0
VERTEX
  5
6576
  8
0
 10
124.1465223161364975
 20
176.4027471782013947
 30
0.0
  0
VERTEX
  5
6577
  8
0
 10
124.2400509629662935
 20
176.382300501564913
 30
0.0
  0
VERTEX
  5
6578
  8
0
 10
124.3331266888199025
 20
176.3592611637606069
 30
0.0
  0
VERTEX
  5
6579
  8
0
 10
124.4255725885646058
 20
176.3332258196656994
 30
0.0
  0
VERTEX
  5
657A
  8
0
 10
124.5172114546076045
 20
176.3037907204418104
 30
0.0
  0
VERTEX
  5
657B
  8
0
 10
124.6078131573693071
 20
176.2704223432160973
 30
0.0
  0
VERTEX
  5
657C
  8
0
 10
124.6969295117354051
 20
176.2320524545293949
 30
0.0
  0
VERTEX
  5
657D
  8
0
 10
124.7839670747605965
 20
176.1874385837080013
 30
0.0
  0
VERTEX
  5
657E
  8
0
 10
124.8677655950390033
 20
176.1351058276567869
 30
0.0
  0
VERTEX
  5
657F
  8
0
 10
124.9079555043181955
 20
176.1055160828439909
 30
0.0
  0
VERTEX
  5
6580
  8
0
 10
124.9464368904211966
 20
176.0731703949055884
 30
0.0
  0
VERTEX
  5
6581
  8
0
 10
124.9826502875837946
 20
176.0376297965113963
 30
0.0
  0
VERTEX
  5
6582
  8
0
 10
125.015939863322302
 20
175.9983884681238919
 30
0.0
  0
VERTEX
  5
6583
  8
0
 10
125.0455133416067071
 20
175.954884986363993
 30
0.0
  0
VERTEX
  5
6584
  8
0
 10
125.069060636302595
 20
175.9068976715786903
 30
0.0
  0
VERTEX
  5
6585
  8
0
 10
125.0772727669816931
 20
175.8812860649763934
 30
0.0
  0
VERTEX
  5
6586
  8
0
 10
125.0828524886315023
 20
175.8547279969210138
 30
0.0
  0
VERTEX
  5
6587
  8
0
 10
125.0894541728989964
 20
175.8000000000388923
 30
0.0
  0
SEQEND
  5
6588
  8
0
  0
POLYLINE
  5
468E
  8
0
 66
     1
 10
0.0
 20
0.0
 30
0.0
  0
VERTEX
  5
6589
  8
0
 10
127.4999999999991047
 20
175.7999999999994998
 30
0.0
  0
VERTEX
  5
658A
  8
0
 10
127.5001469750935001
 20
176.0863199165638093
 30
0.0
  0
VERTEX
  5
658B
  8
0
 10
127.4996326212663007
 20
176.2481837245715042
 30
0.0
  0
VERTEX
  5
658C
  8
0
 10
127.5002804518986039
 20
176.3494693198381071
 30
0.0
  0
VERTEX
  5
658D
  8
0
 10
127.5003542183967937
 20
176.4182819095155992
 30
0.0
  0
VERTEX
  5
658E
  8
0
 10
127.5000044079177002
 20
176.4644362581070993
 30
0.0
  0
VERTEX
  5
658F
  8
0
 10
127.4995364757817953
 20
176.496074833646702
 30
0.0
  0
VERTEX
  5
6590
  8
0
 10
127.4992578752179071
 20
176.5178281120728911
 30
0.0
  0
VERTEX
  5
6591
  8
0
 10
127.4994485804537021
 20
176.5332164823464041
 30
0.0
  0
VERTEX
  5
6592
  8
0
 10
127.4997045105815943
 20
176.5417393115750997
 30
0.0
  0
SEQEND
  5
6593
  8
0
  0
POLYLINE
  5
4699
  8
0
 66
     1
 10
0.0
 20
0.0
 30
0.0
  0
VERTEX
  5
6594
  8
0
 10
39.0
 20
173.0999999999995111
 30
0.0
  0
VERTEX
  5
6595
  8
0
 10
39.0066463674630768
 20
173.0228750070089063
 30
0.0
  0
VERTEX
  5
6596
  8
0
 10
39.0227494340850285
 20
172.8071282862615021
 30
0.0
  0
VERTEX
  5
6597
  8
0
 10
39.0387646584136974
 20
172.4823590734079062
 30
0.0
  0
VERTEX
  5
6598
  8
0
 10
39.0455488635896018
 20
172.1000127664698027
 30
0.0
  0
VERTEX
  5
6599
  8
0
 10
39.0387756946603872
 20
171.7176392202964905
 30
0.0
  0
VERTEX
  5
659A
  8
0
 10
39.0227516507122232
 20
171.3929072715581867
 30
0.0
  0
VERTEX
  5
659B
  8
0
 10
39.0066480984676218
 20
171.1773089903157086
 30
0.0
  0
VERTEX
  5
659C
  8
0
 10
39.0
 20
171.0999999999995111
 30
0.0
  0
SEQEND
  5
659D
  8
0
  0
POLYLINE
  5
469A
  8
0
 66
     1
 10
0.0
 20
0.0
 30
0.0
  0
VERTEX
  5
659E
  8
0
 10
60.9999999999995524
 20
171.0999999999995111
 30
0.0
  0
VERTEX
  5
659F
  8
0
 10
60.9975827473883214
 20
171.1272954199791911
 30
0.0
  0
VERTEX
  5
65A0
  8
0
 10
60.9933540406148111
 20
171.1772619544717031
 30
0.0
  0
VERTEX
  5
65A1
  8
0
 10
60.986124035247478
 20
171.2672934372154998
 30
0.0
  0
VERTEX
  5
65A2
  8
0
 10
60.9772478037040671
 20
171.3929144284246036
 30
0.0
  0
VERTEX
  5
65A3
  8
0
 10
60.9685503234013595
 20
171.5450437777141985
 30
0.0
  0
VERTEX
  5
65A4
  8
0
 10
60.961231412624727
 20
171.7176900813317104
 30
0.0
  0
VERTEX
  5
65A5
  8
0
 10
60.9544510841571991
 20
172.1000451546782131
 30
0.0
  0
VERTEX
  5
65A6
  8
0
 10
60.9612243030534771
 20
172.4824211582630937
 30
0.0
  0
VERTEX
  5
65A7
  8
0
 10
60.9686727580402135
 20
172.6564152188940113
 30
0.0
  0
VERTEX
  5
65A8
  8
0
 10
60.9772482715028374
 20
172.8070991856608885
 30
0.0
  0
VERTEX
  5
65A9
  8
0
 10
60.9856646303847967
 20
172.9274411320137119
 30
0.0
  0
VERTEX
  5
65AA
  8
0
 10
60.9933576545514597
 20
173.0227661203450111
 30
0.0
  0
VERTEX
  5
65AB
  8
0
 10
60.9993059989702715
 20
173.0923761433726895
 30
0.0
  0
VERTEX
  5
65AC
  8
0
 10
61.0
 20
173.0999999999995111
 30
0.0
  0
SEQEND
  5
65AD
  8
0
  0
POLYLINE
  5
469D
  8
0
 66
     1
 10
0.0
 20
0.0
 30
0.0
  0
VERTEX
  5
65AE
  8
0
 10
60.7326263708000624
 20
166.3999999999994941
 30
0.0
  0
VERTEX
  5
65AF
  8
0
 10
60.7232149708074189
 20
166.1029721914364927
 30
0.0
  0
VERTEX
  5
65B0
  8
0
 10
60.6951908656060866
 20
165.8108624105526019
 30
0.0
  0
VERTEX
  5
65B1
  8
0
 10
60.6494266841000425
 20
165.5281313507609866
 30
0.0
  0
VERTEX
  5
65B2
  8
0
 10
60.5873712203410193
 20
165.25807198892511
 30
0.0
  0
VERTEX
  5
65B3
  8
0
 10
60.51046719073139
 20
165.0026125623778057
 30
0.0
  0
VERTEX
  5
65B4
  8
0
 10
60.420102884817652
 20
164.7644510285703063
 30
0.0
  0
VERTEX
  5
65B5
  8
0
 10
60.3177472464253128
 20
164.5463619446701102
 30
0.0
  0
VERTEX
  5
65B6
  8
0
 10
60.2049469266638582
 20
164.3497366801844066
 30
0.0
  0
VERTEX
  5
65B7
  8
0
 10
60.0832594433518281
 20
164.175638961972993
 30
0.0
  0
VERTEX
  5
65B8
  8
0
 10
59.9542103547747089
 20
164.0251679611409941
 30
0.0
  0
VERTEX
  5
65B9
  8
0
 10
59.819238678155898
 20
163.8990522969376968
 30
0.0
  0
VERTEX
  5
65BA
  8
0
 10
59.6795002048486865
 20
163.7966536834329077
 30
0.0
  0
VERTEX
  5
65BB
  8
0
 10
59.5360743177972225
 20
163.7172258241668885
 30
0.0
  0
VERTEX
  5
65BC
  8
0
 10
59.3899923132308416
 20
163.6607823448557895
 30
0.0
  0
VERTEX
  5
65BD
  8
0
 10
59.2421968303336826
 20
163.6273235035930043
 30
0.0
  0
VERTEX
  5
65BE
  8
0
 10
59.0933405308838289
 20
163.6161208859907106
 30
0.0
  0
VERTEX
  5
65BF
  8
0
 10
58.9441055974844517
 20
163.6265851194189906
 30
0.0
  0
VERTEX
  5
65C0
  8
0
 10
58.7955743423203785
 20
163.6593982828842968
 30
0.0
  0
VERTEX
  5
65C1
  8
0
 10
58.6488829400821032
 20
163.7153943503334972
 30
0.0
  0
VERTEX
  5
65C2
  8
0
 10
58.5049533868124101
 20
163.7946420101725096
 30
0.0
  0
VERTEX
  5
65C3
  8
0
 10
58.3647827649102666
 20
163.8971559253238865
 30
0.0
  0
VERTEX
  5
65C4
  8
0
 10
58.2299372810958289
 20
164.0236149246159982
 30
0.0
  0
VERTEX
  5
65C5
  8
0
 10
58.1020059113805516
 20
164.1745526073154053
 30
0.0
  0
VERTEX
  5
65C6
  8
0
 10
57.9820219592509218
 20
164.3491102908417929
 30
0.0
  0
VERTEX
  5
65C7
  8
0
 10
57.8709648753208512
 20
164.5460765970441912
 30
0.0
  0
VERTEX
  5
65C8
  8
0
 10
57.7701893363787917
 20
164.7643335061187884
 30
0.0
  0
VERTEX
  5
65C9
  8
0
 10
57.6809998256405834
 20
165.0024778548165898
 30
0.0
  0
VERTEX
  5
65CA
  8
0
 10
57.6041375026890705
 20
165.2578799970866044
 30
0.0
  0
VERTEX
  5
65CB
  8
0
 10
57.5406616180436004
 20
165.5278891505448939
 30
0.0
  0
VERTEX
  5
65CC
  8
0
 10
57.4930591602445134
 20
165.8106304325976907
 30
0.0
  0
VERTEX
  5
65CD
  8
0
 10
57.4636886617875504
 20
166.1028299497239971
 30
0.0
  0
VERTEX
  5
65CE
  8
0
 10
57.4539071087000366
 20
166.3999999999994941
 30
0.0
  0
SEQEND
  5
65CF
  8
0
  0
POLYLINE
  5
469E
  8
0
 66
     1
 10
0.0
 20
0.0
 30
0.0
  0
VERTEX
  5
65D0
  8
0
 10
42.5460928914000078
 20
166.3999999999994941
 30
0.0
  0
VERTEX
  5
65D1
  8
0
 10
42.5363752949209015
 20
166.1029721914364927
 30
0.0
  0
VERTEX
  5
65D2
  8
0
 10
42.5072697515538493
 20
165.8108624105526019
 30
0.0
  0
VERTEX
  5
65D3
  8
0
 10
42.4599460071078667
 20
165.5281313507609866
 30
0.0
  0
VERTEX
  5
65D4
  8
0
 10
42.3967601929590501
 20
165.2580719889249963
 30
0.0
  0
VERTEX
  5
65D5
  8
0
 10
42.3200370167546609
 20
165.0026125623774931
 30
0.0
  0
VERTEX
  5
65D6
  8
0
 10
42.2307593325166977
 20
164.7644510285697947
 30
0.0
  0
VERTEX
  5
65D7
  8
0
 10
42.1297727898745435
 20
164.5463619446697123
 30
0.0
  0
VERTEX
  5
65D8
  8
0
 10
42.0184165962824565
 20
164.3497366801844919
 30
0.0
  0
VERTEX
  5
65D9
  8
0
 10
41.8980706615127403
 20
164.1756389619735046
 30
0.0
  0
VERTEX
  5
65DA
  8
0
 10
41.7697993958819325
 20
164.0251679611415909
 30
0.0
  0
VERTEX
  5
65DB
  8
0
 10
41.6347266213905414
 20
163.8990522969382084
 30
0.0
  0
VERTEX
  5
65DC
  8
0
 10
41.494472587828227
 20
163.7966536834329077
 30
0.0
  0
VERTEX
  5
65DD
  8
0
 10
41.3506083379118579
 20
163.7172258241664053
 30
0.0
  0
VERTEX
  5
65DE
  8
0
 10
41.2040924928426691
 20
163.6607823448549084
 30
0.0
  0
VERTEX
  5
65DF
  8
0
 10
41.0557957044145994
 20
163.6273235035924074
 30
0.0
  0
VERTEX
  5
65E0
  8
0
 10
40.9068050806449079
 20
163.6161208859905969
 30
0.0
  0
VERTEX
  5
65E1
  8
0
 10
40.7581643611587765
 20
163.6265851194195022
 30
0.0
  0
VERTEX
  5
65E2
  8
0
 10
40.6105311244251013
 20
163.6593982828850073
 30
0.0
  0
VERTEX
  5
65E3
  8
0
 10
40.4645356280378223
 20
163.7153943503338098
 30
0.0
  0
VERTEX
  5
65E4
  8
0
 10
40.3211233076986488
 20
163.7946420101723959
 30
0.0
  0
VERTEX
  5
65E5
  8
0
 10
40.1813415778398735
 20
163.8971559253240002
 30
0.0
  0
VERTEX
  5
65E6
  8
0
 10
40.0463030512203204
 20
164.0236149246161972
 30
0.0
  0
VERTEX
  5
65E7
  8
0
 10
39.9171972106762496
 20
164.1745526073156043
 30
0.0
  0
VERTEX
  5
65E8
  8
0
 10
39.7954713988832012
 20
164.3491102908417929
 30
0.0
  0
VERTEX
  5
65E9
  8
0
 10
39.6826517460251011
 20
164.5460765970445038
 30
0.0
  0
VERTEX
  5
65EA
  8
0
 10
39.58029945617767
 20
164.7643335061191863
 30
0.0
  0
VERTEX
  5
65EB
  8
0
 10
39.4899456476515027
 20
165.0024778548169877
 30
0.0
  0
VERTEX
  5
65EC
  8
0
 10
39.4129676087006331
 20
165.2578799970866896
 30
0.0
  0
VERTEX
  5
65ED
  8
0
 10
39.3507985568164074
 20
165.5278891505448087
 30
0.0
  0
VERTEX
  5
65EE
  8
0
 10
39.3049382675414378
 20
165.8106304325976055
 30
0.0
  0
VERTEX
  5
65EF
  8
0
 10
39.2767933234523028
 20
166.1028299497239971
 30
0.0
  0
VERTEX
  5
65F0
  8
0
 10
39.2673736292000513
 20
166.3999999999994941
 30
0.0
  0
SEQEND
  5
65F1
  8
0
  0
POLYLINE
  5
469F
  8
0
 66
     1
 10
0.0
 20
0.0
 30
0.0
  0
VERTEX
  5
65F2
  8
0
 10
39.2673736292000513
 20
175.7999999999994998
 30
0.0
  0
VERTEX
  5
65F3
  8
0
 10
39.2704316280768424
 20
175.8545363542212954
 30
0.0
  0
VERTEX
  5
65F4
  8
0
 10
39.2793389645711386
 20
175.9065265692962043
 30
0.0
  0
VERTEX
  5
65F5
  8
0
 10
39.2927424445061888
 20
175.9544349599617021
 30
0.0
  0
VERTEX
  5
65F6
  8
0
 10
39.3095348397124624
 20
175.9978748925344973
 30
0.0
  0
VERTEX
  5
65F7
  8
0
 10
39.3287183608663327
 20
176.0371182306639071
 30
0.0
  0
VERTEX
  5
65F8
  8
0
 10
39.3496309267571291
 20
176.0726622501998122
 30
0.0
  0
VERTEX
  5
65F9
  8
0
 10
39.3949740692198205
 20
176.1346273349714124
 30
0.0
  0
VERTEX
  5
65FA
  8
0
 10
39.4433988851334405
 20
176.1870268436501874
 30
0.0
  0
VERTEX
  5
65FB
  8
0
 10
39.4937327505213034
 20
176.2317183783937935
 30
0.0
  0
VERTEX
  5
65FC
  8
0
 10
39.5451329776300895
 20
176.2701469316110945
 30
0.0
  0
VERTEX
  5
65FD
  8
0
 10
39.5973279383208592
 20
176.303543330849493
 30
0.0
  0
VERTEX
  5
65FE
  8
0
 10
39.7035121425371926
 20
176.3590491546804913
 30
0.0
  0
VERTEX
  5
65FF
  8
0
 10
39.8112647906676216
 20
176.4025797993348874
 30
0.0
  0
VERTEX
  5
6600
  8
0
 10
39.9197956802470273
 20
176.4370111078771117
 30
0.0
  0
VERTEX
  5
6601
  8
0
 10
40.0288694533165881
 20
176.4642877424068104
 30
0.0
  0
VERTEX
  5
6602
  8
0
 10
40.1383573764884929
 20
176.4860086754347037
 30
0.0
  0
VERTEX
  5
6603
  8
0
 10
40.2481117446353096
 20
176.503068984330497
 30
0.0
  0
VERTEX
  5
6604
  8
0
 10
40.4678080920636987
 20
176.5260117220639984
 30
0.0
  0
VERTEX
  5
6605
  8
0
 10
40.6871098504690778
 20
176.5380370950304894
 30
0.0
  0
VERTEX
  5
6606
  8
0
 10
40.9065034049050382
 20
176.5416198377768069
 30
0.0
  0
VERTEX
  5
6607
  8
0
 10
41.1264975855964892
 20
176.5380576813896027
 30
0.0
  0
VERTEX
  5
6608
  8
0
 10
41.3464755569137878
 20
176.5260558273147069
 30
0.0
  0
VERTEX
  5
6609
  8
0
 10
41.5656891791422183
 20
176.503141569019391
 30
0.0
  0
VERTEX
  5
660A
  8
0
 10
41.6749954943262466
 20
176.4860999425264936
 30
0.0
  0
VERTEX
  5
660B
  8
0
 10
41.7841386056870192
 20
176.4643937221113958
 30
0.0
  0
VERTEX
  5
660C
  8
0
 10
41.8930896772953929
 20
176.4371421743325925
 30
0.0
  0
VERTEX
  5
660D
  8
0
 10
42.0015868219353408
 20
176.4027471782017074
 30
0.0
  0
VERTEX
  5
660E
  8
0
 10
42.1092850946146697
 20
176.3592611637608059
 30
0.0
  0
VERTEX
  5
660F
  8
0
 10
42.2157067823908392
 20
176.3037907204416967
 30
0.0
  0
VERTEX
  5
6610
  8
0
 10
42.2682062331873567
 20
176.2704223432156994
 30
0.0
  0
VERTEX
  5
6611
  8
0
 10
42.319769560661932
 20
176.2320524545287128
 30
0.0
  0
VERTEX
  5
6612
  8
0
 10
42.3699042320566832
 20
176.1874385837074044
 30
0.0
  0
VERTEX
  5
6613
  8
0
 10
42.4181012407500404
 20
176.135105827656588
 30
0.0
  0
VERTEX
  5
6614
  8
0
 10
42.4634897637208724
 20
176.0731703949057874
 30
0.0
  0
VERTEX
  5
6615
  8
0
 10
42.4844308266245321
 20
176.0376297965115953
 30
0.0
  0
VERTEX
  5
6616
  8
0
 10
42.5036921162632026
 20
175.9983884681240909
 30
0.0
  0
VERTEX
  5
6617
  8
0
 10
42.520788950404949
 20
175.9548849863641919
 30
0.0
  0
VERTEX
  5
6618
  8
0
 10
42.5343772401054068
 20
175.906897671578804
 30
0.0
  0
VERTEX
  5
6619
  8
0
 10
42.542314862522403
 20
175.8547279969210138
 30
0.0
  0
VERTEX
  5
661A
  8
0
 10
42.5460928914000078
 20
175.7999999999994998
 30
0.0
  0
SEQEND
  5
661B
  8
0
  0
POLYLINE
  5
46A0
  8
0
 66
     1
 10
0.0
 20
0.0
 30
0.0
  0
VERTEX
  5
661C
  8
0
 10
57.4539071087000366
 20
175.7999999999994998
 30
0.0
  0
VERTEX
  5
661D
  8
0
 10
57.4569244314728778
 20
175.8545363542212101
 30
0.0
  0
VERTEX
  5
661E
  8
0
 10
57.4657743085289212
 20
175.9065265692956928
 30
0.0
  0
VERTEX
  5
661F
  8
0
 10
57.479165180691723
 20
175.9544349599607074
 30
0.0
  0
VERTEX
  5
6620
  8
0
 10
57.4959930782828224
 20
175.9978748925331047
 30
0.0
  0
VERTEX
  5
6621
  8
0
 10
57.5152381815150306
 20
176.037118230662486
 30
0.0
  0
VERTEX
  5
6622
  8
0
 10
57.536206838924393
 20
176.072662250198789
 30
0.0
  0
VERTEX
  5
6623
  8
0
 10
57.5815184824224389
 20
176.1346273349722082
 30
0.0
  0
VERTEX
  5
6624
  8
0
 10
57.6296672673660169
 20
176.1870268436514095
 30
0.0
  0
VERTEX
  5
6625
  8
0
 10
57.6798018590940771
 20
176.2317183783943051
 30
0.0
  0
VERTEX
  5
6626
  8
0
 10
57.7313527323293485
 20
176.2701469316114071
 30
0.0
  0
VERTEX
  5
6627
  8
0
 10
57.7838422988335694
 20
176.3035433308500046
 30
0.0
  0
VERTEX
  5
6628
  8
0
 10
57.8902687163762266
 20
176.3590491546810881
 30
0.0
  0
VERTEX
  5
6629
  8
0
 10
57.9979692474020112
 20
176.4025797993353137
 30
0.0
  0
VERTEX
  5
662A
  8
0
 10
58.1064619901458101
 20
176.4370111078773107
 30
0.0
  0
VERTEX
  5
662B
  8
0
 10
58.2154105793617305
 20
176.4642877424070946
 30
0.0
  0
VERTEX
  5
662C
  8
0
 10
58.3245579486838324
 20
176.4860086754351016
 30
0.0
  0
VERTEX
  5
662D
  8
0
 10
58.4338685555985577
 20
176.5030689843310938
 30
0.0
  0
VERTEX
  5
662E
  8
0
 10
58.6530816061580822
 20
176.5260117220649931
 30
0.0
  0
VERTEX
  5
662F
  8
0
 10
58.8730486156934489
 20
176.5380370950308873
 30
0.0
  0
VERTEX
  5
6630
  8
0
 10
59.0930369428215769
 20
176.5416198377768069
 30
0.0
  0
VERTEX
  5
6631
  8
0
 10
59.3124251882080102
 20
176.5380576813903133
 30
0.0
  0
VERTEX
  5
6632
  8
0
 10
59.5317150805408275
 20
176.5260558273159859
 30
0.0
  0
VERTEX
  5
6633
  8
0
 10
59.7514122348911698
 20
176.5031415690199879
 30
0.0
  0
VERTEX
  5
6634
  8
0
 10
59.8611740724777519
 20
176.4860999425266073
 30
0.0
  0
VERTEX
  5
6635
  8
0
 10
59.9706699084181309
 20
176.4643937221111969
 30
0.0
  0
VERTEX
  5
6636
  8
0
 10
60.0797482155424518
 20
176.4371421743325072
 30
0.0
  0
VERTEX
  5
6637
  8
0
 10
60.1882764635740273
 20
176.4027471782019916
 30
0.0
  0
VERTEX
  5
6638
  8
0
 10
60.2960314544353011
 20
176.3592611637618006
 30
0.0
  0
VERTEX
  5
6639
  8
0
 10
60.4022426941700701
 20
176.3037907204412988
 30
0.0
  0
VERTEX
  5
663A
  8
0
 10
60.4544563449905468
 20
176.2704223432129993
 30
0.0
  0
VERTEX
  5
663B
  8
0
 10
60.5058517080275422
 20
176.2320524545245064
 30
0.0
  0
VERTEX
  5
663C
  8
0
 10
60.5561611129930384
 20
176.1874385837037948
 30
0.0
  0
VERTEX
  5
663D
  8
0
 10
60.604634256005852
 20
176.135105827655309
 30
0.0
  0
VERTEX
  5
663E
  8
0
 10
60.6500713348697786
 20
176.0731703949070095
 30
0.0
  0
VERTEX
  5
663F
  8
0
 10
60.6709625253179681
 20
176.0376297965134995
 30
0.0
  0
VERTEX
  5
6640
  8
0
 10
60.6901614987696121
 20
175.9983884681259951
 30
0.0
  0
VERTEX
  5
6641
  8
0
 10
60.7072244651713504
 20
175.9548849863654993
 30
0.0
  0
VERTEX
  5
6642
  8
0
 10
60.720822875717829
 20
175.9068976715794008
 30
0.0
  0
VERTEX
  5
6643
  8
0
 10
60.7287981589908483
 20
175.854727996921099
 30
0.0
  0
VERTEX
  5
6644
  8
0
 10
60.7326263708000624
 20
175.7999999999994998
 30
0.0
  0
SEQEND
  5
6645
  8
0
  0
POLYLINE
  5
46A1
  8
0
 66
     1
 10
0.0
 20
0.0
 30
0.0
  0
VERTEX
  5
6646
  8
0
 10
46.721280737900031
 20
175.7999999999994998
 30
0.0
  0
VERTEX
  5
6647
  8
0
 10
46.7231700739156892
 20
175.8274395397004923
 30
0.0
  0
VERTEX
  5
6648
  8
0
 10
46.7274248518019633
 20
175.8545239390466861
 30
0.0
  0
VERTEX
  5
6649
  8
0
 10
46.7350600022963931
 20
175.8809444154200889
 30
0.0
  0
VERTEX
  5
664A
  8
0
 10
46.7453209121017608
 20
175.906464450161991
 30
0.0
  0
VERTEX
  5
664B
  8
0
 10
46.7577783918737779
 20
175.930943599338093
 30
0.0
  0
VERTEX
  5
664C
  8
0
 10
46.7722266982554515
 20
175.9543078915214949
 30
0.0
  0
VERTEX
  5
664D
  8
0
 10
46.8058989862282075
 20
175.9977045081620872
 30
0.0
  0
VERTEX
  5
664E
  8
0
 10
46.8443249717623118
 20
176.0369475879801087
 30
0.0
  0
VERTEX
  5
664F
  8
0
 10
46.8861647390471603
 20
176.0725364807524045
 30
0.0
  0
VERTEX
  5
6650
  8
0
 10
46.930486034153148
 20
176.1049813939100943
 30
0.0
  0
VERTEX
  5
6651
  8
0
 10
46.9766659832530422
 20
176.1347205390966906
 30
0.0
  0
VERTEX
  5
6652
  8
0
 10
47.0243084533496472
 20
176.1620715776384998
 30
0.0
  0
VERTEX
  5
6653
  8
0
 10
47.0731601730987492
 20
176.1872594852790996
 30
0.0
  0
VERTEX
  5
6654
  8
0
 10
47.1736330049230901
 20
176.2319422128047108
 30
0.0
  0
VERTEX
  5
6655
  8
0
 10
47.2766101598165207
 20
176.2702857650072872
 30
0.0
  0
VERTEX
  5
6656
  8
0
 10
47.3813216487859492
 20
176.3035877070159074
 30
0.0
  0
VERTEX
  5
6657
  8
0
 10
47.4871906569359226
 20
176.3329806750606963
 30
0.0
  0
VERTEX
  5
6658
  8
0
 10
47.5939461284187928
 20
176.3590170953087011
 30
0.0
  0
VERTEX
  5
6659
  8
0
 10
47.7014054378239507
 20
176.3820815878395081
 30
0.0
  0
VERTEX
  5
665A
  8
0
 10
47.8093860643577884
 20
176.4025586327545909
 30
0.0
  0
VERTEX
  5
665B
  8
0
 10
48.0263967524385222
 20
176.4370110276529999
 30
0.0
  0
VERTEX
  5
665C
  8
0
 10
48.2444096532960316
 20
176.4643032668755893
 30
0.0
  0
VERTEX
  5
665D
  8
0
 10
48.4630363806003288
 20
176.4860299834643911
 30
0.0
  0
VERTEX
  5
665E
  8
0
 10
48.6820939106257811
 20
176.5030852271200104
 30
0.0
  0
VERTEX
  5
665F
  8
0
 10
48.9014537977907935
 20
176.5161768571761058
 30
0.0
  0
VERTEX
  5
6660
  8
0
 10
49.1209876144636226
 20
176.5260126601934871
 30
0.0
  0
VERTEX
  5
6661
  8
0
 10
49.3405920401930302
 20
176.5331982313867911
 30
0.0
  0
VERTEX
  5
6662
  8
0
 10
49.5602389669542092
 20
176.5380330360486028
 30
0.0
  0
VERTEX
  5
6663
  8
0
 10
49.9996039877071894
 20
176.5416198837384911
 30
0.0
  0
VERTEX
  5
6664
  8
0
 10
50.4389696826905194
 20
176.5380574907580069
 30
0.0
  0
VERTEX
  5
6665
  8
0
 10
50.6586170953038888
 20
176.5332305950921068
 30
0.0
  0
VERTEX
  5
6666
  8
0
 10
50.8782217887497765
 20
176.5260518001095988
 30
0.0
  0
VERTEX
  5
6667
  8
0
 10
51.0977554286138798
 20
176.5162225133279037
 30
0.0
  0
VERTEX
  5
6668
  8
0
 10
51.317115357179091
 20
176.5031390644101066
 30
0.0
  0
VERTEX
  5
6669
  8
0
 10
51.5361743691116203
 20
176.4860970214274118
 30
0.0
  0
VERTEX
  5
666A
  8
0
 10
51.7548052436264925
 20
176.4643918890492102
 30
0.0
  0
VERTEX
  5
666B
  8
0
 10
51.9728261361107116
 20
176.4371368776562008
 30
0.0
  0
VERTEX
  5
666C
  8
0
 10
52.1898418687433079
 20
176.4027332477967889
 30
0.0
  0
VERTEX
  5
666D
  8
0
 10
52.2978224086927526
 20
176.3822821602610986
 30
0.0
  0
VERTEX
  5
666E
  8
0
 10
52.4052832060849596
 20
176.3592405463325008
 30
0.0
  0
VERTEX
  5
666F
  8
0
 10
52.512042245768491
 20
176.333213231296412
 30
0.0
  0
VERTEX
  5
6670
  8
0
 10
52.6179173343615503
 20
176.3038047950228986
 30
0.0
  0
VERTEX
  5
6671
  8
0
 10
52.7226390880706504
 20
176.2704757344876043
 30
0.0
  0
VERTEX
  5
6672
  8
0
 10
52.825602801977702
 20
176.2321324256656965
 30
0.0
  0
VERTEX
  5
6673
  8
0
 10
52.9260406312371785
 20
176.1875121758725982
 30
0.0
  0
VERTEX
  5
6674
  8
0
 10
52.9749273793204907
 20
176.162390575086107
 30
0.0
  0
VERTEX
  5
6675
  8
0
 10
53.0226830741430035
 20
176.1351342343999136
 30
0.0
  0
VERTEX
  5
6676
  8
0
 10
53.069045665492979
 20
176.1055080560520025
 30
0.0
  0
VERTEX
  5
6677
  8
0
 10
53.113452695326032
 20
176.0731272485903105
 30
0.0
  0
VERTEX
  5
6678
  8
0
 10
53.1552652220583468
 20
176.0375679952996109
 30
0.0
  0
VERTEX
  5
6679
  8
0
 10
53.1937248931327034
 20
175.9983280725749921
 30
0.0
  0
VERTEX
  5
667A
  8
0
 10
53.2279099641096991
 20
175.9548412176926888
 30
0.0
  0
VERTEX
  5
667B
  8
0
 10
53.2426866519830924
 20
175.9314088708250949
 30
0.0
  0
VERTEX
  5
667C
  8
0
 10
53.2551317341796633
 20
175.90687767152329
 30
0.0
  0
VERTEX
  5
667D
  8
0
 10
53.2646254260920387
 20
175.8812751674327046
 30
0.0
  0
VERTEX
  5
667E
  8
0
 10
53.2710780020255967
 20
175.8547227179022912
 30
0.0
  0
VERTEX
  5
667F
  8
0
 10
53.2787192622000205
 20
175.7999999999994998
 30
0.0
  0
SEQEND
  5
6680
  8
0
  0
LINE
  5
46AB
  8
1
 10
50.0
 20
180.2999999999994998
 30
0.0
 11
50.0
 21
46.9999999999999929
 31
0.0
  0
LINE
  5
46AC
  8
1
 10
116.9999999999992042
 20
205.4000027492139964
 30
0.0
 11
116.9999999999990052
 21
46.9999999999999929
 31
0.0
  0
LINE
  5
46AD
  8
1
 10
30.4999999999995097
 20
252.9000027492116089
 30
0.0
 11
69.4999999999990479
 21
252.9000027492116089
 31
0.0
  0
LINE
  5
46AE
  8
1
 10
50.0000000000000213
 20
239.4000027492139964
 30
0.0
 11
49.9999999999999574
 21
266.4000027492091931
 31
0.0
  0
POLYLINE
  5
49E6
  8
0
 66
     1
 10
0.0
 20
0.0
 30
0.0
  0
VERTEX
  5
6681
  8
0
 10
53.2787192622000205
 20
166.3999999999994941
 30
0.0
  0
VERTEX
  5
6682
  8
0
 10
53.2605498994177466
 20
166.1027245964882013
 30
0.0
  0
VERTEX
  5
6683
  8
0
 10
53.2055934566289466
 20
165.8100147583022874
 30
0.0
  0
VERTEX
  5
6684
  8
0
 10
53.114797088517598
 20
165.5263608172332965
 30
0.0
  0
VERTEX
  5
6685
  8
0
 10
52.9910226520699368
 20
165.2554487639839067
 30
0.0
  0
VERTEX
  5
6686
  8
0
 10
52.8372361567646109
 20
164.9998813980822092
 30
0.0
  0
VERTEX
  5
6687
  8
0
 10
52.6561645213919789
 20
164.7625248690115995
 30
0.0
  0
VERTEX
  5
6688
  8
0
 10
52.4509177053257076
 20
164.5459951022928919
 30
0.0
  0
VERTEX
  5
6689
  8
0
 10
52.2250356445835635
 20
164.3510556723761056
 30
0.0
  0
VERTEX
  5
668A
  8
0
 10
51.9819485268673702
 20
164.1781344667606959
 30
0.0
  0
VERTEX
  5
668B
  8
0
 10
51.7241567331877334
 20
164.0281823269056076
 30
0.0
  0
VERTEX
  5
668C
  8
0
 10
51.4539772466224008
 20
163.9019840429305077
 30
0.0
  0
VERTEX
  5
668D
  8
0
 10
51.1739963888073319
 20
163.7990893314297125
 30
0.0
  0
VERTEX
  5
668E
  8
0
 10
50.8867307288324469
 20
163.7189198440794939
 30
0.0
  0
VERTEX
  5
668F
  8
0
 10
50.594111384959831
 20
163.6616748540787967
 30
0.0
  0
VERTEX
  5
6690
  8
0
 10
50.2979127922833982
 20
163.6275846968638916
 30
0.0
  0
VERTEX
  5
6691
  8
0
 10
49.9999055308883911
 20
163.6161333716628974
 30
0.0
  0
VERTEX
  5
6692
  8
0
 10
49.7018642299437303
 20
163.6268381655663973
 30
0.0
  0
VERTEX
  5
6693
  8
0
 10
49.4055863480976427
 20
163.6602574247723112
 30
0.0
  0
VERTEX
  5
6694
  8
0
 10
49.1128825971821286
 20
163.7170697391549083
 30
0.0
  0
VERTEX
  5
6695
  8
0
 10
48.8255955244861113
 20
163.7971495570803881
 30
0.0
  0
VERTEX
  5
6696
  8
0
 10
48.5456990195394269
 20
163.9002819845804026
 30
0.0
  0
VERTEX
  5
6697
  8
0
 10
48.2757137255628592
 20
164.0269001998759961
 30
0.0
  0
VERTEX
  5
6698
  8
0
 10
48.0182265294404829
 20
164.1773389297474068
 30
0.0
  0
VERTEX
  5
6699
  8
0
 10
47.7754349076681706
 20
164.3506770026168056
 30
0.0
  0
VERTEX
  5
669A
  8
0
 10
47.5496931375509391
 20
164.5458062089583962
 30
0.0
  0
VERTEX
  5
669B
  8
0
 10
47.3444433603565926
 20
164.7622937811991051
 30
0.0
  0
VERTEX
  5
669C
  8
0
 10
47.163278907698718
 20
164.9994860156938898
 30
0.0
  0
VERTEX
  5
669D
  8
0
 10
47.0092285404920673
 20
165.2549777550470935
 30
0.0
  0
VERTEX
  5
669E
  8
0
 10
46.8852940913509926
 20
165.5259598488237884
 30
0.0
  0
VERTEX
  5
669F
  8
0
 10
46.7944357390053369
 20
165.809733302493413
 30
0.0
  0
VERTEX
  5
66A0
  8
0
 10
46.7394459386198875
 20
166.102584311267691
 30
0.0
  0
VERTEX
  5
66A1
  8
0
 10
46.721280737900031
 20
166.3999999999994941
 30
0.0
  0
SEQEND
  5
66A2
  8
0
  0
LINE
  5
4B19
  8
3
 10
55.9499999999999815
 20
184.2999999999994998
 30
0.0
 11
44.0500000000000114
 21
184.2999999999994998
 31
0.0
  0
ARC
  5
4B1A
  8
3
 10
44.0373176158088313
 20
183.8126823841907083
 30
0.0
 40
0.4874826166606598
 50
88.5092205165366153
 51
181.4907794834693107
  0
ARC
  5
4B1B
  8
3
 10
55.977231642213269
 20
183.8272316422128085
 30
0.0
 40
0.4735519849625659
 50
356.7033833269038041
 51
93.2966166730910089
  0
LINE
  5
4B1D
  8
3
 10
43.5500000000000114
 20
183.7999999999994998
 30
0.0
 11
43.5500000000000611
 21
183.4999999999994884
 31
0.0
  0
LINE
  5
4B1E
  8
3
 10
56.4499999999999318
 20
183.4999999999994884
 30
0.0
 11
56.4499999999999886
 21
183.7999999999994998
 31
0.0
  0
LINE
  5
4B23
  8
3
 10
57.2180149999993475
 20
183.4999999999994884
 30
0.0
 11
42.781985000000077
 21
183.4999999999994884
 31
0.0
  0
LINE
  5
4B4B
  8
3
 10
42.7819849999999633
 20
183.4999999999994884
 30
0.0
 11
42.5999999999997883
 21
183.0000000000005116
 31
0.0
  0
LINE
  5
4B4C
  8
3
 10
57.3999999999995225
 20
183.0000000000005116
 30
0.0
 11
57.2180149999993475
 21
183.4999999999994884
 31
0.0
  0
LINE
  5
4B4D
  8
3
 10
57.3999999999995296
 20
176.5999999999995111
 30
0.0
 11
57.3999999999995225
 21
183.0000000000005116
 31
0.0
  0
LINE
  5
4B4E
  8
3
 10
42.5999999999997883
 20
183.0000000000005116
 30
0.0
 11
42.5999999999997883
 21
176.5999999999995111
 31
0.0
  0
LINE
  5
4C25
  8
3
 10
56.1999999999787931
 20
186.3126633025322008
 30
0.0
 11
56.1999999999873125
 21
184.7000000000321904
 31
0.0
  0
ARC
  5
4C26
  8
3
 10
69.1992280550659302
 20
186.3129664606738913
 30
0.0
 40
12.9992280586221494
 50
137.1168240446475863
 51
180.001336208731999
  0
ARC
  5
4C27
  8
3
 10
35.4622196036604009
 20
186.1248878413950933
 30
0.0
 40
12.9378043341225002
 50
359.8897827547652923
 51
43.7130362185452128
  0
CIRCLE
  5
4C28
  8
3
 10
52.1999999998718565
 20
206.6000000000111072
 30
0.0
 40
2.7499999999999849
  0
ARC
  5
4C29
  8
3
 10
52.199999999895617
 20
202.1000000000111072
 30
0.0
 40
10.2000000000000401
 50
317.1181602530032251
 51
223.6028189730016038
  0
LINE
  5
4C2A
  8
3
 10
48.3999999999894115
 20
184.299999999991087
 30
0.0
 11
48.3999999999799115
 21
186.0999999999910131
 31
0.0
  0
ARC
  5
4C2B
  8
3
 10
55.8000096887613424
 20
184.6999903112559025
 30
0.0
 40
0.3999903113433063
 50
269.9986121520311144
 51
0.0013878485917815
  0
LINE
  5
4CD3
  8
0
 10
53.278719262158539
 20
263.4000027492091931
 30
0.0
 11
46.7212807378565103
 21
263.4000027492091931
 31
0.0
  0
LINE
  5
4CDA
  8
0
 10
42.5460928913388017
 20
260.9894569221140728
 30
0.0
 11
39.2666500375826502
 21
255.3092952788898913
 31
0.0
  0
LINE
  5
4CDB
  8
0
 10
39.2673736291878512
 20
250.4894569221141012
 30
0.0
 11
42.5460928913388017
 21
244.8105485763138915
 31
0.0
  0
LINE
  5
4CDC
  8
0
 10
46.7212807378488932
 20
242.4000027492139964
 30
0.0
 11
53.278719262150922
 21
242.4000027492139964
 31
0.0
  0
LINE
  5
4CDD
  8
0
 10
57.4539071086609994
 20
244.8105485763138915
 30
0.0
 11
60.7326263708120706
 21
250.4894569221141012
 31
0.0
  0
LINE
  5
4CDE
  8
0
 10
60.7333499624174493
 20
255.3092952788890955
 30
0.0
 11
57.4539071086609994
 21
260.9894569221140728
 31
0.0
  0
ARC
  5
4CE3
  8
0
 10
49.9999999999999574
 20
252.9000027492116089
 30
0.0
 40
7.3999999999995216
 50
7.7664341685209717
 51
172.2335658314790123
  0
ARC
  5
4CE4
  8
0
 10
49.9999999999999574
 20
252.9000027492116089
 30
0.0
 40
7.3999999999995216
 50
187.3758950441547029
 51
352.2335658314817124
  0
LINE
  5
512A
  8
0
 10
66.3352799999984057
 20
176.2437952492134912
 30
0.0
 11
61.0264274999990519
 21
194.1661789992145941
 31
0.0
  0
LINE
  5
512B
  8
0
 10
59.1087874999984706
 20
193.5981489992119009
 30
0.0
 11
64.4176399999991958
 21
175.6757652492183013
 31
0.0
  0
LINE
  5
512C
  8
0
 10
62.4999999999995381
 20
173.0999999999989996
 30
0.0
 11
60.9999999999995524
 21
173.0999999999989996
 31
0.0
  0
LINE
  5
512D
  8
0
 10
60.9999999999995524
 20
171.0999999999995111
 30
0.0
 11
62.4999999999995381
 21
171.0999999999995111
 31
0.0
  0
LINE
  5
512E
  8
0
 10
38.9735737499995594
 20
194.1661789992145941
 30
0.0
 11
33.6647212499997295
 21
176.2437952492134912
 31
0.0
  0
LINE
  5
512F
  8
0
 10
35.5823612500003108
 20
175.6757652492183013
 30
0.0
 11
40.8912137500001265
 21
193.5981489992119009
 31
0.0
  0
LINE
  5
5130
  8
0
 10
39.0000000000004619
 20
173.0999999999989996
 30
0.0
 11
37.5
 21
173.0999999999989996
 31
0.0
  0
POLYLINE
  5
5131
  8
0
 66
     1
 10
0.0
 20
0.0
 30
0.0
  0
VERTEX
  5
66A3
  8
0
 10
50.0
 20
202.4000027492139964
 30
0.0
  0
VERTEX
  5
66A4
  8
0
 10
48.1232086002537471
 20
202.2465074300507979
 30
0.0
  0
VERTEX
  5
66A5
  8
0
 10
46.3318127977740915
 20
201.8002168019409908
 30
0.0
  0
VERTEX
  5
66A6
  8
0
 10
44.6543273697666265
 20
201.0824238589543995
 30
0.0
  0
VERTEX
  5
66A7
  8
0
 10
43.1192670934378768
 20
200.1144215951605076
 30
0.0
  0
VERTEX
  5
66A8
  8
0
 10
41.755146745992981
 20
198.9175030046291113
 30
0.0
  0
VERTEX
  5
66A9
  8
0
 10
40.5904811046366305
 20
197.5129610814300918
 30
0.0
  0
VERTEX
  5
66AA
  8
0
 10
39.6537849465757972
 20
195.9220888196327053
 30
0.0
  0
VERTEX
  5
66AB
  8
0
 10
38.9735737499995594
 20
194.1661789992145941
 30
0.0
  0
SEQEND
  5
66AC
  8
0
  0
POLYLINE
  5
5132
  8
0
 66
     1
 10
0.0
 20
0.0
 30
0.0
  0
VERTEX
  5
66AD
  8
0
 10
61.0264274999990519
 20
194.1661789992145941
 30
0.0
  0
VERTEX
  5
66AE
  8
0
 10
60.3462150534228385
 20
195.9220888196327053
 30
0.0
  0
VERTEX
  5
66AF
  8
0
 10
59.4095188953629005
 20
197.5129610814300918
 30
0.0
  0
VERTEX
  5
66B0
  8
0
 10
58.2448532540070119
 20
198.9175030046291113
 30
0.0
  0
VERTEX
  5
66B1
  8
0
 10
56.8807329065621232
 20
200.1144215951605076
 30
0.0
  0
VERTEX
  5
66B2
  8
0
 10
55.3456726302333735
 20
201.0824238589543995
 30
0.0
  0
VERTEX
  5
66B3
  8
0
 10
53.6681872022259085
 20
201.8002168019409908
 30
0.0
  0
VERTEX
  5
66B4
  8
0
 10
51.8767913997467076
 20
202.2465074300507979
 30
0.0
  0
VERTEX
  5
66B5
  8
0
 10
50.0
 20
202.4000027492139964
 30
0.0
  0
SEQEND
  5
66B6
  8
0
  0
POLYLINE
  5
5133
  8
0
 66
     1
 10
0.0
 20
0.0
 30
0.0
  0
VERTEX
  5
66B7
  8
0
 10
35.5823612500003108
 20
175.6757652492183013
 30
0.0
  0
VERTEX
  5
66B8
  8
0
 10
35.7423657746753634
 20
174.1456824794821898
 30
0.0
  0
VERTEX
  5
66B9
  8
0
 10
36.931969310592649
 20
173.1823605302664077
 30
0.0
  0
VERTEX
  5
66BA
  8
0
 10
37.2130147560174009
 20
173.1206972263605053
 30
0.0
  0
VERTEX
  5
66BB
  8
0
 10
37.5
 20
173.0999999999989996
 30
0.0
  0
SEQEND
  5
66BC
  8
0
  0
POLYLINE
  5
5134
  8
0
 66
     1
 10
0.0
 20
0.0
 30
0.0
  0
VERTEX
  5
66BD
  8
0
 10
33.6647212499997295
 20
176.2437952492134912
 30
0.0
  0
VERTEX
  5
66BE
  8
0
 10
33.5239099335190076
 20
174.6539203992352896
 30
0.0
  0
VERTEX
  5
66BF
  8
0
 10
33.9847315493525528
 20
173.1913649589600936
 30
0.0
  0
VERTEX
  5
66C0
  8
0
 10
34.9603523109376511
 20
172.0083226490399113
 30
0.0
  0
VERTEX
  5
66C1
  8
0
 10
36.3639386211830171
 20
171.2647210605256021
 30
0.0
  0
VERTEX
  5
66C2
  8
0
 10
37.5
 20
171.0999999999995111
 30
0.0
  0
SEQEND
  5
66C3
  8
0
  0
POLYLINE
  5
5135
  8
0
 66
     1
 10
0.0
 20
0.0
 30
0.0
  0
VERTEX
  5
66C4
  8
0
 10
62.4999999999995381
 20
173.0999999999989996
 30
0.0
  0
VERTEX
  5
66C5
  8
0
 10
63.9142135623719696
 20
173.6857864376275984
 30
0.0
  0
VERTEX
  5
66C6
  8
0
 10
64.4999999999995453
 20
175.0999999999986017
 30
0.0
  0
VERTEX
  5
66C7
  8
0
 10
64.4793027736377553
 20
175.3869852439840997
 30
0.0
  0
VERTEX
  5
66C8
  8
0
 10
64.4176399999991958
 20
175.6757652492183013
 30
0.0
  0
SEQEND
  5
66C9
  8
0
  0
POLYLINE
  5
5136
  8
0
 66
     1
 10
0.0
 20
0.0
 30
0.0
  0
VERTEX
  5
66CA
  8
0
 10
62.4999999999995381
 20
171.0999999999995111
 30
0.0
  0
VERTEX
  5
66CB
  8
0
 10
64.0569805153381822
 20
171.414339828219795
 30
0.0
  0
VERTEX
  5
66CC
  8
0
 10
65.328427124744394
 20
172.2715728752536108
 30
0.0
  0
VERTEX
  5
66CD
  8
0
 10
66.1856601717777266
 20
173.5430194846601069
 30
0.0
  0
VERTEX
  5
66CE
  8
0
 10
66.499999999998181
 20
175.0999999999986017
 30
0.0
  0
VERTEX
  5
66CF
  8
0
 10
66.3375709151824253
 20
176.2360612499986132
 30
0.0
  0
SEQEND
  5
66D0
  8
0
  0
POLYLINE
  5
5137
  8
0
 66
     1
 10
0.0
 20
0.0
 30
0.0
  0
VERTEX
  5
66D1
  8
0
 10
59.1087874999984706
 20
193.5981489992119009
 30
0.0
  0
VERTEX
  5
66D2
  8
0
 10
58.7858901065151329
 20
194.5155389079963868
 30
0.0
  0
VERTEX
  5
66D3
  8
0
 10
58.3799588108518108
 20
195.3790701775120908
 30
0.0
  0
VERTEX
  5
66D4
  8
0
 10
57.8969284072058983
 20
196.1855199919322104
 30
0.0
  0
VERTEX
  5
66D5
  8
0
 10
57.3427337085268007
 20
196.9316660107396899
 30
0.0
  0
VERTEX
  5
66D6
  8
0
 10
56.7233095277647408
 20
197.6142858934175877
 30
0.0
  0
VERTEX
  5
66D7
  8
0
 10
56.0445906778672907
 20
198.2301572994493029
 30
0.0
  0
VERTEX
  5
66D8
  8
0
 10
55.3125119717851703
 20
198.7760578883172116
 30
0.0
  0
VERTEX
  5
66D9
  8
0
 10
54.5330082224663784
 20
199.2487653195045141
 30
0.0
  0
VERTEX
  5
66DA
  8
0
 10
53.7120142428602705
 20
199.645057252494297
 30
0.0
  0
VERTEX
  5
66DB
  8
0
 10
52.8554648459166927
 20
199.9617113467693059
 30
0.0
  0
VERTEX
  5
66DC
  8
0
 10
51.9692948445845104
 20
200.1955052618129969
 30
0.0
  0
VERTEX
  5
66DD
  8
0
 10
51.0594390518121983
 20
200.3432166571078881
 30
0.0
  0
VERTEX
  5
66DE
  8
0
 10
50.1318322805495882
 20
200.4016231921372082
 30
0.0
  0
VERTEX
  5
66DF
  8
0
 10
49.1924093437464833
 20
200.3675025263835892
 30
0.0
  0
VERTEX
  5
66E0
  8
0
 10
48.2471050543508682
 20
200.2376323193306007
 30
0.0
  0
VERTEX
  5
66E1
  8
0
 10
47.3018542253125815
 20
200.0087902304607042
 30
0.0
  0
VERTEX
  5
66E2
  8
0
 10
46.178296679342111
 20
199.5975245036331955
 30
0.0
  0
VERTEX
  5
66E3
  8
0
 10
45.1274220416030403
 20
199.0554297367104937
 30
0.0
  0
VERTEX
  5
66E4
  8
0
 10
44.15892133407214
 20
198.3921969516696038
 30
0.0
  0
VERTEX
  5
66E5
  8
0
 10
43.2824855787275666
 20
197.6175171704882132
 30
0.0
  0
VERTEX
  5
66E6
  8
0
 10
42.5078057975456431
 20
196.7410814151434124
 30
0.0
  0
VERTEX
  5
66E7
  8
0
 10
41.8445730125040427
 20
195.7725807076124909
 30
0.0
  0
VERTEX
  5
66E8
  8
0
 10
41.3024782455804598
 20
194.7217060698731075
 30
0.0
  0
VERTEX
  5
66E9
  8
0
 10
40.8912137500001265
 20
193.5981489992119009
 30
0.0
  0
SEQEND
  5
66EA
  8
0
  0
LINE
  5
5138
  8
0
 10
37.5
 20
171.0999999999995111
 30
0.0
 11
39.0000000000004619
 21
171.0999999999995111
 31
0.0
  0
LINE
  5
5142
  8
0
 10
34.4999999999995097
 20
251.9000027492108984
 30
0.0
 11
65.4999999999990337
 21
251.9000027492108984
 31
0.0
  0
LINE
  5
5143
  8
0
 10
65.4999999999990337
 20
253.9000027492126037
 30
0.0
 11
34.4999999999995097
 21
253.9000027492126037
 31
0.0
  0
ARC
  5
5144
  8
0
 10
65.4999999999990337
 20
252.9000027492116089
 30
0.0
 40
1.0
 50
270.0
 51
90.0
  0
ARC
  5
5145
  8
0
 10
34.4999999999995097
 20
252.9000027492116089
 30
0.0
 40
1.0
 50
90.0
 51
270.0
  0
ARC
  5
5149
  8
0
 10
50.0405787599035818
 20
252.9009935121264903
 30
0.0
 40
11.0398123857902508
 50
167.3997803213007955
 51
174.8081163683148134
  0
ARC
  5
514A
  8
0
 10
50.0405787599035818
 20
252.9009935121264903
 30
0.0
 40
11.0398123857902508
 50
185.2022100499636963
 51
192.6174230542895032
  0
ARC
  5
514B
  8
0
 10
49.9594212400963471
 20
252.9009935121264903
 30
0.0
 40
11.0398123857902508
 50
5.1918836316852213
 51
12.6002196786995704
  0
LINE
  5
51B4
  8
0
 10
227.8999999999990962
 20
222.015967313198388
 30
0.0
 11
229.7999999999991019
 21
222.015967313198388
 31
0.0
  0
LINE
  5
51B5
  8
0
 10
227.8999999999990962
 20
203.515967313198388
 30
0.0
 11
229.7999999999991019
 21
203.515967313198388
 31
0.0
  0
LINE
  5
51B8
  8
0
 10
229.7999999999991019
 20
203.515967313198388
 30
0.0
 11
229.7999999999991019
 21
250.015967313198388
 31
0.0
  0
LINE
  5
51B9
  8
0
 10
227.8999999999990962
 20
203.515967313198388
 30
0.0
 11
227.8999999999990962
 21
250.015967313198388
 31
0.0
  0
LINE
  5
51BC
  8
0
 10
227.8999999999990962
 20
232.8749830755076005
 30
0.0
 11
229.7999999999991019
 21
232.8749830755076005
 31
0.0
  0
LINE
  5
51BF
  8
0
 10
229.7999999999991019
 20
250.015967313198388
 30
0.0
 11
227.8999999999990962
 21
250.015967313198388
 31
0.0
  0
LINE
  5
51C1
  8
0
 10
227.8999999999990962
 20
206.6331246007237894
 30
0.0
 11
229.7999999999991019
 21
206.6331246007237894
 31
0.0
  0
ARC
  5
51C4
  8
0
 10
194.3845612252200965
 20
205.5267294905746098
 30
0.0
 40
0.484603423864764
 50
179.2438694425594861
 51
225.7571464927845
  0
ARC
  5
51C5
  8
0
 10
201.3012843283364077
 20
222.4146829848610878
 30
0.0
 40
0.3987177401730935
 50
269.8154415691299732
 51
0.1845584308760397
  0
LINE
  5
51C6
  8
0
 10
195.4999999999992042
 20
203.7260693646416883
 30
0.0
 11
194.046452878385395
 21
205.179564941373286
 31
0.0
  0
ARC
  5
51C7
  8
0
 10
195.9999999999992042
 20
204.2141420977829966
 30
0.0
 40
0.6987238315929973
 50
224.3084022672418882
 51
315.6915977327585097
  0
LINE
  5
51C8
  8
0
 10
193.8999999999992099
 20
205.5331246007237098
 30
0.0
 11
193.8999999999992099
 21
223.8159673131983993
 31
0.0
  0
ARC
  5
51C9
  8
0
 10
197.6999999999991076
 20
239.8159673131983993
 30
0.0
 40
10.1999999999999993
 50
317.1181602527256018
 51
223.6028189726993105
  0
CIRCLE
  5
51CA
  8
0
 10
197.6999999999991076
 20
244.3159673131983993
 30
0.0
 40
2.75
  0
ARC
  5
51CB
  8
0
 10
180.9879341470638963
 20
223.8511409720242114
 30
0.0
 40
12.9121137609925398
 50
359.8439213957893799
 51
43.7588975769212567
  0
ARC
  5
51CC
  8
0
 10
213.5198649197959924
 20
224.4920930500263978
 30
0.0
 40
11.8289477194834003
 50
134.8727162171697955
 51
182.245444035557
  0
LINE
  5
51CD
  8
0
 10
201.6999999999991076
 20
224.0286306157057084
 30
0.0
 11
201.6999999999991076
 21
222.4159673131983936
 31
0.0
  0
LINE
  5
51CE
  8
0
 10
199.1999999999991076
 20
222.015967313198388
 30
0.0
 11
199.1999999999991076
 21
206.6331246007237894
 31
0.0
  0
ARC
  5
51CF
  8
0
 10
198.7182118385586875
 20
206.6255809025574024
 30
0.0
 40
0.4818472163312415
 50
314.1023744507809852
 51
0.8970472604038056
  0
LINE
  5
51D0
  8
0
 10
199.0535498221699982
 20
206.2795676417802042
 30
0.0
 11
196.4999999999992042
 21
203.7260693646416883
 31
0.0
  0
LINE
  5
51D1
  8
0
 10
199.1999999999991076
 20
222.015967313198388
 30
0.0
 11
201.2999999999991019
 21
222.015967313198388
 31
0.0
  0
LINE
  5
51DC
  8
1
 10
197.6999999999991076
 20
253.0157654259033961
 30
0.0
 11
197.6999999999989939
 21
200.8968185829484128
 31
0.0
  0
LINE
  5
51E4
  8
1
 10
192.9499999999991076
 20
244.3159673131983993
 30
0.0
 11
202.4499999999991076
 21
244.3159673131983993
 31
0.0
  0
LINE
  5
51FC
  8
0
 10
227.8999999999990962
 20
155.515967313198388
 30
0.0
 11
229.7999999999991019
 21
155.515967313198388
 31
0.0
  0
LINE
  5
51FD
  8
0
 10
227.8999999999990962
 20
137.015967313198388
 30
0.0
 11
229.7999999999991019
 21
137.015967313198388
 31
0.0
  0
LINE
  5
51FE
  8
0
 10
229.7999999999991019
 20
137.015967313198388
 30
0.0
 11
229.7999999999991019
 21
183.515967313198388
 31
0.0
  0
LINE
  5
51FF
  8
0
 10
227.8999999999990962
 20
137.015967313198388
 30
0.0
 11
227.8999999999990962
 21
183.515967313198388
 31
0.0
  0
LINE
  5
5200
  8
0
 10
227.8999999999990962
 20
166.3749830755076005
 30
0.0
 11
229.7999999999991019
 21
166.3749830755076005
 31
0.0
  0
LINE
  5
5201
  8
0
 10
229.7999999999991019
 20
183.515967313198388
 30
0.0
 11
227.8999999999990962
 21
183.515967313198388
 31
0.0
  0
LINE
  5
5202
  8
0
 10
227.8999999999990962
 20
140.1331246007237894
 30
0.0
 11
229.7999999999991019
 21
140.1331246007237894
 31
0.0
  0
ARC
  5
5203
  8
0
 10
194.3845612252200965
 20
139.0267294905746098
 30
0.0
 40
0.484603423864764
 50
179.2438694425592871
 51
225.7571464927845
  0
ARC
  5
5204
  8
0
 10
201.3012843283364077
 20
155.9146829848610878
 30
0.0
 40
0.3987177401730935
 50
269.8154415691299732
 51
0.1845584308762433
  0
LINE
  5
5205
  8
0
 10
195.4999999999992042
 20
137.2260693646416883
 30
0.0
 11
194.046452878385395
 21
138.679564941373286
 31
0.0
  0
ARC
  5
5206
  8
0
 10
195.9999999999992042
 20
137.7141420977829966
 30
0.0
 40
0.6987238315929973
 50
224.308402267241604
 51
315.6915977327607834
  0
LINE
  5
5207
  8
0
 10
193.8999999999992099
 20
139.0331246007237098
 30
0.0
 11
193.8999999999992099
 21
157.3159673131983993
 31
0.0
  0
ARC
  5
5208
  8
0
 10
197.6999999999991076
 20
173.3159673131983993
 30
0.0
 40
10.1999999999999993
 50
317.1181602527256018
 51
223.6028189726993105
  0
CIRCLE
  5
5209
  8
0
 10
197.6999999999991076
 20
177.8159673131983993
 30
0.0
 40
2.75
  0
ARC
  5
520A
  8
0
 10
180.9879341470638963
 20
157.3511409720242114
 30
0.0
 40
12.9121137609925398
 50
359.8439213957889251
 51
43.7588975769211217
  0
ARC
  5
520B
  8
0
 10
213.5198649197959924
 20
157.9920930500263978
 30
0.0
 40
11.8289477194834003
 50
134.8727162171697955
 51
182.2454440355573979
  0
LINE
  5
520C
  8
0
 10
201.6999999999991076
 20
157.5286306157057084
 30
0.0
 11
201.6999999999991076
 21
155.9159673131983936
 31
0.0
  0
LINE
  5
520D
  8
0
 10
199.1999999999991076
 20
155.515967313198388
 30
0.0
 11
199.1999999999991076
 21
140.1331246007237894
 31
0.0
  0
ARC
  5
520E
  8
0
 10
198.7182118385586875
 20
140.1255809025574024
 30
0.0
 40
0.4818472163312415
 50
314.1023744507809283
 51
0.8970472604033982
  0
LINE
  5
520F
  8
0
 10
199.0535498221699982
 20
139.7795676417802042
 30
0.0
 11
196.4999999999992042
 21
137.2260693646416883
 31
0.0
  0
LINE
  5
5210
  8
0
 10
199.1999999999991076
 20
155.515967313198388
 30
0.0
 11
201.2999999999991019
 21
155.515967313198388
 31
0.0
  0
LINE
  5
5211
  8
1
 10
197.6999999999991076
 20
186.5157654259033961
 30
0.0
 11
197.6999999999989939
 21
134.3968185829482991
 31
0.0
  0
LINE
  5
5212
  8
1
 10
192.9499999999991076
 20
177.8159673131983993
 30
0.0
 11
202.4499999999991076
 21
177.8159673131983993
 31
0.0
  0
ARC
  5
6122
  8
0
 10
56.25
 20
59.8499999999999872
 30
0.0
 40
3.250000000000004
 50
299.1180599768561024
 51
60.8819400231513725
  0
LINE
  5
6125
  8
0
 10
57.7113248654000017
 20
50.0
 30
0.0
 11
42.2886751345999983
 21
50.0
 31
0.0
  0
LINE
  5
6126
  8
0
 10
42.0
 20
133.0999999999995111
 30
0.0
 11
42.0000000000000071
 21
63.0999999999999517
 31
0.0
  0
LINE
  5
6127
  8
0
 10
42.0
 20
56.5999999999988574
 30
0.0
 11
42.0
 21
50.5
 31
0.0
  0
LINE
  5
6128
  8
0
 10
57.9999999999999929
 20
50.4999999999999787
 30
0.0
 11
58.0
 21
56.6000000000000227
 31
0.0
  0
LINE
  5
6129
  8
0
 10
58.0
 20
63.100000000001117
 30
0.0
 11
58.0
 21
133.0999999999995111
 31
0.0
  0
ARC
  5
612B
  8
0
 10
65.3523405839199967
 20
59.8500000000005627
 30
0.0
 40
8.0386200346801218
 50
156.1528407470360094
 51
203.8471592529639906
  0
LINE
  5
612C
  8
1
 10
55.8128887702233527
 20
59.8500000000004491
 30
0.0
 11
61.0000000000000071
 21
59.8500000000001009
 31
0.0
  0
ARC
  5
612D
  8
0
 10
43.75
 20
59.8499999999999872
 30
0.0
 40
3.250000000000004
 50
119.1180599768486985
 51
240.8819400231438124
  0
ARC
  5
612E
  8
0
 10
34.6618324168968286
 20
59.8499999999994188
 30
0.0
 40
8.0256590681208131
 50
336.1119329931490824
 51
23.8880670068508287
  0
LINE
  5
612F
  8
1
 10
44.1874914850176381
 20
59.8500000000004491
 30
0.0
 11
39.0
 21
59.8500000000001009
 31
0.0
  0
LINE
  5
6130
  8
0
 10
124.711324865399007
 20
50.0
 30
0.0
 11
109.2886751345990035
 21
50.0
 31
0.0
  0
CIRCLE
  5
6134
  8
0
 10
116.9999999999990052
 20
59.8499999999999872
 30
0.0
 40
3.25
  0
LINE
  5
6138
  8
0
 10
108.9999999999990052
 20
133.0999999999995111
 30
0.0
 11
108.9999999999990052
 21
50.5
 31
0.0
  0
LINE
  5
6139
  8
0
 10
124.9999999999990052
 20
50.4999999999999787
 30
0.0
 11
124.9999999999990052
 21
133.0999999999995111
 31
0.0
  0
LINE
  5
6140
  8
1
 10
111.7499999999990052
 20
59.8499999999999872
 30
0.0
 11
122.2499999999990052
 21
59.8499999999999872
 31
0.0
  0
LINE
  5
6141
  8
0
 10
108.9999999999990052
 20
50.4999999999999929
 30
0.0
 11
109.2886751345990035
 21
50.0
 31
0.0
  0
LINE
  5
6142
  8
0
 10
124.711324865399007
 20
50.0
 30
0.0
 11
124.9999999999990052
 21
50.4999999999999929
 31
0.0
  0
LINE
  5
6143
  8
0
 10
124.9999999999990052
 20
50.4999999999999929
 30
0.0
 11
108.9999999999990052
 21
50.4999999999999929
 31
0.0
  0
LINE
  5
6145
  8
0
 10
42.0
 20
50.4999999999999929
 30
0.0
 11
42.2886751345999983
 21
50.0
 31
0.0
  0
LINE
  5
6146
  8
0
 10
57.7113248654000017
 20
50.0
 30
0.0
 11
58.0
 21
50.4999999999999929
 31
0.0
  0
LINE
  5
6147
  8
0
 10
58.0
 20
50.4999999999999929
 30
0.0
 11
42.0
 21
50.4999999999999929
 31
0.0
  0
ENDSEC
  0
EOF
