  0
SECTION
  2
HEADER
  9
$ACADVER
  1
AC1009
  9
$INSBASE
 10
0.0
 20
0.0
 30
0.0
  9
$EXTMIN
 10
0.0
 20
-2.960436562073669
 30
0.0
  9
$EXTMAX
 10
229.7999999999991019
 20
233.2000027492092897
 30
0.0
  9
$LIMMIN
 10
0.0
 20
0.0
  9
$LIMMAX
 10
187.5
 20
135.0
  9
$ORTHOMODE
 70
     1
  9
$REGENMODE
 70
     1
  9
$FILLMODE
 70
     1
  9
$QTEXTMODE
 70
     0
  9
$MIRRTEXT
 70
     0
  9
$DRAGMODE
 70
     2
  9
$LTSCALE
 40
5.0
  9
$OSMODE
 70
    37
  9
$ATTMODE
 70
     1
  9
$TEXTSIZE
 40
4.0
  9
$TRACEWID
 40
0.05
  9
$TEXTSTYLE
  7
STANDARD
  9
$CLAYER
  8
0
  9
$CELTYPE
  6
BYLAYER
  9
$CECOLOR
 62
   256
  9
$DIMSCALE
 40
0.5
  9
$DIMASZ
 40
3.0
  9
$DIMEXO
 40
2.0
  9
$DIMDLI
 40
0.38
  9
$DIMRND
 40
0.0
  9
$DIMDLE
 40
0.0
  9
$DIMEXE
 40
2.0
  9
$DIMTP
 40
0.0
  9
$DIMTM
 40
0.0
  9
$DIMTXT
 40
3.0
  9
$DIMCEN
 40
0.0
  9
$DIMTSZ
 40
0.0
  9
$DIMTOL
 70
     0
  9
$DIMLIM
 70
     0
  9
$DIMTIH
 70
     0
  9
$DIMTOH
 70
     0
  9
$DIMSE1
 70
     0
  9
$DIMSE2
 70
     0
  9
$DIMTAD
 70
     1
  9
$DIMZIN
 70
     0
  9
$DIMBLK
  1

  9
$DIMASO
 70
     0
  9
$DIMSHO
 70
     0
  9
$DIMPOST
  1

  9
$DIMAPOST
  1

  9
$DIMALT
 70
     0
  9
$DIMALTD
 70
     2
  9
$DIMALTF
 40
25.3999999999999986
  9
$DIMLFAC
 40
1.0
  9
$DIMTOFL
 70
     0
  9
$DIMTVP
 40
1.6000000000000001
  9
$DIMTIX
 70
     1
  9
$DIMSOXD
 70
     0
  9
$DIMSAH
 70
     0
  9
$DIMBLK1
  1

  9
$DIMBLK2
  1

  9
$DIMSTYLE
  2
STANDARD
  9
$DIMCLRD
 70
     0
  9
$DIMCLRE
 70
     0
  9
$DIMCLRT
 70
     0
  9
$DIMTFAC
 40
1.0
  9
$DIMGAP
 40
0.09
  9
$LUNITS
 70
     2
  9
$LUPREC
 70
     1
  9
$SKETCHINC
 40
0.1
  9
$FILLETRAD
 40
1.0
  9
$AUNITS
 70
     0
  9
$AUPREC
 70
     0
  9
$MENU
  1
E:\r13\win\SUPPORT\ACAD
  9
$ELEVATION
 40
0.0
  9
$PELEVATION
 40
0.0
  9
$THICKNESS
 40
0.0
  9
$LIMCHECK
 70
     0
  9
$BLIPMODE
 70
     0
  9
$CHAMFERA
 40
0.0
  9
$CHAMFERB
 40
0.0
  9
$SKPOLY
 70
     0
  9
$TDCREATE
 40
2449840.6143865738995373
  9
$TDUPDATE
 40
2460864.3916203710250556
  9
$TDINDWG
 40
0.7149347569
  9
$TDUSRTIMER
 40
0.7149347569
  9
$USRTIMER
 70
     1
  9
$ANGBASE
 50
0.0
  9
$ANGDIR
 70
     0
  9
$PDMODE
 70
     0
  9
$PDSIZE
 40
0.0
  9
$PLINEWID
 40
0.0
  9
$COORDS
 70
     1
  9
$SPLFRAME
 70
     0
  9
$SPLINETYPE
 70
     6
  9
$SPLINESEGS
 70
     8
  9
$ATTDIA
 70
     1
  9
$ATTREQ
 70
     1
  9
$HANDLING
 70
     1
  9
$HANDSEED
  5
5BE2
  9
$SURFTAB1
 70
     6
  9
$SURFTAB2
 70
     6
  9
$SURFTYPE
 70
     6
  9
$SURFU
 70
     6
  9
$SURFV
 70
     6
  9
$UCSNAME
  2

  9
$UCSORG
 10
0.0
 20
0.0
 30
0.0
  9
$UCSXDIR
 10
1.0
 20
0.0
 30
0.0
  9
$UCSYDIR
 10
0.0
 20
1.0
 30
0.0
  9
$PUCSNAME
  2

  9
$PUCSORG
 10
0.0
 20
0.0
 30
0.0
  9
$PUCSXDIR
 10
1.0
 20
0.0
 30
0.0
  9
$PUCSYDIR
 10
0.0
 20
1.0
 30
0.0
  9
$USERI1
 70
     0
  9
$USERI2
 70
     1
  9
$USERI3
 70
     1
  9
$USERI4
 70
     0
  9
$USERI5
 70
     0
  9
$USERR1
 40
0.0
  9
$USERR2
 40
0.0
  9
$USERR3
 40
0.0
  9
$USERR4
 40
0.0
  9
$USERR5
 40
0.0
  9
$WORLDVIEW
 70
     1
  9
$SHADEDGE
 70
     3
  9
$SHADEDIF
 70
    70
  9
$TILEMODE
 70
     1
  9
$MAXACTVP
 70
    16
  9
$PLIMCHECK
 70
     0
  9
$PEXTMIN
 10
1.0000000000000000E+20
 20
1.0000000000000000E+20
 30
1.0000000000000000E+20
  9
$PEXTMAX
 10
-1.0000000000000000E+20
 20
-1.0000000000000000E+20
 30
-1.0000000000000000E+20
  9
$PLIMMIN
 10
0.0
 20
0.0
  9
$PLIMMAX
 10
12.0
 20
9.0
  9
$UNITMODE
 70
     0
  9
$VISRETAIN
 70
     0
  9
$PLINEGEN
 70
     0
  9
$PSLTSCALE
 70
     0
  0
ENDSEC
  0
SECTION
  2
TABLES
  0
TABLE
  2
VPORT
 70
     1
  0
VPORT
  2
*ACTIVE
 70
     0
 10
0.0
 20
0.0
 11
1.0
 21
1.0
 12
539.4919168591223979
 22
229.7154884581055967
 13
0.0
 23
0.0
 14
5.0
 24
5.0
 15
5.0
 25
5.0
 16
0.0
 26
0.0
 36
1.0
 17
0.0
 27
0.0
 37
0.0
 40
459.4309769162111934
 41
2.3485221674876842
 42
50.0
 43
0.0
 44
0.0
 50
0.0
 51
0.0
 71
     0
 72
   100
 73
     1
 74
     0
 75
     0
 76
     0
 77
     0
 78
     0
  0
ENDTAB
  0
TABLE
  2
LTYPE
 70
     3
  0
LTYPE
  2
CONTINUOUS
 70
     0
  3
Solid Line
 72
    65
 73
     0
 40
0.0
  0
LTYPE
  2
CENTER
 70
     0
  3
____ _ ____ _ ____ _ ____ _ ____ _ ____ _ ____
 72
    65
 73
     4
 40
2.0
 49
1.25
 49
-0.25
 49
0.25
 49
-0.25
  0
LTYPE
  2
PHANTOM2
 70
     0
  3
___ _ _ ___ _ _ ___ _ _ ___ _ _
 72
    65
 73
     6
 40
1.25
 49
0.625
 49
-0.125
 49
0.125
 49
-0.125
 49
0.125
 49
-0.125
  0
ENDTAB
  0
TABLE
  2
LAYER
 70
     3
  0
LAYER
  2
0
 70
     0
 62
     7
  6
CONTINUOUS
  0
LAYER
  2
1
 70
     0
 62
     1
  6
CENTER
  0
LAYER
  2
3
 70
     0
 62
     3
  6
CONTINUOUS
  0
ENDTAB
  0
TABLE
  2
STYLE
 70
     2
  0
STYLE
  2
STANDARD
 70
     0
 40
0.0
 41
1.0
 50
0.0
 71
     0
 42
4.0
  3
TXT
  4
BIGFONT
  0
STYLE
  2
STANDARD1
 70
     0
 40
0.0
 41
1.0
 50
0.0
 71
     0
 42
3.0
  3
txt
  4

  0
ENDTAB
  0
TABLE
  2
VIEW
 70
     1
  0
VIEW
  2
ALL
 70
     0
 40
179.6615229999999883
 10
141.9039180000000044
 20
89.8307609999999954
 41
0.0
 11
0.0
 21
0.0
 31
1.0
 12
0.0
 22
0.0
 32
0.0
 42
0.0
 43
0.0
 44
0.0
 50
0.0
 71
     0
  0
ENDTAB
  0
TABLE
  2
UCS
 70
     0
  0
ENDTAB
  0
TABLE
  2
APPID
 70
    13
  0
APPID
  2
ACAD
 70
     0
  0
APPID
  2
DCO15
 70
     0
  0
APPID
  2
ACAD_EXEMPT_FROM_CAD_STANDARDS
 70
     0
  0
APPID
  2
ACAD_MLEADERVER
 70
     0
  0
APPID
  2
ACAD_NAV_VCDISPLAY
 70
     0
  0
APPID
  2
ACAD_DSTYLE_DIMJAG
 70
     0
  0
APPID
  2
ACAD_DSTYLE_DIMTALN
 70
     0
  0
APPID
  2
ACAD_PSEXT
 70
     0
  0
APPID
  2
ACAD_DSTYLE_DIMBREAK
 70
     0
  0
APPID
  2
ACAECLAYERSTANDARD
 70
     0
  0
APPID
  2
ACCMTRANSPARENCY
 70
     0
  0
APPID
  2
GRADIENTCOLOR1ACI
 70
     0
  0
APPID
  2
GRADIENTCOLOR2ACI
 70
     0
  0
ENDTAB
  0
TABLE
  2
DIMSTYLE
 70
     1
  0
DIMSTYLE
  2
STANDARD
 70
     0
  3

  4

  5

  6

  7

 40
1.0
 41
0.18
 42
0.0625
 43
0.38
 44
0.18
 45
0.0
 46
0.0
 47
0.0
 48
0.0
140
0.18
141
0.09
142
0.0
143
25.3999999999999986
144
1.0
145
0.0
146
1.0
147
0.09
 71
     0
 72
     0
 73
     1
 74
     1
 75
     0
 76
     0
 77
     0
 78
     0
170
     0
171
     2
172
     0
173
     0
174
     0
175
     0
176
     0
177
     0
178
     0
  0
ENDTAB
  0
ENDSEC
  0
SECTION
  2
BLOCKS
  0
BLOCK
  8
0
  2
$MODEL_SPACE
 70
     0
 10
0.0
 20
0.0
 30
0.0
  3
$MODEL_SPACE
  1

  0
ENDBLK
  5
1BD
  8
0
  0
BLOCK
 67
     1
  8
0
  2
$PAPER_SPACE
 70
     0
 10
0.0
 20
0.0
 30
0.0
  3
$PAPER_SPACE
  1

  0
ENDBLK
  5
1BB
 67
     1
  8
0
  0
ENDSEC
  0
SECTION
  2
ENTITIES
  0
TEXT
  5
189A
  8
0
 62
     3
 10
0.0
 20
0.0
 30
0.0
 40
10.0
  1
BLPLR12040
  7
STANDARD1
  0
ARC
  5
28D8
  8
0
 10
60.2011291330219933
 20
142.6011291330214874
 30
0.0
 40
0.7988716649422317
 50
359.9190175580811228
 51
90.0809824419179535
  0
ARC
  5
28D9
  8
0
 10
39.7990112328383319
 20
142.6009887671615957
 30
0.0
 40
0.799011844631771
 50
89.9290971715546732
 51
180.0709028284638009
  0
ARC
  5
28DA
  8
0
 10
53.000103303807748
 20
133.1999733972292006
 30
0.0
 40
7.999896696236493
 50
331.1178378048535933
 51
0.0001905307687144
  0
ARC
  5
28DB
  8
0
 10
46.992363239154372
 20
133.1980333891168868
 30
0.0
 40
7.9923634811077333
 50
179.9859017292033059
 51
208.8960699379568098
  0
ARC
  5
28DC
  8
0
 10
63.4921745202440775
 20
127.4093387229051046
 30
0.0
 40
3.9840518118006059
 50
151.0805470320293011
 51
169.7170213606696905
  0
ARC
  5
28DD
  8
0
 10
36.4910859036901414
 20
127.403377627702497
 30
0.0
 40
4.0015876677381801
 50
10.3241746934864391
 51
28.8782569138139102
  0
ARC
  5
28DE
  8
0
 10
55.9999632433079526
 20
117.4761929206355973
 30
0.0
 40
4.0000367566945929
 50
0.0000645612076508
 51
13.9822460852966994
  0
ARC
  5
28DF
  8
0
 10
44.0017379227999186
 20
117.4759843098609053
 30
0.0
 40
4.0017379284748786
 50
166.0207407070849968
 51
179.9969486347231111
  0
LINE
  5
28E0
  8
0
 10
60.0
 20
100.3999999999995936
 30
0.0
 11
60.0
 21
112.8999999999995936
 31
0.0
  0
LINE
  5
28E1
  8
0
 10
40.0
 20
112.8999999999995936
 30
0.0
 11
40.0
 21
100.3999999999995936
 31
0.0
  0
LINE
  5
28E2
  8
0
 10
60.0
 20
115.3999999999995936
 30
0.0
 11
60.0
 21
117.4761974278996064
 31
0.0
  0
LINE
  5
28E3
  8
0
 10
40.0
 20
117.4761974278996064
 30
0.0
 11
40.0
 21
115.3999999999995936
 31
0.0
  0
LINE
  5
28E4
  8
0
 10
40.0
 20
100.3999999999995936
 30
0.0
 11
40.2886751345999912
 21
99.899999999999622
 31
0.0
  0
LINE
  5
28E5
  8
0
 10
59.7113248654000017
 20
99.899999999999622
 30
0.0
 11
60.0
 21
100.3999999999995936
 31
0.0
  0
ARC
  5
28E6
  8
0
 10
82.1997596608960066
 20
123.9999923171858001
 30
0.0
 40
22.999764925734631
 50
169.6794139690236989
 51
193.9824367414560129
  0
ARC
  5
28E7
  8
0
 10
17.7999641694430011
 20
124.0000011453823987
 30
0.0
 40
23.0000350457227896
 50
346.0177081487665873
 51
10.3204411407536494
  0
LINE
  5
28E8
  8
0
 10
59.0
 20
112.8999999999995936
 30
0.0
 11
59.0
 21
115.3999999999995936
 31
0.0
  0
LINE
  5
28E9
  8
0
 10
41.0
 20
115.3999999999995936
 30
0.0
 11
41.0
 21
112.8999999999995936
 31
0.0
  0
ARC
  5
28EA
  8
0
 10
55.9507032273834781
 20
143.600703227383093
 30
0.0
 40
0.4992972678415796
 50
359.9193026338629124
 51
90.08069736613038
  0
ARC
  5
28EB
  8
0
 10
44.0498738800653769
 20
143.6001261199342025
 30
0.0
 40
0.4998738959756021
 50
89.9855440740121253
 51
180.0144559259898074
  0
LINE
  5
28EC
  8
0
 10
56.4500000000000384
 20
143.3999999999996078
 30
0.0
 11
56.4500000000000384
 21
143.5999999999995964
 31
0.0
  0
LINE
  5
28ED
  8
0
 10
43.5500000000000114
 20
143.5999999999995964
 30
0.0
 11
43.5500000000000114
 21
143.3999999999996078
 31
0.0
  0
LINE
  5
28F8
  8
0
 10
61.0
 20
139.8999999999996078
 30
0.0
 11
61.0
 21
142.5999999999995964
 31
0.0
  0
LINE
  5
28F9
  8
0
 10
61.0
 20
133.1999999999995907
 30
0.0
 11
61.0
 21
137.8999999999944066
 31
0.0
  0
LINE
  5
28FA
  8
0
 10
39.0
 20
137.8999999999996078
 30
0.0
 11
39.0
 21
133.1999999999995907
 31
0.0
  0
LINE
  5
28FB
  8
0
 10
39.0
 20
142.5999999999995964
 30
0.0
 11
39.0000000000000568
 21
139.8999999999996078
 31
0.0
  0
LINE
  5
290F
  8
0
 10
46.721280737900031
 20
133.1999999999995907
 30
0.0
 11
46.721280737900031
 21
142.5999999999995964
 31
0.0
  0
LINE
  5
2911
  8
0
 10
53.2787192622000205
 20
142.5999999999995964
 30
0.0
 11
53.2787192622000205
 21
133.1999999999995907
 31
0.0
  0
LINE
  5
2913
  8
0
 10
57.4539071087000366
 20
142.5999999999995964
 30
0.0
 11
53.2787192622000205
 21
142.5999999999995964
 31
0.0
  0
LINE
  5
2914
  8
0
 10
46.721280737900031
 20
142.5999999999995964
 30
0.0
 11
42.5460928914000078
 21
142.5999999999995964
 31
0.0
  0
LINE
  5
2916
  8
0
 10
60.2000000000000384
 20
143.3999999999996078
 30
0.0
 11
39.8000000000000114
 21
143.3999999999996078
 31
0.0
  0
LINE
  5
2918
  8
0
 10
46.721280737900031
 20
133.1999999999995907
 30
0.0
 11
42.5460928914000078
 21
133.1999999999995907
 31
0.0
  0
LINE
  5
2919
  8
0
 10
57.4539071087000366
 20
133.1999999999995907
 30
0.0
 11
53.2787192622000205
 21
133.1999999999995907
 31
0.0
  0
LINE
  5
291B
  8
0
 10
57.4539071087000366
 20
133.1999999999995907
 30
0.0
 11
57.4539071087000366
 21
142.5999999999995964
 31
0.0
  0
LINE
  5
291C
  8
0
 10
42.5460928914000078
 20
142.5999999999995964
 30
0.0
 11
42.5460928914000078
 21
133.1999999999995907
 31
0.0
  0
LINE
  5
291D
  8
0
 10
60.0
 20
100.3999999999995936
 30
0.0
 11
40.0
 21
100.3999999999995936
 31
0.0
  0
LINE
  5
291E
  8
0
 10
60.0
 20
112.8999999999995936
 30
0.0
 11
40.0
 21
112.8999999999995936
 31
0.0
  0
LINE
  5
291F
  8
0
 10
60.0
 20
115.3999999999995936
 30
0.0
 11
40.0
 21
115.3999999999995936
 31
0.0
  0
LINE
  5
2920
  8
0
 10
59.7113248654000017
 20
99.899999999999622
 30
0.0
 11
40.2886751345999912
 21
99.899999999999622
 31
0.0
  0
LINE
  5
2921
  8
0
 10
60.7326263708000624
 20
142.5999999999995964
 30
0.0
 11
60.7326263708000624
 21
133.1999999999995907
 31
0.0
  0
LINE
  5
2922
  8
0
 10
39.2673736292000513
 20
133.1999999999995907
 30
0.0
 11
39.2673736292000513
 21
142.5999999999995964
 31
0.0
  0
LINE
  5
2923
  8
0
 10
55.9500000000000526
 20
144.0999999999995964
 30
0.0
 11
44.0500000000000114
 21
144.0999999999995964
 31
0.0
  0
LINE
  5
2936
  8
0
 10
61.0
 20
142.5999999999995964
 30
0.0
 11
60.7326263708000624
 21
142.5999999999995964
 31
0.0
  0
LINE
  5
2937
  8
0
 10
39.2673736292000513
 20
142.5999999999995964
 30
0.0
 11
39.0
 21
142.5999999999995964
 31
0.0
  0
LINE
  5
2938
  8
0
 10
60.0049324024000086
 20
129.3359448711995867
 30
0.0
 11
39.9950675977000287
 21
129.3359448711995867
 31
0.0
  0
LINE
  5
2939
  8
0
 10
39.2673736292000513
 20
133.1999999999995907
 30
0.0
 11
39.0
 21
133.1999999999995907
 31
0.0
  0
LINE
  5
293A
  8
0
 10
61.0
 20
133.1999999999995907
 30
0.0
 11
60.7326263708000624
 21
133.1999999999995907
 31
0.0
  0
LINE
  5
293B
  8
0
 10
59.5721140990000322
 20
128.1205314765996093
 30
0.0
 11
40.4278859011000122
 21
128.1205314765996093
 31
0.0
  0
LINE
  5
293C
  8
0
 10
60.0
 20
117.4761974278996064
 30
0.0
 11
40.0
 21
117.4761974278996064
 31
0.0
  0
LINE
  5
293D
  8
0
 10
59.8814814815000318
 20
118.4426866978996031
 30
0.0
 11
40.1185185186000126
 21
118.4426866978996031
 31
0.0
  0
ARC
  5
2957
  8
0
 10
51.0999999999999304
 20
220.6500027492116942
 30
0.0
 40
2.6457513110645912
 50
1.082852917500825
 51
178.9171470824992127
  0
ARC
  5
295F
  8
0
 10
49.9999999999999574
 20
219.7000027492117056
 30
0.0
 40
6.4500000000000091
 50
8.9190441940425131
 51
171.0809558059575011
  0
ARC
  5
2960
  8
0
 10
49.9999999999999574
 20
219.7000027492117056
 30
0.0
 40
6.4500000000000064
 50
188.4697264838995068
 51
351.0809558059606275
  0
ARC
  5
2965
  8
0
 10
49.8476185125463402
 20
219.4360702708015936
 30
0.0
 40
11.29755260017461
 50
47.6801509953130207
 51
72.3198490046913349
  0
ARC
  5
2967
  8
0
 10
49.9594212400963471
 20
219.7009935121265869
 30
0.0
 40
11.0398123857902508
 50
347.3825769457100137
 51
354.79778995003619
  0
ARC
  5
2969
  8
0
 10
49.9668265488102321
 20
219.757460852136802
 30
0.0
 40
11.0647437810211802
 50
287.4167306283001722
 51
312.5832693716989752
  0
ARC
  5
296B
  8
0
 10
50.0582243304148307
 20
219.8008502477294996
 30
0.0
 40
11.1136474762674808
 50
227.4730027233784142
 51
252.5269972766222963
  0
ARC
  5
2970
  8
0
 10
50.0937977238644621
 20
219.53754032581449
 30
0.0
 40
11.18311118388878
 50
107.5520658880532068
 51
132.4479341117593094
  0
ARC
  5
2977
  8
0
 10
49.9999999999999574
 20
219.7000027492117056
 30
0.0
 40
7.5500000000000052
 50
7.6112106176016221
 51
172.3887893823983859
  0
ARC
  5
2978
  8
0
 10
49.9999999999999574
 20
219.7000027492117056
 30
0.0
 40
7.5500000000000016
 50
187.2285635296994997
 51
352.3887893824012281
  0
LINE
  5
2999
  8
0
 10
115.9998868313775944
 20
168.1999999999995907
 30
0.0
 11
115.999886831385993
 21
138.900007913568686
 31
0.0
  0
LINE
  5
299A
  8
0
 10
117.9998868313009979
 20
138.9000079135770989
 30
0.0
 11
117.9998868313915068
 21
168.1999999999995907
 31
0.0
  0
ARC
  5
299D
  8
0
 10
116.9999999999992042
 20
168.1999999999995907
 30
0.0
 40
1.0000027492144641
 50
359.8656490015445115
 51
180.1343509997327885
  0
ARC
  5
29A0
  8
0
 10
127.2000126925503025
 20
142.6000652929940031
 30
0.0
 40
0.7999347071062188
 50
67.9976050201010764
 51
90.0009091112152362
  0
ARC
  5
29A1
  8
0
 10
106.7961701515866935
 20
142.6200846021733071
 30
0.0
 40
0.7799248012855049
 50
89.7186444268368746
 51
112.3174927859356984
  0
ARC
  5
29A2
  8
0
 10
120.2292039246303972
 20
133.0894038272865885
 30
0.0
 40
7.745898949645535
 50
331.0154534727964801
 51
339.8283806634443067
  0
ARC
  5
29A3
  8
0
 10
113.8734051627098012
 20
133.1363322111238006
 30
0.0
 40
7.8584013381663764
 50
200.2348041528651095
 51
208.9213257574606928
  0
ARC
  5
29A4
  8
0
 10
130.5084536297989075
 20
127.4035416037852002
 30
0.0
 40
4.0011052697292309
 50
151.1206147133794104
 51
169.6769536876869893
  0
ARC
  5
29A5
  8
0
 10
103.4913694365448009
 20
127.4034785963139029
 30
0.0
 40
4.0012906302899749
 50
10.3234799218407396
 51
28.8789516771016608
  0
LINE
  5
29A6
  8
0
 10
106.9999999999991047
 20
100.3999999999995936
 30
0.0
 11
107.288675134599103
 21
99.899999999999622
 31
0.0
  0
LINE
  5
29A7
  8
0
 10
126.7113248653991064
 20
99.899999999999622
 30
0.0
 11
126.9999999999991047
 21
100.3999999999995936
 31
0.0
  0
ARC
  5
29A8
  8
0
 10
123.0188631075184986
 20
117.4785105706868933
 30
0.0
 40
3.981137564478177
 50
359.9667096842460978
 51
14.0156009622584907
  0
ARC
  5
29A9
  8
0
 10
111.0004172519795986
 20
117.4761462613095944
 30
0.0
 40
4.0004172523078143
 50
166.0184221844662886
 51
179.9992671690293946
  0
LINE
  5
29AA
  8
0
 10
126.9999999999991047
 20
100.3999999999995936
 30
0.0
 11
126.9999999999991047
 21
112.8999999999995936
 31
0.0
  0
LINE
  5
29AB
  8
0
 10
106.9999999999991047
 20
112.8999999999995936
 30
0.0
 11
106.9999999999991047
 21
100.3999999999995936
 31
0.0
  0
LINE
  5
29AC
  8
0
 10
126.9999999999991047
 20
115.3999999999995936
 30
0.0
 11
126.9999999999991047
 21
117.4761974278996064
 31
0.0
  0
LINE
  5
29AD
  8
0
 10
106.9999999999991047
 20
117.4761974278996064
 30
0.0
 11
106.9999999999991047
 21
115.3999999999995936
 31
0.0
  0
ARC
  5
29AE
  8
0
 10
149.2000250001202062
 20
124.0000007991674948
 30
0.0
 40
23.0000244524377813
 50
169.6795531771579988
 51
193.9822975333210877
  0
ARC
  5
29AF
  8
0
 10
84.7999553972352942
 20
124.0000014257966967
 30
0.0
 40
23.0000436256703082
 50
346.0177127509247725
 51
10.3204365385937002
  0
LINE
  5
29B0
  8
0
 10
125.9999999999991047
 20
112.8999999999995936
 30
0.0
 11
125.9999999999991047
 21
115.3999999999995936
 31
0.0
  0
LINE
  5
29B1
  8
0
 10
107.9999999999991047
 20
115.3999999999995936
 30
0.0
 11
107.9999999999991047
 21
112.8999999999995936
 31
0.0
  0
ARC
  5
29B3
  8
0
 10
122.9559155691108998
 20
143.6059155691114029
 30
0.0
 40
0.4941198425525034
 50
359.3140424420569161
 51
90.6859575579343442
  0
ARC
  5
29B4
  8
0
 10
111.0351022572257023
 20
143.6148977427729108
 30
0.0
 40
0.4853309620312647
 50
88.2409696562823882
 51
181.7590303437152954
  0
LINE
  5
29B5
  8
0
 10
123.449999999999207
 20
143.3999999999996078
 30
0.0
 11
123.449999999999207
 21
143.5999999999995964
 31
0.0
  0
LINE
  5
29B6
  8
0
 10
110.5499999999991019
 20
143.5999999999995964
 30
0.0
 11
110.5499999999991019
 21
143.3999999999996078
 31
0.0
  0
ARC
  5
29C2
  8
0
 10
116.9998868313435025
 20
138.8991947632243864
 30
0.0
 40
1.0000003305641161
 50
179.9534099274262076
 51
0.0465900730525031
  0
LINE
  5
29C3
  8
0
 10
119.4105458270989999
 20
133.1999999999995907
 30
0.0
 11
114.5894541728989964
 21
133.1999999999995907
 31
0.0
  0
LINE
  5
29C4
  8
0
 10
114.5894541728989964
 20
142.5999999999995964
 30
0.0
 11
114.5894541728989964
 21
133.1999999999995907
 31
0.0
  0
LINE
  5
29C5
  8
0
 10
119.4105458270989999
 20
133.1999999999995907
 30
0.0
 11
119.4105458270989999
 21
142.5999999999995964
 31
0.0
  0
LINE
  5
29C7
  8
0
 10
127.4999999999991047
 20
142.5999999999995964
 30
0.0
 11
125.0894541728989964
 21
142.5999999999995964
 31
0.0
  0
LINE
  5
29CA
  8
0
 10
108.9105458270990994
 20
142.5999999999995964
 30
0.0
 11
106.4999999999991047
 21
142.5999999999995964
 31
0.0
  0
LINE
  5
29CC
  8
0
 10
127.199999999999207
 20
143.3999999999996078
 30
0.0
 11
118.6422613286991066
 21
143.3999999999996078
 31
0.0
  0
LINE
  5
29CD
  8
0
 10
116.6226061835992027
 20
143.3999999999996078
 30
0.0
 11
106.8000000201991071
 21
143.3999999999996078
 31
0.0
  0
LINE
  5
29CE
  8
0
 10
127.4999999999991047
 20
133.1999999999995907
 30
0.0
 11
125.0894541728989964
 21
133.1999999999995907
 31
0.0
  0
LINE
  5
29D1
  8
0
 10
108.9105458270990994
 20
133.1999999999995907
 30
0.0
 11
106.4999999999991047
 21
133.1999999999995907
 31
0.0
  0
LINE
  5
29D4
  8
0
 10
108.9105458270990994
 20
133.1999999999995907
 30
0.0
 11
108.9105458270990994
 21
142.5999999999995964
 31
0.0
  0
LINE
  5
29D5
  8
0
 10
125.0894541728989964
 20
142.5999999999995964
 30
0.0
 11
125.0894541728989964
 21
133.1999999999995907
 31
0.0
  0
LINE
  5
29D6
  8
0
 10
126.7113248653991064
 20
99.899999999999622
 30
0.0
 11
107.288675134599103
 21
99.899999999999622
 31
0.0
  0
LINE
  5
29D7
  8
0
 10
126.9999999999991047
 20
100.3999999999995936
 30
0.0
 11
106.9999999999991047
 21
100.3999999999995936
 31
0.0
  0
LINE
  5
29D8
  8
0
 10
126.9999999999991047
 20
112.8999999999995936
 30
0.0
 11
106.9999999999991047
 21
112.8999999999995936
 31
0.0
  0
LINE
  5
29D9
  8
0
 10
126.9999999999991047
 20
115.3999999999995936
 30
0.0
 11
106.9999999999991047
 21
115.3999999999995936
 31
0.0
  0
LINE
  5
29DD
  8
0
 10
106.4999999999991047
 20
142.5999999999995964
 30
0.0
 11
106.4999999999991047
 21
130.4183609275733886
 31
0.0
  0
LINE
  5
29DE
  8
0
 10
127.4999999999991047
 20
130.4183600297189116
 30
0.0
 11
127.4999999999991047
 21
142.5999999999995964
 31
0.0
  0
LINE
  5
29DF
  8
0
 10
122.949999999999207
 20
144.0999999999995964
 30
0.0
 11
118.7406399129991001
 21
144.0999999999995964
 31
0.0
  0
LINE
  5
29E0
  8
0
 10
116.7209847678991963
 20
144.0999999999995964
 30
0.0
 11
111.0499999999991019
 21
144.0999999999995964
 31
0.0
  0
LINE
  5
29EB
  8
0
 10
119.4105458270989999
 20
142.5999999999995964
 30
0.0
 11
118.5298286608990992
 21
142.5999999999995964
 31
0.0
  0
LINE
  5
29EC
  8
0
 10
116.5101735158991971
 20
142.5999999999995964
 30
0.0
 11
114.5894541728989964
 21
142.5999999999995964
 31
0.0
  0
LINE
  5
29ED
  8
0
 10
127.0049324022991044
 20
129.3359448711995867
 30
0.0
 11
106.9950675976990055
 21
129.3359448711995867
 31
0.0
  0
LINE
  5
29EE
  8
0
 10
126.5721140989989948
 20
128.1205314765996093
 30
0.0
 11
107.427885900999101
 21
128.1205314765996093
 31
0.0
  0
LINE
  5
29EF
  8
0
 10
126.9999999999991047
 20
117.4761974278996064
 30
0.0
 11
106.9999999999991047
 21
117.4761974278996064
 31
0.0
  0
LINE
  5
29F0
  8
0
 10
126.8814814814991934
 20
118.4426866978996031
 30
0.0
 11
107.1185185184990019
 21
118.4426866978996031
 31
0.0
  0
POLYLINE
  5
4687
  8
0
 66
     1
 10
0.0
 20
0.0
 30
0.0
  0
VERTEX
  5
59C5
  8
0
 10
125.0894541728989964
 20
133.1999999999995907
 30
0.0
  0
VERTEX
  5
59C6
  8
0
 10
125.0729763672768939
 20
132.9029721914365894
 30
0.0
  0
VERTEX
  5
59C7
  8
0
 10
125.0238128246156037
 20
132.6108624105526133
 30
0.0
  0
VERTEX
  5
59C8
  8
0
 10
124.9436465229971986
 20
132.3281313507611117
 30
0.0
  0
VERTEX
  5
59C9
  8
0
 10
124.835510698777199
 20
132.0580719889252066
 30
0.0
  0
VERTEX
  5
59CA
  8
0
 10
124.7024134279484002
 20
131.8026125623783003
 30
0.0
  0
VERTEX
  5
59CB
  8
0
 10
124.5465252202317004
 20
131.5644510285708861
 30
0.0
  0
VERTEX
  5
59CC
  8
0
 10
124.3700305018952008
 20
131.3463619446704911
 30
0.0
  0
VERTEX
  5
59CD
  8
0
 10
124.175488383591599
 20
131.1497366801845033
 30
0.0
  0
VERTEX
  5
59CE
  8
0
 10
123.9654940232621954
 20
130.9756389619720949
 30
0.0
  0
VERTEX
  5
59CF
  8
0
 10
123.7424235214640049
 20
130.8251679611396128
 30
0.0
  0
VERTEX
  5
59D0
  8
0
 10
123.5085873510931975
 20
130.6990522969367987
 30
0.0
  0
VERTEX
  5
59D1
  8
0
 10
123.2662555567007985
 20
130.5966536834330043
 30
0.0
  0
VERTEX
  5
59D2
  8
0
 10
123.0175815442888023
 20
130.5172258241678946
 30
0.0
  0
VERTEX
  5
59D3
  8
0
 10
122.7643096123768061
 20
130.4607823448569945
 30
0.0
  0
VERTEX
  5
59D4
  8
0
 10
122.5080308979868988
 20
130.4273235035938967
 30
0.0
  0
VERTEX
  5
59D5
  8
0
 10
122.2501266721306052
 20
130.4161208859908072
 30
0.0
  0
VERTEX
  5
59D6
  8
0
 10
121.991987254781705
 20
130.4265851194184904
 30
0.0
  0
VERTEX
  5
59D7
  8
0
 10
121.7352420455079027
 20
130.4593982828835124
 30
0.0
  0
VERTEX
  5
59D8
  8
0
 10
121.4815668652282028
 20
130.5153943503329117
 30
0.0
  0
VERTEX
  5
59D9
  8
0
 10
121.232572190826204
 20
130.5946420101724925
 30
0.0
  0
VERTEX
  5
59DA
  8
0
 10
120.990014078889601
 20
130.6971559253246085
 30
0.0
  0
VERTEX
  5
59DB
  8
0
 10
120.7563433964365061
 20
130.8236149246170896
 30
0.0
  0
VERTEX
  5
59DC
  8
0
 10
120.5340816831581066
 20
130.9745526073160988
 30
0.0
  0
VERTEX
  5
59DD
  8
0
 10
120.3252577188306986
 20
131.1491102908420032
 30
0.0
  0
VERTEX
  5
59DE
  8
0
 10
120.1318835872784945
 20
131.3460765970446005
 30
0.0
  0
VERTEX
  5
59DF
  8
0
 10
119.9564248961114998
 20
131.5643335061193966
 30
0.0
  0
VERTEX
  5
59E0
  8
0
 10
119.8012719243693027
 20
131.8024778548173117
 30
0.0
  0
VERTEX
  5
59E1
  8
0
 10
119.6680756671655956
 20
132.0578799970870136
 30
0.0
  0
VERTEX
  5
59E2
  8
0
 10
119.5588867101499062
 20
132.3278891505447916
 30
0.0
  0
VERTEX
  5
59E3
  8
0
 10
119.4774426761432977
 20
132.6106304325977021
 30
0.0
  0
VERTEX
  5
59E4
  8
0
 10
119.4272790547168057
 20
132.9028299497240937
 30
0.0
  0
VERTEX
  5
59E5
  8
0
 10
119.4105458270989999
 20
133.1999999999995907
 30
0.0
  0
SEQEND
  5
59E6
  8
0
  0
POLYLINE
  5
4688
  8
0
 66
     1
 10
0.0
 20
0.0
 30
0.0
  0
VERTEX
  5
59E7
  8
0
 10
114.5894541728989964
 20
133.1999999999995907
 30
0.0
  0
VERTEX
  5
59E8
  8
0
 10
114.5727995846953036
 20
132.9029721914365894
 30
0.0
  0
VERTEX
  5
59E9
  8
0
 10
114.5230116734175994
 20
132.6108624105526985
 30
0.0
  0
VERTEX
  5
59EA
  8
0
 10
114.4419449577161032
 20
132.3281313507611969
 30
0.0
  0
VERTEX
  5
59EB
  8
0
 10
114.3331565253943012
 20
132.0580719889252066
 30
0.0
  0
VERTEX
  5
59EC
  8
0
 10
114.2001636703278962
 20
131.8026125623779023
 30
0.0
  0
VERTEX
  5
59ED
  8
0
 10
114.0449028239283962
 20
131.564451028570403
 30
0.0
  0
VERTEX
  5
59EE
  8
0
 10
113.8691985533914988
 20
131.3463619446700932
 30
0.0
  0
VERTEX
  5
59EF
  8
0
 10
113.6754902017203932
 20
131.1497366801845033
 30
0.0
  0
VERTEX
  5
59F0
  8
0
 10
113.4662703848032947
 20
130.9756389619730896
 30
0.0
  0
VERTEX
  5
59F1
  8
0
 10
113.2436489592922015
 20
130.8251679611410907
 30
0.0
  0
VERTEX
  5
59F2
  8
0
 10
113.009754420037595
 20
130.6990522969377935
 30
0.0
  0
VERTEX
  5
59F3
  8
0
 10
112.7671249667929061
 20
130.5966536834330043
 30
0.0
  0
VERTEX
  5
59F4
  8
0
 10
112.5181978654627954
 20
130.5172258241670136
 30
0.0
  0
VERTEX
  5
59F5
  8
0
 10
112.2646754556202069
 20
130.4607823448558861
 30
0.0
  0
VERTEX
  5
59F6
  8
0
 10
112.0081073123464961
 20
130.4273235035931009
 30
0.0
  0
VERTEX
  5
59F7
  8
0
 10
111.7501255343085944
 20
130.4161208859906935
 30
0.0
  0
VERTEX
  5
59F8
  8
0
 10
111.4923291865224968
 20
130.4265851194190873
 30
0.0
  0
VERTEX
  5
59F9
  8
0
 10
111.2361024484314953
 20
130.4593982828843934
 30
0.0
  0
VERTEX
  5
59FA
  8
0
 10
110.9828290495820937
 20
130.5153943503335938
 30
0.0
  0
VERTEX
  5
59FB
  8
0
 10
110.7341329997514947
 20
130.5946420101726062
 30
0.0
  0
VERTEX
  5
59FC
  8
0
 10
110.4917994147403988
 20
130.6971559253240116
 30
0.0
  0
VERTEX
  5
59FD
  8
0
 10
110.2580172789714936
 20
130.8236149246160949
 30
0.0
  0
VERTEX
  5
59FE
  8
0
 10
110.0350774846445034
 20
130.974552607315502
 30
0.0
  0
VERTEX
  5
59FF
  8
0
 10
109.8252478571717035
 20
131.1491102908418895
 30
0.0
  0
VERTEX
  5
5A00
  8
0
 10
109.6308561059744022
 20
131.3460765970444015
 30
0.0
  0
VERTEX
  5
5A01
  8
0
 10
109.4544870772471938
 20
131.5643335061189134
 30
0.0
  0
VERTEX
  5
5A02
  8
0
 10
109.2986618978638944
 20
131.8024778548166864
 30
0.0
  0
VERTEX
  5
5A03
  8
0
 10
109.165398831997507
 20
132.057879997086701
 30
0.0
  0
VERTEX
  5
5A04
  8
0
 10
109.0569643752290006
 20
132.3278891505449906
 30
0.0
  0
VERTEX
  5
5A05
  8
0
 10
108.9765261826886018
 20
132.6106304325977874
 30
0.0
  0
VERTEX
  5
5A06
  8
0
 10
108.927070135405998
 20
132.9028299497240937
 30
0.0
  0
VERTEX
  5
5A07
  8
0
 10
108.9105458270990994
 20
133.1999999999995907
 30
0.0
  0
SEQEND
  5
5A08
  8
0
  0
POLYLINE
  5
468B
  8
0
 66
     1
 10
0.0
 20
0.0
 30
0.0
  0
VERTEX
  5
5A09
  8
0
 10
106.5000025880739969
 20
143.3415882196161988
 30
0.0
  0
VERTEX
  5
5A0A
  8
0
 10
106.5002895184062055
 20
143.3396704002747981
 30
0.0
  0
VERTEX
  5
5A0B
  8
0
 10
106.5005312170258946
 20
143.3359376895959088
 30
0.0
  0
VERTEX
  5
5A0C
  8
0
 10
106.5006796484839953
 20
143.3286801850609891
 30
0.0
  0
VERTEX
  5
5A0D
  8
0
 10
106.5006636307963959
 20
143.3170547302310922
 30
0.0
  0
VERTEX
  5
5A0E
  8
0
 10
106.5004156234659973
 20
143.3006027890498046
 30
0.0
  0
VERTEX
  5
5A0F
  8
0
 10
106.5000901239095015
 20
143.2782418117091936
 30
0.0
  0
VERTEX
  5
5A10
  8
0
 10
106.499988206370702
 20
143.2483729471680931
 30
0.0
  0
VERTEX
  5
5A11
  8
0
 10
106.4999182746828978
 20
143.208539563616597
 30
0.0
  0
VERTEX
  5
5A12
  8
0
 10
106.4997852788853976
 20
143.1552858157550929
 30
0.0
  0
VERTEX
  5
5A13
  8
0
 10
106.5001480160367038
 20
143.0837964966235916
 30
0.0
  0
VERTEX
  5
5A14
  8
0
 10
106.5001814816565968
 20
142.9837453465563044
 30
0.0
  0
VERTEX
  5
5A15
  8
0
 10
106.4999454859296009
 20
142.8346878533708946
 30
0.0
  0
VERTEX
  5
5A16
  8
0
 10
106.4999999999991047
 20
142.5999999999995964
 30
0.0
  0
SEQEND
  5
5A17
  8
0
  0
POLYLINE
  5
468C
  8
0
 66
     1
 10
0.0
 20
0.0
 30
0.0
  0
VERTEX
  5
5A18
  8
0
 10
108.9105458270989999
 20
142.6000000000389889
 30
0.0
  0
VERTEX
  5
5A19
  8
0
 10
108.9158189521376983
 20
142.6545363542213067
 30
0.0
  0
VERTEX
  5
5A1A
  8
0
 10
108.922377176522005
 20
142.6809772442724125
 30
0.0
  0
VERTEX
  5
5A1B
  8
0
 10
108.9312137372840965
 20
142.7065265692957894
 30
0.0
  0
VERTEX
  5
5A1C
  8
0
 10
108.9544219664291944
 20
142.754434959960804
 30
0.0
  0
VERTEX
  5
5A1D
  8
0
 10
108.9835277454186979
 20
142.7978748925332013
 30
0.0
  0
VERTEX
  5
5A1E
  8
0
 10
109.0167901331547
 20
142.837118230662611
 30
0.0
  0
VERTEX
  5
5A1F
  8
0
 10
109.0530441442474938
 20
142.8726622501988004
 30
0.0
  0
VERTEX
  5
5A20
  8
0
 10
109.0914830868090064
 20
142.9050144913547058
 30
0.0
  0
VERTEX
  5
5A21
  8
0
 10
109.1315625848323947
 20
142.9346273349723049
 30
0.0
  0
VERTEX
  5
5A22
  8
0
 10
109.2152774597876004
 20
142.9870268436515062
 30
0.0
  0
VERTEX
  5
5A23
  8
0
 10
109.3023432212792017
 20
143.0317183783944017
 30
0.0
  0
VERTEX
  5
5A24
  8
0
 10
109.3914580017339944
 20
143.0701469316115038
 30
0.0
  0
VERTEX
  5
5A25
  8
0
 10
109.4820324162951977
 20
143.1035433308501013
 30
0.0
  0
VERTEX
  5
5A26
  8
0
 10
109.5736536685010947
 20
143.1329910490970008
 30
0.0
  0
VERTEX
  5
5A27
  8
0
 10
109.6660886948885008
 20
143.1590491546812132
 30
0.0
  0
VERTEX
  5
5A28
  8
0
 10
109.7591603712842954
 20
143.1821135025838032
 30
0.0
  0
VERTEX
  5
5A29
  8
0
 10
109.852691666276101
 20
143.2025797993354104
 30
0.0
  0
VERTEX
  5
5A2A
  8
0
 10
110.040650657132403
 20
143.2370111078774926
 30
0.0
  0
VERTEX
  5
5A2B
  8
0
 10
110.2294996989305957
 20
143.2642877424071912
 30
0.0
  0
VERTEX
  5
5A2C
  8
0
 10
110.4189417258231032
 20
143.2860086754351983
 30
0.0
  0
VERTEX
  5
5A2D
  8
0
 10
110.6087856621397947
 20
143.3030689843311904
 30
0.0
  0
VERTEX
  5
5A2E
  8
0
 10
110.7988696544475999
 20
143.3161696776271015
 30
0.0
  0
VERTEX
  5
5A2F
  8
0
 10
110.989031866546398
 20
143.3260117220650898
 30
0.0
  0
VERTEX
  5
5A30
  8
0
 10
111.3692577372114982
 20
143.3380370950310976
 30
0.0
  0
VERTEX
  5
5A31
  8
0
 10
111.7496019125208022
 20
143.3416198377769035
 30
0.0
  0
VERTEX
  5
5A32
  8
0
 10
112.1302931739380995
 20
143.3380576813904099
 30
0.0
  0
VERTEX
  5
5A33
  8
0
 10
112.5109089342201969
 20
143.3260558273161109
 30
0.0
  0
VERTEX
  5
5A34
  8
0
 10
112.7010061066452948
 20
143.3162248287243017
 30
0.0
  0
VERTEX
  5
5A35
  8
0
 10
112.8908772330305936
 20
143.3031415690201129
 30
0.0
  0
VERTEX
  5
5A36
  8
0
 10
113.0804643204980948
 20
143.2860999425267039
 30
0.0
  0
VERTEX
  5
5A37
  8
0
 10
113.2697093803015065
 20
143.2643937221112935
 30
0.0
  0
VERTEX
  5
5A38
  8
0
 10
113.4584916313258987
 20
143.2371421743326039
 30
0.0
  0
VERTEX
  5
5A39
  8
0
 10
113.646432155870599
 20
143.2027471782020882
 30
0.0
  0
VERTEX
  5
5A3A
  8
0
 10
113.7399409978730063
 20
143.1823005015658907
 30
0.0
  0
VERTEX
  5
5A3B
  8
0
 10
113.833003782296899
 20
143.1592611637618973
 30
0.0
  0
VERTEX
  5
5A3C
  8
0
 10
113.9254752771960995
 20
143.1332258196667055
 30
0.0
  0
VERTEX
  5
5A3D
  8
0
 10
114.0172100503176011
 20
143.1037907204413955
 30
0.0
  0
VERTEX
  5
5A3E
  8
0
 10
114.1079767597712049
 20
143.0704223432130959
 30
0.0
  0
VERTEX
  5
5A3F
  8
0
 10
114.1971900884500997
 20
143.032052454524603
 30
0.0
  0
VERTEX
  5
5A40
  8
0
 10
114.284126769001503
 20
142.9874385837038915
 30
0.0
  0
VERTEX
  5
5A41
  8
0
 10
114.3677658630574996
 20
142.9351058276554056
 30
0.0
  0
VERTEX
  5
5A42
  8
0
 10
114.4079237803440066
 20
142.9055160828442013
 30
0.0
  0
VERTEX
  5
5A43
  8
0
 10
114.4464091246838962
 20
142.8731703949071061
 30
0.0
  0
VERTEX
  5
5A44
  8
0
 10
114.4826513157225065
 20
142.8376297965135961
 30
0.0
  0
VERTEX
  5
5A45
  8
0
 10
114.515976869728803
 20
142.7983884681260918
 30
0.0
  0
VERTEX
  5
5A46
  8
0
 10
114.5455699015612936
 20
142.754884986365596
 30
0.0
  0
VERTEX
  5
5A47
  8
0
 10
114.5691113529822047
 20
142.7068976715794975
 30
0.0
  0
VERTEX
  5
5A48
  8
0
 10
114.5773139774243958
 20
142.6812860649768027
 30
0.0
  0
VERTEX
  5
5A49
  8
0
 10
114.5828814618036944
 20
142.6547279969211957
 30
0.0
  0
VERTEX
  5
5A4A
  8
0
 10
114.5894541728991953
 20
142.6000000000389889
 30
0.0
  0
SEQEND
  5
5A4B
  8
0
  0
POLYLINE
  5
468D
  8
0
 66
     1
 10
0.0
 20
0.0
 30
0.0
  0
VERTEX
  5
5A4C
  8
0
 10
119.4105458270988009
 20
142.6000000000389889
 30
0.0
  0
VERTEX
  5
5A4D
  8
0
 10
119.4157954677928046
 20
142.654536354221392
 30
0.0
  0
VERTEX
  5
5A4E
  8
0
 10
119.4223352523354009
 20
142.6809772442728104
 30
0.0
  0
VERTEX
  5
5A4F
  8
0
 10
119.4311570787152021
 20
142.7065265692964999
 30
0.0
  0
VERTEX
  5
5A50
  8
0
 10
119.4543580287579942
 20
142.7544349599621967
 30
0.0
  0
VERTEX
  5
5A51
  8
0
 10
119.4834843050580986
 20
142.7978748925351908
 30
0.0
  0
VERTEX
  5
5A52
  8
0
 10
119.5167822472236026
 20
142.8371182306646006
 30
0.0
  0
VERTEX
  5
5A53
  8
0
 10
119.5530686427702989
 20
142.8726622502003067
 30
0.0
  0
VERTEX
  5
5A54
  8
0
 10
119.5915176906997033
 20
142.90501449135499
 30
0.0
  0
VERTEX
  5
5A55
  8
0
 10
119.6315688974217011
 20
142.9346273349711112
 30
0.0
  0
VERTEX
  5
5A56
  8
0
 10
119.7151244058232038
 20
142.9870268436486072
 30
0.0
  0
VERTEX
  5
5A57
  8
0
 10
119.8020751166139064
 20
143.0317183783915027
 30
0.0
  0
VERTEX
  5
5A58
  8
0
 10
119.8912768726495983
 20
143.0701469316097985
 30
0.0
  0
VERTEX
  5
5A59
  8
0
 10
119.9820213779556042
 20
143.1035433308493907
 30
0.0
  0
VERTEX
  5
5A5A
  8
0
 10
120.0737495204325995
 20
143.1329910490960913
 30
0.0
  0
VERTEX
  5
5A5B
  8
0
 10
120.1662174984794973
 20
143.1590491546789963
 30
0.0
  0
VERTEX
  5
5A5C
  8
0
 10
120.2592796463177933
 20
143.1821135025801084
 30
0.0
  0
VERTEX
  5
5A5D
  8
0
 10
120.3527903800443966
 20
143.202579799331005
 30
0.0
  0
VERTEX
  5
5A5E
  8
0
 10
120.5407273468140943
 20
143.2370111078743093
 30
0.0
  0
VERTEX
  5
5A5F
  8
0
 10
120.7295041136786011
 20
143.2642877424067933
 30
0.0
  0
VERTEX
  5
5A60
  8
0
 10
120.9187495217123001
 20
143.2860086754367899
 30
0.0
  0
VERTEX
  5
5A61
  8
0
 10
121.1083372523609967
 20
143.3030689843336916
 30
0.0
  0
VERTEX
  5
5A62
  8
0
 10
121.2982084912813008
 20
143.3161696776296878
 30
0.0
  0
VERTEX
  5
5A63
  8
0
 10
121.4883044251896962
 20
143.3260117220673919
 30
0.0
  0
VERTEX
  5
5A64
  8
0
 10
121.8689143787757985
 20
143.338037095032206
 30
0.0
  0
VERTEX
  5
5A65
  8
0
 10
122.2496019462607961
 20
143.3416198377769035
 30
0.0
  0
VERTEX
  5
5A66
  8
0
 10
122.6299433707657016
 20
143.3380576813902962
 30
0.0
  0
VERTEX
  5
5A67
  8
0
 10
123.0101618684596048
 20
143.3260558273165088
 30
0.0
  0
VERTEX
  5
5A68
  8
0
 10
123.200322095897306
 20
143.3162248287250122
 30
0.0
  0
VERTEX
  5
5A69
  8
0
 10
123.3904093346714035
 20
143.303141569020795
 30
0.0
  0
VERTEX
  5
5A6A
  8
0
 10
123.5802594181214005
 20
143.2860999425271871
 30
0.0
  0
VERTEX
  5
5A6B
  8
0
 10
123.769708123556299
 20
143.2643937221114925
 30
0.0
  0
VERTEX
  5
5A6C
  8
0
 10
123.958563834040504
 20
143.2371421743324902
 30
0.0
  0
VERTEX
  5
5A6D
  8
0
 10
124.1465223161364975
 20
143.202747178201605
 30
0.0
  0
VERTEX
  5
5A6E
  8
0
 10
124.2400509629662935
 20
143.182300501564896
 30
0.0
  0
VERTEX
  5
5A6F
  8
0
 10
124.3331266888199025
 20
143.1592611637607035
 30
0.0
  0
VERTEX
  5
5A70
  8
0
 10
124.4255725885646058
 20
143.1332258196657961
 30
0.0
  0
VERTEX
  5
5A71
  8
0
 10
124.5172114546076045
 20
143.1037907204419071
 30
0.0
  0
VERTEX
  5
5A72
  8
0
 10
124.6078131573693071
 20
143.0704223432161939
 30
0.0
  0
VERTEX
  5
5A73
  8
0
 10
124.6969295117354051
 20
143.0320524545294916
 30
0.0
  0
VERTEX
  5
5A74
  8
0
 10
124.7839670747605965
 20
142.9874385837080979
 30
0.0
  0
VERTEX
  5
5A75
  8
0
 10
124.8677655950390033
 20
142.935105827656912
 30
0.0
  0
VERTEX
  5
5A76
  8
0
 10
124.9079555043181955
 20
142.9055160828440876
 30
0.0
  0
VERTEX
  5
5A77
  8
0
 10
124.9464368904211966
 20
142.8731703949057135
 30
0.0
  0
VERTEX
  5
5A78
  8
0
 10
124.9826502875837946
 20
142.8376297965114929
 30
0.0
  0
VERTEX
  5
5A79
  8
0
 10
125.015939863322302
 20
142.7983884681239886
 30
0.0
  0
VERTEX
  5
5A7A
  8
0
 10
125.0455133416067071
 20
142.7548849863640896
 30
0.0
  0
VERTEX
  5
5A7B
  8
0
 10
125.069060636302595
 20
142.7068976715787869
 30
0.0
  0
VERTEX
  5
5A7C
  8
0
 10
125.0772727669816931
 20
142.68128606497649
 30
0.0
  0
VERTEX
  5
5A7D
  8
0
 10
125.0828524886315023
 20
142.6547279969211104
 30
0.0
  0
VERTEX
  5
5A7E
  8
0
 10
125.0894541728989964
 20
142.6000000000389889
 30
0.0
  0
SEQEND
  5
5A7F
  8
0
  0
POLYLINE
  5
468E
  8
0
 66
     1
 10
0.0
 20
0.0
 30
0.0
  0
VERTEX
  5
5A80
  8
0
 10
127.4999999999991047
 20
142.5999999999995964
 30
0.0
  0
VERTEX
  5
5A81
  8
0
 10
127.5001469750935001
 20
142.886319916563906
 30
0.0
  0
VERTEX
  5
5A82
  8
0
 10
127.4996326212663007
 20
143.0481837245716008
 30
0.0
  0
VERTEX
  5
5A83
  8
0
 10
127.5002804518986039
 20
143.1494693198382038
 30
0.0
  0
VERTEX
  5
5A84
  8
0
 10
127.5003542183967937
 20
143.2182819095156958
 30
0.0
  0
VERTEX
  5
5A85
  8
0
 10
127.5000044079177002
 20
143.264436258107196
 30
0.0
  0
VERTEX
  5
5A86
  8
0
 10
127.4995364757817953
 20
143.2960748336467987
 30
0.0
  0
VERTEX
  5
5A87
  8
0
 10
127.4992578752179071
 20
143.3178281120729878
 30
0.0
  0
VERTEX
  5
5A88
  8
0
 10
127.4994485804537021
 20
143.3332164823465007
 30
0.0
  0
VERTEX
  5
5A89
  8
0
 10
127.4997045105815943
 20
143.3417393115751111
 30
0.0
  0
SEQEND
  5
5A8A
  8
0
  0
POLYLINE
  5
4699
  8
0
 66
     1
 10
0.0
 20
0.0
 30
0.0
  0
VERTEX
  5
5A8B
  8
0
 10
39.0
 20
139.8999999999996078
 30
0.0
  0
VERTEX
  5
5A8C
  8
0
 10
39.0066463674630768
 20
139.822875007009003
 30
0.0
  0
VERTEX
  5
5A8D
  8
0
 10
39.0227494340850285
 20
139.6071282862615988
 30
0.0
  0
VERTEX
  5
5A8E
  8
0
 10
39.0387646584136974
 20
139.2823590734080028
 30
0.0
  0
VERTEX
  5
5A8F
  8
0
 10
39.0455488635896018
 20
138.9000127664698994
 30
0.0
  0
VERTEX
  5
5A90
  8
0
 10
39.0387756946603872
 20
138.5176392202965872
 30
0.0
  0
VERTEX
  5
5A91
  8
0
 10
39.0227516507122232
 20
138.1929072715583118
 30
0.0
  0
VERTEX
  5
5A92
  8
0
 10
39.0066480984676218
 20
137.9773089903156915
 30
0.0
  0
VERTEX
  5
5A93
  8
0
 10
39.0
 20
137.8999999999996078
 30
0.0
  0
SEQEND
  5
5A94
  8
0
  0
POLYLINE
  5
469A
  8
0
 66
     1
 10
0.0
 20
0.0
 30
0.0
  0
VERTEX
  5
5A95
  8
0
 10
60.9999999999995524
 20
137.8999999999996078
 30
0.0
  0
VERTEX
  5
5A96
  8
0
 10
60.9975827473883214
 20
137.9272954199792878
 30
0.0
  0
VERTEX
  5
5A97
  8
0
 10
60.9933540406148111
 20
137.9772619544717998
 30
0.0
  0
VERTEX
  5
5A98
  8
0
 10
60.986124035247478
 20
138.0672934372155964
 30
0.0
  0
VERTEX
  5
5A99
  8
0
 10
60.9772478037040671
 20
138.1929144284247002
 30
0.0
  0
VERTEX
  5
5A9A
  8
0
 10
60.9685503234013595
 20
138.3450437777142099
 30
0.0
  0
VERTEX
  5
5A9B
  8
0
 10
60.961231412624727
 20
138.5176900813318071
 30
0.0
  0
VERTEX
  5
5A9C
  8
0
 10
60.9544510841571991
 20
138.9000451546783097
 30
0.0
  0
VERTEX
  5
5A9D
  8
0
 10
60.9612243030534771
 20
139.2824211582631904
 30
0.0
  0
VERTEX
  5
5A9E
  8
0
 10
60.9686727580402135
 20
139.456415218894108
 30
0.0
  0
VERTEX
  5
5A9F
  8
0
 10
60.9772482715028374
 20
139.6070991856610135
 30
0.0
  0
VERTEX
  5
5AA0
  8
0
 10
60.9856646303847967
 20
139.7274411320138086
 30
0.0
  0
VERTEX
  5
5AA1
  8
0
 10
60.9933576545514597
 20
139.8227661203449941
 30
0.0
  0
VERTEX
  5
5AA2
  8
0
 10
60.9993059989702715
 20
139.8923761433727861
 30
0.0
  0
VERTEX
  5
5AA3
  8
0
 10
61.0
 20
139.8999999999996078
 30
0.0
  0
SEQEND
  5
5AA4
  8
0
  0
POLYLINE
  5
469D
  8
0
 66
     1
 10
0.0
 20
0.0
 30
0.0
  0
VERTEX
  5
5AA5
  8
0
 10
60.7326263708000624
 20
133.1999999999995907
 30
0.0
  0
VERTEX
  5
5AA6
  8
0
 10
60.7232149708074189
 20
132.9029721914365894
 30
0.0
  0
VERTEX
  5
5AA7
  8
0
 10
60.6951908656060866
 20
132.6108624105526985
 30
0.0
  0
VERTEX
  5
5AA8
  8
0
 10
60.6494266841000425
 20
132.3281313507611969
 30
0.0
  0
VERTEX
  5
5AA9
  8
0
 10
60.5873712203410193
 20
132.0580719889252066
 30
0.0
  0
VERTEX
  5
5AAA
  8
0
 10
60.51046719073139
 20
131.8026125623779023
 30
0.0
  0
VERTEX
  5
5AAB
  8
0
 10
60.420102884817652
 20
131.564451028570403
 30
0.0
  0
VERTEX
  5
5AAC
  8
0
 10
60.3177472464253128
 20
131.3463619446700932
 30
0.0
  0
VERTEX
  5
5AAD
  8
0
 10
60.2049469266638582
 20
131.1497366801845033
 30
0.0
  0
VERTEX
  5
5AAE
  8
0
 10
60.0832594433518281
 20
130.9756389619730896
 30
0.0
  0
VERTEX
  5
5AAF
  8
0
 10
59.9542103547747089
 20
130.8251679611410907
 30
0.0
  0
VERTEX
  5
5AB0
  8
0
 10
59.819238678155898
 20
130.6990522969377935
 30
0.0
  0
VERTEX
  5
5AB1
  8
0
 10
59.6795002048486865
 20
130.5966536834330043
 30
0.0
  0
VERTEX
  5
5AB2
  8
0
 10
59.5360743177972225
 20
130.5172258241670136
 30
0.0
  0
VERTEX
  5
5AB3
  8
0
 10
59.3899923132308416
 20
130.4607823448558861
 30
0.0
  0
VERTEX
  5
5AB4
  8
0
 10
59.2421968303336826
 20
130.4273235035931009
 30
0.0
  0
VERTEX
  5
5AB5
  8
0
 10
59.0933405308838289
 20
130.4161208859906935
 30
0.0
  0
VERTEX
  5
5AB6
  8
0
 10
58.9441055974844517
 20
130.4265851194190873
 30
0.0
  0
VERTEX
  5
5AB7
  8
0
 10
58.7955743423203785
 20
130.4593982828843934
 30
0.0
  0
VERTEX
  5
5AB8
  8
0
 10
58.6488829400821032
 20
130.5153943503335938
 30
0.0
  0
VERTEX
  5
5AB9
  8
0
 10
58.5049533868124101
 20
130.5946420101726062
 30
0.0
  0
VERTEX
  5
5ABA
  8
0
 10
58.3647827649102666
 20
130.6971559253240116
 30
0.0
  0
VERTEX
  5
5ABB
  8
0
 10
58.2299372810958289
 20
130.8236149246160949
 30
0.0
  0
VERTEX
  5
5ABC
  8
0
 10
58.1020059113805516
 20
130.974552607315502
 30
0.0
  0
VERTEX
  5
5ABD
  8
0
 10
57.9820219592509218
 20
131.1491102908418895
 30
0.0
  0
VERTEX
  5
5ABE
  8
0
 10
57.8709648753208512
 20
131.3460765970444015
 30
0.0
  0
VERTEX
  5
5ABF
  8
0
 10
57.7701893363787917
 20
131.5643335061189134
 30
0.0
  0
VERTEX
  5
5AC0
  8
0
 10
57.6809998256405834
 20
131.8024778548166864
 30
0.0
  0
VERTEX
  5
5AC1
  8
0
 10
57.6041375026890705
 20
132.057879997086701
 30
0.0
  0
VERTEX
  5
5AC2
  8
0
 10
57.5406616180436004
 20
132.3278891505449906
 30
0.0
  0
VERTEX
  5
5AC3
  8
0
 10
57.4930591602445134
 20
132.6106304325977874
 30
0.0
  0
VERTEX
  5
5AC4
  8
0
 10
57.4636886617875504
 20
132.9028299497240937
 30
0.0
  0
VERTEX
  5
5AC5
  8
0
 10
57.4539071087000366
 20
133.1999999999995907
 30
0.0
  0
SEQEND
  5
5AC6
  8
0
  0
POLYLINE
  5
469E
  8
0
 66
     1
 10
0.0
 20
0.0
 30
0.0
  0
VERTEX
  5
5AC7
  8
0
 10
42.5460928914000078
 20
133.1999999999995907
 30
0.0
  0
VERTEX
  5
5AC8
  8
0
 10
42.5363752949209015
 20
132.9029721914365894
 30
0.0
  0
VERTEX
  5
5AC9
  8
0
 10
42.5072697515538493
 20
132.6108624105526985
 30
0.0
  0
VERTEX
  5
5ACA
  8
0
 10
42.4599460071078667
 20
132.3281313507611117
 30
0.0
  0
VERTEX
  5
5ACB
  8
0
 10
42.3967601929590501
 20
132.0580719889252066
 30
0.0
  0
VERTEX
  5
5ACC
  8
0
 10
42.3200370167546609
 20
131.8026125623775897
 30
0.0
  0
VERTEX
  5
5ACD
  8
0
 10
42.2307593325166977
 20
131.5644510285698914
 30
0.0
  0
VERTEX
  5
5ACE
  8
0
 10
42.1297727898745435
 20
131.346361944669809
 30
0.0
  0
VERTEX
  5
5ACF
  8
0
 10
42.0184165962824565
 20
131.1497366801845885
 30
0.0
  0
VERTEX
  5
5AD0
  8
0
 10
41.8980706615127403
 20
130.9756389619736012
 30
0.0
  0
VERTEX
  5
5AD1
  8
0
 10
41.7697993958819325
 20
130.8251679611416876
 30
0.0
  0
VERTEX
  5
5AD2
  8
0
 10
41.6347266213905414
 20
130.6990522969383051
 30
0.0
  0
VERTEX
  5
5AD3
  8
0
 10
41.494472587828227
 20
130.5966536834330043
 30
0.0
  0
VERTEX
  5
5AD4
  8
0
 10
41.3506083379118579
 20
130.517225824166502
 30
0.0
  0
VERTEX
  5
5AD5
  8
0
 10
41.2040924928426691
 20
130.460782344855005
 30
0.0
  0
VERTEX
  5
5AD6
  8
0
 10
41.0557957044145994
 20
130.427323503592504
 30
0.0
  0
VERTEX
  5
5AD7
  8
0
 10
40.9068050806449079
 20
130.4161208859906935
 30
0.0
  0
VERTEX
  5
5AD8
  8
0
 10
40.7581643611587765
 20
130.4265851194195989
 30
0.0
  0
VERTEX
  5
5AD9
  8
0
 10
40.6105311244251013
 20
130.459398282885104
 30
0.0
  0
VERTEX
  5
5ADA
  8
0
 10
40.4645356280378223
 20
130.5153943503339065
 30
0.0
  0
VERTEX
  5
5ADB
  8
0
 10
40.3211233076986488
 20
130.5946420101724925
 30
0.0
  0
VERTEX
  5
5ADC
  8
0
 10
40.1813415778398735
 20
130.6971559253240969
 30
0.0
  0
VERTEX
  5
5ADD
  8
0
 10
40.0463030512203204
 20
130.8236149246164075
 30
0.0
  0
VERTEX
  5
5ADE
  8
0
 10
39.9171972106762496
 20
130.9745526073157009
 30
0.0
  0
VERTEX
  5
5ADF
  8
0
 10
39.7954713988832012
 20
131.1491102908418895
 30
0.0
  0
VERTEX
  5
5AE0
  8
0
 10
39.6826517460251011
 20
131.3460765970446005
 30
0.0
  0
VERTEX
  5
5AE1
  8
0
 10
39.58029945617767
 20
131.5643335061193113
 30
0.0
  0
VERTEX
  5
5AE2
  8
0
 10
39.4899456476515027
 20
131.8024778548171128
 30
0.0
  0
VERTEX
  5
5AE3
  8
0
 10
39.4129676087006331
 20
132.0578799970867863
 30
0.0
  0
VERTEX
  5
5AE4
  8
0
 10
39.3507985568164074
 20
132.3278891505449053
 30
0.0
  0
VERTEX
  5
5AE5
  8
0
 10
39.3049382675414378
 20
132.6106304325977021
 30
0.0
  0
VERTEX
  5
5AE6
  8
0
 10
39.2767933234523028
 20
132.9028299497240937
 30
0.0
  0
VERTEX
  5
5AE7
  8
0
 10
39.2673736292000513
 20
133.1999999999995907
 30
0.0
  0
SEQEND
  5
5AE8
  8
0
  0
POLYLINE
  5
469F
  8
0
 66
     1
 10
0.0
 20
0.0
 30
0.0
  0
VERTEX
  5
5AE9
  8
0
 10
39.2673736292000513
 20
142.5999999999995964
 30
0.0
  0
VERTEX
  5
5AEA
  8
0
 10
39.2704316280768424
 20
142.654536354221392
 30
0.0
  0
VERTEX
  5
5AEB
  8
0
 10
39.2793389645711386
 20
142.706526569296301
 30
0.0
  0
VERTEX
  5
5AEC
  8
0
 10
39.2927424445061888
 20
142.7544349599617988
 30
0.0
  0
VERTEX
  5
5AED
  8
0
 10
39.3095348397124624
 20
142.797874892534594
 30
0.0
  0
VERTEX
  5
5AEE
  8
0
 10
39.3287183608663327
 20
142.8371182306640037
 30
0.0
  0
VERTEX
  5
5AEF
  8
0
 10
39.3496309267571291
 20
142.8726622501997952
 30
0.0
  0
VERTEX
  5
5AF0
  8
0
 10
39.3949740692198205
 20
142.9346273349715091
 30
0.0
  0
VERTEX
  5
5AF1
  8
0
 10
39.4433988851334405
 20
142.9870268436503125
 30
0.0
  0
VERTEX
  5
5AF2
  8
0
 10
39.4937327505213034
 20
143.0317183783938901
 30
0.0
  0
VERTEX
  5
5AF3
  8
0
 10
39.5451329776300895
 20
143.0701469316111911
 30
0.0
  0
VERTEX
  5
5AF4
  8
0
 10
39.5973279383208592
 20
143.1035433308495897
 30
0.0
  0
VERTEX
  5
5AF5
  8
0
 10
39.7035121425371926
 20
143.1590491546805879
 30
0.0
  0
VERTEX
  5
5AF6
  8
0
 10
39.8112647906676216
 20
143.2025797993350125
 30
0.0
  0
VERTEX
  5
5AF7
  8
0
 10
39.9197956802470273
 20
143.2370111078772084
 30
0.0
  0
VERTEX
  5
5AF8
  8
0
 10
40.0288694533165881
 20
143.264287742406907
 30
0.0
  0
VERTEX
  5
5AF9
  8
0
 10
40.1383573764884929
 20
143.2860086754348004
 30
0.0
  0
VERTEX
  5
5AFA
  8
0
 10
40.2481117446353096
 20
143.3030689843305083
 30
0.0
  0
VERTEX
  5
5AFB
  8
0
 10
40.4678080920636987
 20
143.3260117220642087
 30
0.0
  0
VERTEX
  5
5AFC
  8
0
 10
40.6871098504690778
 20
143.3380370950306997
 30
0.0
  0
VERTEX
  5
5AFD
  8
0
 10
40.9065034049050382
 20
143.3416198377767898
 30
0.0
  0
VERTEX
  5
5AFE
  8
0
 10
41.1264975855964892
 20
143.3380576813896994
 30
0.0
  0
VERTEX
  5
5AFF
  8
0
 10
41.3464755569137878
 20
143.3260558273146899
 30
0.0
  0
VERTEX
  5
5B00
  8
0
 10
41.5656891791422183
 20
143.3031415690194876
 30
0.0
  0
VERTEX
  5
5B01
  8
0
 10
41.6749954943262466
 20
143.2860999425265902
 30
0.0
  0
VERTEX
  5
5B02
  8
0
 10
41.7841386056870192
 20
143.2643937221114925
 30
0.0
  0
VERTEX
  5
5B03
  8
0
 10
41.8930896772953929
 20
143.2371421743326891
 30
0.0
  0
VERTEX
  5
5B04
  8
0
 10
42.0015868219353408
 20
143.202747178201804
 30
0.0
  0
VERTEX
  5
5B05
  8
0
 10
42.1092850946146697
 20
143.1592611637609025
 30
0.0
  0
VERTEX
  5
5B06
  8
0
 10
42.2157067823908392
 20
143.1037907204417934
 30
0.0
  0
VERTEX
  5
5B07
  8
0
 10
42.2682062331873567
 20
143.0704223432157107
 30
0.0
  0
VERTEX
  5
5B08
  8
0
 10
42.319769560661932
 20
143.0320524545288094
 30
0.0
  0
VERTEX
  5
5B09
  8
0
 10
42.3699042320566832
 20
142.987438583707501
 30
0.0
  0
VERTEX
  5
5B0A
  8
0
 10
42.4181012407500404
 20
142.935105827656713
 30
0.0
  0
VERTEX
  5
5B0B
  8
0
 10
42.4634897637208724
 20
142.8731703949059124
 30
0.0
  0
VERTEX
  5
5B0C
  8
0
 10
42.4844308266245321
 20
142.8376297965118056
 30
0.0
  0
VERTEX
  5
5B0D
  8
0
 10
42.5036921162632026
 20
142.7983884681241875
 30
0.0
  0
VERTEX
  5
5B0E
  8
0
 10
42.520788950404949
 20
142.7548849863642886
 30
0.0
  0
VERTEX
  5
5B0F
  8
0
 10
42.5343772401054068
 20
142.7068976715789006
 30
0.0
  0
VERTEX
  5
5B10
  8
0
 10
42.542314862522403
 20
142.6547279969211104
 30
0.0
  0
VERTEX
  5
5B11
  8
0
 10
42.5460928914000078
 20
142.5999999999995964
 30
0.0
  0
SEQEND
  5
5B12
  8
0
  0
POLYLINE
  5
46A0
  8
0
 66
     1
 10
0.0
 20
0.0
 30
0.0
  0
VERTEX
  5
5B13
  8
0
 10
57.4539071087000366
 20
142.5999999999995964
 30
0.0
  0
VERTEX
  5
5B14
  8
0
 10
57.4569244314728778
 20
142.6545363542213067
 30
0.0
  0
VERTEX
  5
5B15
  8
0
 10
57.4657743085289212
 20
142.7065265692957894
 30
0.0
  0
VERTEX
  5
5B16
  8
0
 10
57.479165180691723
 20
142.754434959960804
 30
0.0
  0
VERTEX
  5
5B17
  8
0
 10
57.4959930782828224
 20
142.7978748925332013
 30
0.0
  0
VERTEX
  5
5B18
  8
0
 10
57.5152381815150306
 20
142.837118230662611
 30
0.0
  0
VERTEX
  5
5B19
  8
0
 10
57.536206838924393
 20
142.8726622501988004
 30
0.0
  0
VERTEX
  5
5B1A
  8
0
 10
57.5815184824224389
 20
142.9346273349723049
 30
0.0
  0
VERTEX
  5
5B1B
  8
0
 10
57.6296672673660169
 20
142.9870268436515062
 30
0.0
  0
VERTEX
  5
5B1C
  8
0
 10
57.6798018590940771
 20
143.0317183783944017
 30
0.0
  0
VERTEX
  5
5B1D
  8
0
 10
57.7313527323293485
 20
143.0701469316115038
 30
0.0
  0
VERTEX
  5
5B1E
  8
0
 10
57.7838422988335694
 20
143.1035433308501013
 30
0.0
  0
VERTEX
  5
5B1F
  8
0
 10
57.8902687163762266
 20
143.1590491546812132
 30
0.0
  0
VERTEX
  5
5B20
  8
0
 10
57.9979692474020112
 20
143.2025797993354104
 30
0.0
  0
VERTEX
  5
5B21
  8
0
 10
58.1064619901458101
 20
143.2370111078774926
 30
0.0
  0
VERTEX
  5
5B22
  8
0
 10
58.2154105793617305
 20
143.2642877424071912
 30
0.0
  0
VERTEX
  5
5B23
  8
0
 10
58.3245579486838324
 20
143.2860086754351983
 30
0.0
  0
VERTEX
  5
5B24
  8
0
 10
58.4338685555985577
 20
143.3030689843311904
 30
0.0
  0
VERTEX
  5
5B25
  8
0
 10
58.6530816061580822
 20
143.3260117220650898
 30
0.0
  0
VERTEX
  5
5B26
  8
0
 10
58.8730486156934489
 20
143.3380370950310976
 30
0.0
  0
VERTEX
  5
5B27
  8
0
 10
59.0930369428215769
 20
143.3416198377769035
 30
0.0
  0
VERTEX
  5
5B28
  8
0
 10
59.3124251882080102
 20
143.3380576813904099
 30
0.0
  0
VERTEX
  5
5B29
  8
0
 10
59.5317150805408275
 20
143.3260558273161109
 30
0.0
  0
VERTEX
  5
5B2A
  8
0
 10
59.7514122348911698
 20
143.3031415690201129
 30
0.0
  0
VERTEX
  5
5B2B
  8
0
 10
59.8611740724777519
 20
143.2860999425267039
 30
0.0
  0
VERTEX
  5
5B2C
  8
0
 10
59.9706699084181309
 20
143.2643937221112935
 30
0.0
  0
VERTEX
  5
5B2D
  8
0
 10
60.0797482155424518
 20
143.2371421743326039
 30
0.0
  0
VERTEX
  5
5B2E
  8
0
 10
60.1882764635740273
 20
143.2027471782020882
 30
0.0
  0
VERTEX
  5
5B2F
  8
0
 10
60.2960314544353011
 20
143.1592611637618973
 30
0.0
  0
VERTEX
  5
5B30
  8
0
 10
60.4022426941700701
 20
143.1037907204413955
 30
0.0
  0
VERTEX
  5
5B31
  8
0
 10
60.4544563449905468
 20
143.0704223432130959
 30
0.0
  0
VERTEX
  5
5B32
  8
0
 10
60.5058517080275422
 20
143.032052454524603
 30
0.0
  0
VERTEX
  5
5B33
  8
0
 10
60.5561611129930384
 20
142.9874385837038915
 30
0.0
  0
VERTEX
  5
5B34
  8
0
 10
60.604634256005852
 20
142.9351058276554056
 30
0.0
  0
VERTEX
  5
5B35
  8
0
 10
60.6500713348697786
 20
142.8731703949071061
 30
0.0
  0
VERTEX
  5
5B36
  8
0
 10
60.6709625253179681
 20
142.8376297965135961
 30
0.0
  0
VERTEX
  5
5B37
  8
0
 10
60.6901614987696121
 20
142.7983884681260918
 30
0.0
  0
VERTEX
  5
5B38
  8
0
 10
60.7072244651713504
 20
142.754884986365596
 30
0.0
  0
VERTEX
  5
5B39
  8
0
 10
60.720822875717829
 20
142.7068976715794975
 30
0.0
  0
VERTEX
  5
5B3A
  8
0
 10
60.7287981589908483
 20
142.6547279969211957
 30
0.0
  0
VERTEX
  5
5B3B
  8
0
 10
60.7326263708000624
 20
142.5999999999995964
 30
0.0
  0
SEQEND
  5
5B3C
  8
0
  0
POLYLINE
  5
46A1
  8
0
 66
     1
 10
0.0
 20
0.0
 30
0.0
  0
VERTEX
  5
5B3D
  8
0
 10
46.721280737900031
 20
142.5999999999995964
 30
0.0
  0
VERTEX
  5
5B3E
  8
0
 10
46.7231700739156892
 20
142.627439539700589
 30
0.0
  0
VERTEX
  5
5B3F
  8
0
 10
46.7274248518019633
 20
142.6545239390468112
 30
0.0
  0
VERTEX
  5
5B40
  8
0
 10
46.7350600022963931
 20
142.680944415420214
 30
0.0
  0
VERTEX
  5
5B41
  8
0
 10
46.7453209121017608
 20
142.7064644501620876
 30
0.0
  0
VERTEX
  5
5B42
  8
0
 10
46.7577783918737779
 20
142.7309435993381896
 30
0.0
  0
VERTEX
  5
5B43
  8
0
 10
46.7722266982554515
 20
142.7543078915215915
 30
0.0
  0
VERTEX
  5
5B44
  8
0
 10
46.8058989862282075
 20
142.7977045081622123
 30
0.0
  0
VERTEX
  5
5B45
  8
0
 10
46.8443249717623118
 20
142.8369475879802053
 30
0.0
  0
VERTEX
  5
5B46
  8
0
 10
46.8861647390471603
 20
142.8725364807525011
 30
0.0
  0
VERTEX
  5
5B47
  8
0
 10
46.930486034153148
 20
142.9049813939101909
 30
0.0
  0
VERTEX
  5
5B48
  8
0
 10
46.9766659832530422
 20
142.9347205390967872
 30
0.0
  0
VERTEX
  5
5B49
  8
0
 10
47.0243084533496472
 20
142.9620715776385964
 30
0.0
  0
VERTEX
  5
5B4A
  8
0
 10
47.0731601730987492
 20
142.9872594852791963
 30
0.0
  0
VERTEX
  5
5B4B
  8
0
 10
47.1736330049230901
 20
143.0319422128048075
 30
0.0
  0
VERTEX
  5
5B4C
  8
0
 10
47.2766101598165207
 20
143.0702857650074122
 30
0.0
  0
VERTEX
  5
5B4D
  8
0
 10
47.3813216487859492
 20
143.1035877070160041
 30
0.0
  0
VERTEX
  5
5B4E
  8
0
 10
47.4871906569359226
 20
143.1329806750607929
 30
0.0
  0
VERTEX
  5
5B4F
  8
0
 10
47.5939461284187928
 20
143.1590170953087977
 30
0.0
  0
VERTEX
  5
5B50
  8
0
 10
47.7014054378239507
 20
143.1820815878396047
 30
0.0
  0
VERTEX
  5
5B51
  8
0
 10
47.8093860643577884
 20
143.2025586327546876
 30
0.0
  0
VERTEX
  5
5B52
  8
0
 10
48.0263967524385222
 20
143.2370110276530966
 30
0.0
  0
VERTEX
  5
5B53
  8
0
 10
48.2444096532960316
 20
143.2643032668756859
 30
0.0
  0
VERTEX
  5
5B54
  8
0
 10
48.4630363806003288
 20
143.2860299834644877
 30
0.0
  0
VERTEX
  5
5B55
  8
0
 10
48.6820939106257811
 20
143.303085227120107
 30
0.0
  0
VERTEX
  5
5B56
  8
0
 10
48.9014537977907935
 20
143.3161768571762025
 30
0.0
  0
VERTEX
  5
5B57
  8
0
 10
49.1209876144636226
 20
143.3260126601936122
 30
0.0
  0
VERTEX
  5
5B58
  8
0
 10
49.3405920401930302
 20
143.3331982313868878
 30
0.0
  0
VERTEX
  5
5B59
  8
0
 10
49.5602389669542092
 20
143.3380330360486994
 30
0.0
  0
VERTEX
  5
5B5A
  8
0
 10
49.9996039877071894
 20
143.3416198837385878
 30
0.0
  0
VERTEX
  5
5B5B
  8
0
 10
50.4389696826905194
 20
143.3380574907581035
 30
0.0
  0
VERTEX
  5
5B5C
  8
0
 10
50.6586170953038888
 20
143.3332305950922034
 30
0.0
  0
VERTEX
  5
5B5D
  8
0
 10
50.8782217887497765
 20
143.3260518001096955
 30
0.0
  0
VERTEX
  5
5B5E
  8
0
 10
51.0977554286138798
 20
143.3162225133280003
 30
0.0
  0
VERTEX
  5
5B5F
  8
0
 10
51.317115357179091
 20
143.3031390644100895
 30
0.0
  0
VERTEX
  5
5B60
  8
0
 10
51.5361743691116203
 20
143.2860970214275085
 30
0.0
  0
VERTEX
  5
5B61
  8
0
 10
51.7548052436264925
 20
143.2643918890493069
 30
0.0
  0
VERTEX
  5
5B62
  8
0
 10
51.9728261361107116
 20
143.2371368776562974
 30
0.0
  0
VERTEX
  5
5B63
  8
0
 10
52.1898418687433079
 20
143.2027332477969139
 30
0.0
  0
VERTEX
  5
5B64
  8
0
 10
52.2978224086927526
 20
143.1822821602611953
 30
0.0
  0
VERTEX
  5
5B65
  8
0
 10
52.4052832060849596
 20
143.1592405463325974
 30
0.0
  0
VERTEX
  5
5B66
  8
0
 10
52.512042245768491
 20
143.1332132312965086
 30
0.0
  0
VERTEX
  5
5B67
  8
0
 10
52.6179173343615503
 20
143.1038047950229952
 30
0.0
  0
VERTEX
  5
5B68
  8
0
 10
52.7226390880706504
 20
143.0704757344877009
 30
0.0
  0
VERTEX
  5
5B69
  8
0
 10
52.825602801977702
 20
143.0321324256657931
 30
0.0
  0
VERTEX
  5
5B6A
  8
0
 10
52.9260406312371785
 20
142.9875121758726948
 30
0.0
  0
VERTEX
  5
5B6B
  8
0
 10
52.9749273793204907
 20
142.9623905750862036
 30
0.0
  0
VERTEX
  5
5B6C
  8
0
 10
53.0226830741430035
 20
142.9351342344000102
 30
0.0
  0
VERTEX
  5
5B6D
  8
0
 10
53.069045665492979
 20
142.9055080560520992
 30
0.0
  0
VERTEX
  5
5B6E
  8
0
 10
53.113452695326032
 20
142.8731272485904071
 30
0.0
  0
VERTEX
  5
5B6F
  8
0
 10
53.1552652220583468
 20
142.8375679952997075
 30
0.0
  0
VERTEX
  5
5B70
  8
0
 10
53.1937248931327034
 20
142.7983280725750888
 30
0.0
  0
VERTEX
  5
5B71
  8
0
 10
53.2279099641096991
 20
142.7548412176928139
 30
0.0
  0
VERTEX
  5
5B72
  8
0
 10
53.2426866519830924
 20
142.7314088708251916
 30
0.0
  0
VERTEX
  5
5B73
  8
0
 10
53.2551317341796633
 20
142.7068776715235003
 30
0.0
  0
VERTEX
  5
5B74
  8
0
 10
53.2646254260920387
 20
142.6812751674328013
 30
0.0
  0
VERTEX
  5
5B75
  8
0
 10
53.2710780020255967
 20
142.6547227179023878
 30
0.0
  0
VERTEX
  5
5B76
  8
0
 10
53.2787192622000205
 20
142.5999999999995964
 30
0.0
  0
SEQEND
  5
5B77
  8
0
  0
LINE
  5
46AB
  8
1
 10
50.0
 20
147.0999999999995964
 30
0.0
 11
50.0
 21
46.9999999999999929
 31
0.0
  0
LINE
  5
46AC
  8
1
 10
116.9999999999992042
 20
172.200002749214093
 30
0.0
 11
116.9999999999990052
 21
47.0
 31
0.0
  0
LINE
  5
46AD
  8
1
 10
30.4999999999995097
 20
219.7000027492117056
 30
0.0
 11
69.4999999999990479
 21
219.7000027492117056
 31
0.0
  0
LINE
  5
46AE
  8
1
 10
50.0000000000000213
 20
206.200002749214093
 30
0.0
 11
49.9999999999999574
 21
233.2000027492092897
 31
0.0
  0
POLYLINE
  5
49E6
  8
0
 66
     1
 10
0.0
 20
0.0
 30
0.0
  0
VERTEX
  5
5B78
  8
0
 10
53.2787192622000205
 20
133.1999999999995907
 30
0.0
  0
VERTEX
  5
5B79
  8
0
 10
53.2605498994177466
 20
132.9027245964882127
 30
0.0
  0
VERTEX
  5
5B7A
  8
0
 10
53.2055934566289466
 20
132.6100147583024125
 30
0.0
  0
VERTEX
  5
5B7B
  8
0
 10
53.114797088517598
 20
132.3263608172333932
 30
0.0
  0
VERTEX
  5
5B7C
  8
0
 10
52.9910226520699368
 20
132.0554487639840033
 30
0.0
  0
VERTEX
  5
5B7D
  8
0
 10
52.8372361567646109
 20
131.7998813980821922
 30
0.0
  0
VERTEX
  5
5B7E
  8
0
 10
52.6561645213919789
 20
131.5625248690116962
 30
0.0
  0
VERTEX
  5
5B7F
  8
0
 10
52.4509177053257076
 20
131.3459951022931023
 30
0.0
  0
VERTEX
  5
5B80
  8
0
 10
52.2250356445835635
 20
131.1510556723760885
 30
0.0
  0
VERTEX
  5
5B81
  8
0
 10
51.9819485268673702
 20
130.9781344667607925
 30
0.0
  0
VERTEX
  5
5B82
  8
0
 10
51.7241567331877334
 20
130.8281823269055906
 30
0.0
  0
VERTEX
  5
5B83
  8
0
 10
51.4539772466224008
 20
130.7019840429306043
 30
0.0
  0
VERTEX
  5
5B84
  8
0
 10
51.1739963888073319
 20
130.5990893314298091
 30
0.0
  0
VERTEX
  5
5B85
  8
0
 10
50.8867307288324469
 20
130.5189198440795906
 30
0.0
  0
VERTEX
  5
5B86
  8
0
 10
50.594111384959831
 20
130.4616748540788933
 30
0.0
  0
VERTEX
  5
5B87
  8
0
 10
50.2979127922833982
 20
130.4275846968639883
 30
0.0
  0
VERTEX
  5
5B88
  8
0
 10
49.9999055308883911
 20
130.416133371662994
 30
0.0
  0
VERTEX
  5
5B89
  8
0
 10
49.7018642299437303
 20
130.4268381655664939
 30
0.0
  0
VERTEX
  5
5B8A
  8
0
 10
49.4055863480976427
 20
130.4602574247724078
 30
0.0
  0
VERTEX
  5
5B8B
  8
0
 10
49.1128825971821286
 20
130.517069739155005
 30
0.0
  0
VERTEX
  5
5B8C
  8
0
 10
48.8255955244861113
 20
130.5971495570805132
 30
0.0
  0
VERTEX
  5
5B8D
  8
0
 10
48.5456990195394269
 20
130.7002819845804993
 30
0.0
  0
VERTEX
  5
5B8E
  8
0
 10
48.2757137255628592
 20
130.8269001998760928
 30
0.0
  0
VERTEX
  5
5B8F
  8
0
 10
48.0182265294404829
 20
130.9773389297475035
 30
0.0
  0
VERTEX
  5
5B90
  8
0
 10
47.7754349076681706
 20
131.1506770026169022
 30
0.0
  0
VERTEX
  5
5B91
  8
0
 10
47.5496931375509391
 20
131.3458062089584928
 30
0.0
  0
VERTEX
  5
5B92
  8
0
 10
47.3444433603565926
 20
131.5622937811992017
 30
0.0
  0
VERTEX
  5
5B93
  8
0
 10
47.163278907698718
 20
131.7994860156939865
 30
0.0
  0
VERTEX
  5
5B94
  8
0
 10
47.0092285404920673
 20
132.0549777550471902
 30
0.0
  0
VERTEX
  5
5B95
  8
0
 10
46.8852940913509926
 20
132.3259598488239135
 30
0.0
  0
VERTEX
  5
5B96
  8
0
 10
46.7944357390053369
 20
132.6097333024935097
 30
0.0
  0
VERTEX
  5
5B97
  8
0
 10
46.7394459386198875
 20
132.9025843112677876
 30
0.0
  0
VERTEX
  5
5B98
  8
0
 10
46.721280737900031
 20
133.1999999999995907
 30
0.0
  0
SEQEND
  5
5B99
  8
0
  0
LINE
  5
4B19
  8
3
 10
55.9499999999999815
 20
149.0999999999995964
 30
0.0
 11
44.0500000000000114
 21
149.0999999999995964
 31
0.0
  0
ARC
  5
4B1A
  8
3
 10
44.0373176158088313
 20
148.6126823841908049
 30
0.0
 40
0.4874826166606598
 50
88.5092205165366153
 51
181.490779483469197
  0
ARC
  5
4B1B
  8
3
 10
55.977231642213269
 20
148.6272316422129052
 30
0.0
 40
0.4735519849625659
 50
356.7033833269038041
 51
93.2966166730910089
  0
LINE
  5
4B1D
  8
3
 10
43.5500000000000114
 20
148.5999999999995964
 30
0.0
 11
43.5500000000000611
 21
148.2999999999996135
 31
0.0
  0
LINE
  5
4B1E
  8
3
 10
56.4499999999999318
 20
148.2999999999996135
 30
0.0
 11
56.4499999999999886
 21
148.5999999999995964
 31
0.0
  0
LINE
  5
4B23
  8
3
 10
57.2180149999993475
 20
148.2999999999996135
 30
0.0
 11
42.781985000000077
 21
148.2999999999996135
 31
0.0
  0
LINE
  5
4B4B
  8
3
 10
42.7819849999999633
 20
148.2999999999996135
 30
0.0
 11
42.5999999999997883
 21
147.8000000000004945
 31
0.0
  0
LINE
  5
4B4C
  8
3
 10
57.3999999999995225
 20
147.8000000000004945
 30
0.0
 11
57.2180149999993475
 21
148.2999999999996135
 31
0.0
  0
LINE
  5
4B4D
  8
3
 10
57.3999999999995296
 20
143.3999999999996078
 30
0.0
 11
57.3999999999995225
 21
147.8000000000004945
 31
0.0
  0
LINE
  5
4B4E
  8
3
 10
42.5999999999997883
 20
147.8000000000004945
 30
0.0
 11
42.5999999999997883
 21
143.3999999999996078
 31
0.0
  0
LINE
  5
4C25
  8
3
 10
56.1999999999787931
 20
151.1126633025322974
 30
0.0
 11
56.1999999999873125
 21
149.5000000000322871
 31
0.0
  0
ARC
  5
4C26
  8
3
 10
69.1992280550659302
 20
151.1129664606739027
 30
0.0
 40
12.9992280586221494
 50
137.1168240446475863
 51
180.001336208732198
  0
ARC
  5
4C27
  8
3
 10
35.4622196036604009
 20
150.92488784139519
 30
0.0
 40
12.9378043341225002
 50
359.8897827547652923
 51
43.7130362185451986
  0
CIRCLE
  5
4C28
  8
3
 10
52.1999999998718565
 20
171.4000000000112038
 30
0.0
 40
2.7499999999999849
  0
ARC
  5
4C29
  8
3
 10
52.199999999895617
 20
166.9000000000112038
 30
0.0
 40
10.2000000000000401
 50
317.1181602530032251
 51
223.6028189730016038
  0
LINE
  5
4C2A
  8
3
 10
48.3999999999894115
 20
149.099999999991212
 30
0.0
 11
48.3999999999799115
 21
150.8999999999911097
 31
0.0
  0
ARC
  5
4C2B
  8
3
 10
55.8000096887613424
 20
149.4999903112559991
 30
0.0
 40
0.3999903113433063
 50
269.9986121520311144
 51
0.0013878485917815
  0
LINE
  5
4CD3
  8
0
 10
53.278719262158539
 20
230.2000027492092897
 30
0.0
 11
46.7212807378565103
 21
230.2000027492092897
 31
0.0
  0
LINE
  5
4CDA
  8
0
 10
42.5460928913388017
 20
227.7894569221141978
 30
0.0
 11
39.2666500375826502
 21
222.1092952788899879
 31
0.0
  0
LINE
  5
4CDB
  8
0
 10
39.2673736291878512
 20
217.2894569221141978
 30
0.0
 11
42.5460928913388017
 21
211.6105485763139882
 31
0.0
  0
LINE
  5
4CDC
  8
0
 10
46.7212807378488932
 20
209.200002749214093
 30
0.0
 11
53.278719262150922
 21
209.200002749214093
 31
0.0
  0
LINE
  5
4CDD
  8
0
 10
57.4539071086609994
 20
211.6105485763139882
 30
0.0
 11
60.7326263708120706
 21
217.2894569221141978
 31
0.0
  0
LINE
  5
4CDE
  8
0
 10
60.7333499624174493
 20
222.1092952788891921
 30
0.0
 11
57.4539071086609994
 21
227.7894569221141978
 31
0.0
  0
ARC
  5
4CE3
  8
0
 10
49.9999999999999574
 20
219.7000027492117056
 30
0.0
 40
7.3999999999995216
 50
7.7664341685209717
 51
172.2335658314790123
  0
ARC
  5
4CE4
  8
0
 10
49.9999999999999574
 20
219.7000027492117056
 30
0.0
 40
7.3999999999995216
 50
187.3758950441547029
 51
352.2335658314817124
  0
LINE
  5
512A
  8
0
 10
66.3352799999984057
 20
143.0437952492135878
 30
0.0
 11
61.0264274999990519
 21
160.9661789992146907
 31
0.0
  0
LINE
  5
512B
  8
0
 10
59.1087874999984706
 20
160.3981489992119975
 30
0.0
 11
64.4176399999991958
 21
142.4757652492183979
 31
0.0
  0
LINE
  5
512C
  8
0
 10
62.4999999999995381
 20
139.8999999999990962
 30
0.0
 11
60.9999999999995524
 21
139.8999999999990962
 31
0.0
  0
LINE
  5
512D
  8
0
 10
60.9999999999995524
 20
137.8999999999996078
 30
0.0
 11
62.4999999999995381
 21
137.8999999999996078
 31
0.0
  0
LINE
  5
512E
  8
0
 10
38.9735737499995594
 20
160.9661789992146907
 30
0.0
 11
33.6647212499997295
 21
143.0437952492135878
 31
0.0
  0
LINE
  5
512F
  8
0
 10
35.5823612500003108
 20
142.4757652492183979
 30
0.0
 11
40.8912137500001265
 21
160.3981489992119975
 31
0.0
  0
LINE
  5
5130
  8
0
 10
39.0000000000004619
 20
139.8999999999990962
 30
0.0
 11
37.5
 21
139.8999999999990962
 31
0.0
  0
POLYLINE
  5
5131
  8
0
 66
     1
 10
0.0
 20
0.0
 30
0.0
  0
VERTEX
  5
5B9A
  8
0
 10
50.0
 20
169.200002749214093
 30
0.0
  0
VERTEX
  5
5B9B
  8
0
 10
48.1232086002537471
 20
169.0465074300508093
 30
0.0
  0
VERTEX
  5
5B9C
  8
0
 10
46.3318127977740915
 20
168.6002168019410021
 30
0.0
  0
VERTEX
  5
5B9D
  8
0
 10
44.6543273697666265
 20
167.8824238589544962
 30
0.0
  0
VERTEX
  5
5B9E
  8
0
 10
43.1192670934378768
 20
166.9144215951606043
 30
0.0
  0
VERTEX
  5
5B9F
  8
0
 10
41.755146745992981
 20
165.7175030046292079
 30
0.0
  0
VERTEX
  5
5BA0
  8
0
 10
40.5904811046366305
 20
164.3129610814301884
 30
0.0
  0
VERTEX
  5
5BA1
  8
0
 10
39.6537849465757972
 20
162.7220888196326882
 30
0.0
  0
VERTEX
  5
5BA2
  8
0
 10
38.9735737499995594
 20
160.9661789992146907
 30
0.0
  0
SEQEND
  5
5BA3
  8
0
  0
POLYLINE
  5
5132
  8
0
 66
     1
 10
0.0
 20
0.0
 30
0.0
  0
VERTEX
  5
5BA4
  8
0
 10
61.0264274999990519
 20
160.9661789992146907
 30
0.0
  0
VERTEX
  5
5BA5
  8
0
 10
60.3462150534228385
 20
162.7220888196326882
 30
0.0
  0
VERTEX
  5
5BA6
  8
0
 10
59.4095188953629005
 20
164.3129610814301884
 30
0.0
  0
VERTEX
  5
5BA7
  8
0
 10
58.2448532540070119
 20
165.7175030046292079
 30
0.0
  0
VERTEX
  5
5BA8
  8
0
 10
56.8807329065621232
 20
166.9144215951606043
 30
0.0
  0
VERTEX
  5
5BA9
  8
0
 10
55.3456726302333735
 20
167.8824238589544962
 30
0.0
  0
VERTEX
  5
5BAA
  8
0
 10
53.6681872022259085
 20
168.6002168019410021
 30
0.0
  0
VERTEX
  5
5BAB
  8
0
 10
51.8767913997467076
 20
169.0465074300508093
 30
0.0
  0
VERTEX
  5
5BAC
  8
0
 10
50.0
 20
169.200002749214093
 30
0.0
  0
SEQEND
  5
5BAD
  8
0
  0
POLYLINE
  5
5133
  8
0
 66
     1
 10
0.0
 20
0.0
 30
0.0
  0
VERTEX
  5
5BAE
  8
0
 10
35.5823612500003108
 20
142.4757652492183979
 30
0.0
  0
VERTEX
  5
5BAF
  8
0
 10
35.7423657746753634
 20
140.9456824794822865
 30
0.0
  0
VERTEX
  5
5BB0
  8
0
 10
36.931969310592649
 20
139.9823605302663907
 30
0.0
  0
VERTEX
  5
5BB1
  8
0
 10
37.2130147560174009
 20
139.9206972263606019
 30
0.0
  0
VERTEX
  5
5BB2
  8
0
 10
37.5
 20
139.8999999999990962
 30
0.0
  0
SEQEND
  5
5BB3
  8
0
  0
POLYLINE
  5
5134
  8
0
 66
     1
 10
0.0
 20
0.0
 30
0.0
  0
VERTEX
  5
5BB4
  8
0
 10
33.6647212499997295
 20
143.0437952492135878
 30
0.0
  0
VERTEX
  5
5BB5
  8
0
 10
33.5239099335190076
 20
141.4539203992353862
 30
0.0
  0
VERTEX
  5
5BB6
  8
0
 10
33.9847315493525528
 20
139.9913649589601903
 30
0.0
  0
VERTEX
  5
5BB7
  8
0
 10
34.9603523109376511
 20
138.8083226490398943
 30
0.0
  0
VERTEX
  5
5BB8
  8
0
 10
36.3639386211830171
 20
138.0647210605256987
 30
0.0
  0
VERTEX
  5
5BB9
  8
0
 10
37.5
 20
137.8999999999996078
 30
0.0
  0
SEQEND
  5
5BBA
  8
0
  0
POLYLINE
  5
5135
  8
0
 66
     1
 10
0.0
 20
0.0
 30
0.0
  0
VERTEX
  5
5BBB
  8
0
 10
62.4999999999995381
 20
139.8999999999990962
 30
0.0
  0
VERTEX
  5
5BBC
  8
0
 10
63.9142135623719696
 20
140.485786437627695
 30
0.0
  0
VERTEX
  5
5BBD
  8
0
 10
64.4999999999995453
 20
141.8999999999986983
 30
0.0
  0
VERTEX
  5
5BBE
  8
0
 10
64.4793027736377553
 20
142.1869852439841964
 30
0.0
  0
VERTEX
  5
5BBF
  8
0
 10
64.4176399999991958
 20
142.4757652492183979
 30
0.0
  0
SEQEND
  5
5BC0
  8
0
  0
POLYLINE
  5
5136
  8
0
 66
     1
 10
0.0
 20
0.0
 30
0.0
  0
VERTEX
  5
5BC1
  8
0
 10
62.4999999999995381
 20
137.8999999999996078
 30
0.0
  0
VERTEX
  5
5BC2
  8
0
 10
64.0569805153381822
 20
138.2143398282198916
 30
0.0
  0
VERTEX
  5
5BC3
  8
0
 10
65.328427124744394
 20
139.0715728752537075
 30
0.0
  0
VERTEX
  5
5BC4
  8
0
 10
66.1856601717777266
 20
140.3430194846602035
 30
0.0
  0
VERTEX
  5
5BC5
  8
0
 10
66.499999999998181
 20
141.8999999999986983
 30
0.0
  0
VERTEX
  5
5BC6
  8
0
 10
66.3375709151824253
 20
143.0360612499987099
 30
0.0
  0
SEQEND
  5
5BC7
  8
0
  0
POLYLINE
  5
5137
  8
0
 66
     1
 10
0.0
 20
0.0
 30
0.0
  0
VERTEX
  5
5BC8
  8
0
 10
59.1087874999984706
 20
160.3981489992119975
 30
0.0
  0
VERTEX
  5
5BC9
  8
0
 10
58.7858901065151329
 20
161.3155389079965119
 30
0.0
  0
VERTEX
  5
5BCA
  8
0
 10
58.3799588108518108
 20
162.1790701775121875
 30
0.0
  0
VERTEX
  5
5BCB
  8
0
 10
57.8969284072058983
 20
162.985519991932307
 30
0.0
  0
VERTEX
  5
5BCC
  8
0
 10
57.3427337085268007
 20
163.7316660107397865
 30
0.0
  0
VERTEX
  5
5BCD
  8
0
 10
56.7233095277647408
 20
164.4142858934177127
 30
0.0
  0
VERTEX
  5
5BCE
  8
0
 10
56.0445906778672907
 20
165.0301572994492858
 30
0.0
  0
VERTEX
  5
5BCF
  8
0
 10
55.3125119717851703
 20
165.5760578883173082
 30
0.0
  0
VERTEX
  5
5BD0
  8
0
 10
54.5330082224663784
 20
166.0487653195046107
 30
0.0
  0
VERTEX
  5
5BD1
  8
0
 10
53.7120142428602705
 20
166.4450572524943937
 30
0.0
  0
VERTEX
  5
5BD2
  8
0
 10
52.8554648459166927
 20
166.7617113467694026
 30
0.0
  0
VERTEX
  5
5BD3
  8
0
 10
51.9692948445845104
 20
166.9955052618130082
 30
0.0
  0
VERTEX
  5
5BD4
  8
0
 10
51.0594390518121983
 20
167.1432166571078994
 30
0.0
  0
VERTEX
  5
5BD5
  8
0
 10
50.1318322805495882
 20
167.2016231921371912
 30
0.0
  0
VERTEX
  5
5BD6
  8
0
 10
49.1924093437464833
 20
167.1675025263836858
 30
0.0
  0
VERTEX
  5
5BD7
  8
0
 10
48.2471050543508682
 20
167.0376323193306121
 30
0.0
  0
VERTEX
  5
5BD8
  8
0
 10
47.3018542253125815
 20
166.8087902304608008
 30
0.0
  0
VERTEX
  5
5BD9
  8
0
 10
46.178296679342111
 20
166.3975245036332922
 30
0.0
  0
VERTEX
  5
5BDA
  8
0
 10
45.1274220416030403
 20
165.8554297367105903
 30
0.0
  0
VERTEX
  5
5BDB
  8
0
 10
44.15892133407214
 20
165.1921969516697004
 30
0.0
  0
VERTEX
  5
5BDC
  8
0
 10
43.2824855787275666
 20
164.4175171704883098
 30
0.0
  0
VERTEX
  5
5BDD
  8
0
 10
42.5078057975456431
 20
163.541081415143509
 30
0.0
  0
VERTEX
  5
5BDE
  8
0
 10
41.8445730125040427
 20
162.5725807076125875
 30
0.0
  0
VERTEX
  5
5BDF
  8
0
 10
41.3024782455804598
 20
161.5217060698732041
 30
0.0
  0
VERTEX
  5
5BE0
  8
0
 10
40.8912137500001265
 20
160.3981489992119975
 30
0.0
  0
SEQEND
  5
5BE1
  8
0
  0
LINE
  5
5138
  8
0
 10
37.5
 20
137.8999999999996078
 30
0.0
 11
39.0000000000004619
 21
137.8999999999996078
 31
0.0
  0
LINE
  5
5142
  8
0
 10
34.4999999999995097
 20
218.700002749210995
 30
0.0
 11
65.4999999999990337
 21
218.700002749210995
 31
0.0
  0
LINE
  5
5143
  8
0
 10
65.4999999999990337
 20
220.7000027492127003
 30
0.0
 11
34.4999999999995097
 21
220.7000027492127003
 31
0.0
  0
ARC
  5
5144
  8
0
 10
65.4999999999990337
 20
219.7000027492117056
 30
0.0
 40
1.0
 50
270.0
 51
90.0
  0
ARC
  5
5145
  8
0
 10
34.4999999999995097
 20
219.7000027492117056
 30
0.0
 40
1.0
 50
90.0
 51
270.0
  0
ARC
  5
5149
  8
0
 10
50.0405787599035818
 20
219.7009935121265869
 30
0.0
 40
11.0398123857902508
 50
167.3997803213007955
 51
174.8081163683148134
  0
ARC
  5
514A
  8
0
 10
50.0405787599035818
 20
219.7009935121265869
 30
0.0
 40
11.0398123857902508
 50
185.2022100499636963
 51
192.6174230542895032
  0
ARC
  5
514B
  8
0
 10
49.9594212400963471
 20
219.7009935121265869
 30
0.0
 40
11.0398123857902508
 50
5.1918836316852213
 51
12.6002196786995704
  0
LINE
  5
51B4
  8
0
 10
227.8999999999990962
 20
188.815967313198513
 30
0.0
 11
229.7999999999991019
 21
188.815967313198513
 31
0.0
  0
LINE
  5
51B5
  8
0
 10
227.8999999999990962
 20
170.315967313198513
 30
0.0
 11
229.7999999999991019
 21
170.315967313198513
 31
0.0
  0
LINE
  5
51B8
  8
0
 10
229.7999999999991019
 20
170.315967313198513
 30
0.0
 11
229.7999999999991019
 21
216.815967313198513
 31
0.0
  0
LINE
  5
51B9
  8
0
 10
227.8999999999990962
 20
170.315967313198513
 30
0.0
 11
227.8999999999990962
 21
216.815967313198513
 31
0.0
  0
LINE
  5
51BC
  8
0
 10
227.8999999999990962
 20
199.6749830755076971
 30
0.0
 11
229.7999999999991019
 21
199.6749830755076971
 31
0.0
  0
LINE
  5
51BF
  8
0
 10
229.7999999999991019
 20
216.815967313198513
 30
0.0
 11
227.8999999999990962
 21
216.815967313198513
 31
0.0
  0
LINE
  5
51C1
  8
0
 10
227.8999999999990962
 20
173.433124600723886
 30
0.0
 11
229.7999999999991019
 21
173.433124600723886
 31
0.0
  0
ARC
  5
51C4
  8
0
 10
194.3845612252200965
 20
172.3267294905747065
 30
0.0
 40
0.484603423864764
 50
179.2438694425594861
 51
225.7571464927845
  0
ARC
  5
51C5
  8
0
 10
201.3012843283364077
 20
189.2146829848612128
 30
0.0
 40
0.3987177401730935
 50
269.8154415691299732
 51
0.1845584308760397
  0
LINE
  5
51C6
  8
0
 10
195.4999999999992042
 20
170.5260693646418133
 30
0.0
 11
194.046452878385395
 21
171.9795649413734111
 31
0.0
  0
ARC
  5
51C7
  8
0
 10
195.9999999999992042
 20
171.0141420977830933
 30
0.0
 40
0.6987238315929973
 50
224.3084022672418882
 51
315.6915977327585097
  0
LINE
  5
51C8
  8
0
 10
193.8999999999992099
 20
172.3331246007238065
 30
0.0
 11
193.8999999999992099
 21
190.615967313198496
 31
0.0
  0
ARC
  5
51C9
  8
0
 10
197.6999999999991076
 20
206.615967313198496
 30
0.0
 40
10.1999999999999993
 50
317.1181602527256018
 51
223.6028189726993105
  0
CIRCLE
  5
51CA
  8
0
 10
197.6999999999991076
 20
211.115967313198496
 30
0.0
 40
2.75
  0
ARC
  5
51CB
  8
0
 10
180.9879341470638963
 20
190.651140972024308
 30
0.0
 40
12.9121137609925398
 50
359.8439213957893799
 51
43.7588975769212709
  0
ARC
  5
51CC
  8
0
 10
213.5198649197959924
 20
191.2920930500264944
 30
0.0
 40
11.8289477194834003
 50
134.8727162171697955
 51
182.245444035557
  0
LINE
  5
51CD
  8
0
 10
201.6999999999991076
 20
190.828630615705805
 30
0.0
 11
201.6999999999991076
 21
189.2159673131984903
 31
0.0
  0
LINE
  5
51CE
  8
0
 10
199.1999999999991076
 20
188.815967313198513
 30
0.0
 11
199.1999999999991076
 21
173.433124600723886
 31
0.0
  0
ARC
  5
51CF
  8
0
 10
198.7182118385586875
 20
173.425580902557499
 30
0.0
 40
0.4818472163312415
 50
314.1023744507809852
 51
0.8970472604038056
  0
LINE
  5
51D0
  8
0
 10
199.0535498221699982
 20
173.0795676417803008
 30
0.0
 11
196.4999999999992042
 21
170.5260693646418133
 31
0.0
  0
LINE
  5
51D1
  8
0
 10
199.1999999999991076
 20
188.815967313198513
 30
0.0
 11
201.2999999999991019
 21
188.815967313198513
 31
0.0
  0
LINE
  5
51DC
  8
1
 10
197.6999999999991076
 20
219.8157654259034928
 30
0.0
 11
197.6999999999989939
 21
167.6968185829483957
 31
0.0
  0
LINE
  5
51E4
  8
1
 10
192.9499999999991076
 20
211.115967313198496
 30
0.0
 11
202.4499999999991076
 21
211.115967313198496
 31
0.0
  0
LINE
  5
51FC
  8
0
 10
227.8999999999990962
 20
122.3159673131984988
 30
0.0
 11
229.7999999999991019
 21
122.3159673131984988
 31
0.0
  0
LINE
  5
51FD
  8
0
 10
227.8999999999990962
 20
103.8159673131984988
 30
0.0
 11
229.7999999999991019
 21
103.8159673131984988
 31
0.0
  0
LINE
  5
51FE
  8
0
 10
229.7999999999991019
 20
103.8159673131984988
 30
0.0
 11
229.7999999999991019
 21
150.315967313198513
 31
0.0
  0
LINE
  5
51FF
  8
0
 10
227.8999999999990962
 20
103.8159673131984988
 30
0.0
 11
227.8999999999990962
 21
150.315967313198513
 31
0.0
  0
LINE
  5
5200
  8
0
 10
227.8999999999990962
 20
133.1749830755076971
 30
0.0
 11
229.7999999999991019
 21
133.1749830755076971
 31
0.0
  0
LINE
  5
5201
  8
0
 10
229.7999999999991019
 20
150.315967313198513
 30
0.0
 11
227.8999999999990962
 21
150.315967313198513
 31
0.0
  0
LINE
  5
5202
  8
0
 10
227.8999999999990962
 20
106.9331246007239002
 30
0.0
 11
229.7999999999991019
 21
106.9331246007239002
 31
0.0
  0
ARC
  5
5203
  8
0
 10
194.3845612252200965
 20
105.8267294905747065
 30
0.0
 40
0.484603423864764
 50
179.2438694425592871
 51
225.7571464927845
  0
ARC
  5
5204
  8
0
 10
201.3012843283364077
 20
122.7146829848611986
 30
0.0
 40
0.3987177401730935
 50
269.8154415691299732
 51
0.1845584308762433
  0
LINE
  5
5205
  8
0
 10
195.4999999999992042
 20
104.0260693646417991
 30
0.0
 11
194.046452878385395
 21
105.4795649413733969
 31
0.0
  0
ARC
  5
5206
  8
0
 10
195.9999999999992042
 20
104.5141420977830933
 30
0.0
 40
0.6987238315929973
 50
224.3084022672416893
 51
315.6915977327607834
  0
LINE
  5
5207
  8
0
 10
193.8999999999992099
 20
105.8331246007238065
 30
0.0
 11
193.8999999999992099
 21
124.115967313198496
 31
0.0
  0
ARC
  5
5208
  8
0
 10
197.6999999999991076
 20
140.115967313198496
 30
0.0
 40
10.1999999999999993
 50
317.1181602527256018
 51
223.6028189726993105
  0
CIRCLE
  5
5209
  8
0
 10
197.6999999999991076
 20
144.615967313198496
 30
0.0
 40
2.75
  0
ARC
  5
520A
  8
0
 10
180.9879341470638963
 20
124.1511409720242938
 30
0.0
 40
12.9121137609925398
 50
359.8439213957889251
 51
43.7588975769211004
  0
ARC
  5
520B
  8
0
 10
213.5198649197959924
 20
124.7920930500264944
 30
0.0
 40
11.8289477194834003
 50
134.8727162171697955
 51
182.2454440355573979
  0
LINE
  5
520C
  8
0
 10
201.6999999999991076
 20
124.328630615705805
 30
0.0
 11
201.6999999999991076
 21
122.7159673131985045
 31
0.0
  0
LINE
  5
520D
  8
0
 10
199.1999999999991076
 20
122.3159673131984988
 30
0.0
 11
199.1999999999991076
 21
106.9331246007239002
 31
0.0
  0
ARC
  5
520E
  8
0
 10
198.7182118385586875
 20
106.925580902557499
 30
0.0
 40
0.4818472163312415
 50
314.1023744507809283
 51
0.8970472604033982
  0
LINE
  5
520F
  8
0
 10
199.0535498221699982
 20
106.5795676417802014
 30
0.0
 11
196.4999999999992042
 21
104.0260693646417991
 31
0.0
  0
LINE
  5
5210
  8
0
 10
199.1999999999991076
 20
122.3159673131984988
 30
0.0
 11
201.2999999999991019
 21
122.3159673131984988
 31
0.0
  0
LINE
  5
5211
  8
1
 10
197.6999999999991076
 20
153.3157654259034075
 30
0.0
 11
197.6999999999989939
 21
101.1968185829483957
 31
0.0
  0
LINE
  5
5212
  8
1
 10
192.9499999999991076
 20
144.615967313198496
 30
0.0
 11
202.4499999999991076
 21
144.615967313198496
 31
0.0
  0
LINE
  5
591C
  8
0
 10
55.7113248654051674
 20
50.0
 30
0.0
 11
44.2886751345948184
 21
50.0
 31
0.0
  0
LINE
  5
591D
  8
0
 10
44.0
 20
55.3999999999998209
 30
0.0
 11
44.0
 21
50.4999999999999929
 31
0.0
  0
LINE
  5
591E
  8
0
 10
55.9999999999999929
 20
50.4999999999999929
 30
0.0
 11
56.0
 21
55.3999999999999133
 31
0.0
  0
ARC
  5
5920
  8
0
 10
54.9999999999999432
 20
57.6499999999999986
 30
0.0
 40
2.249999999999996
 50
294.2445058254770061
 51
65.7554941745192565
  0
ARC
  5
5921
  8
0
 10
61.5720895873013205
 20
57.6499999999998209
 30
0.0
 40
6.0092164521602198
 50
158.0112301569429007
 51
201.9887698430570993
  0
LINE
  5
5922
  8
1
 10
54.0628731351411034
 20
57.6499999999997996
 30
0.0
 11
58.7499999999999432
 21
57.6499999999998067
 31
0.0
  0
ARC
  5
5923
  8
0
 10
45.0000000000000568
 20
57.6499999999999986
 30
0.0
 40
2.249999999999996
 50
114.2445058254807009
 51
245.755494174522795
  0
ARC
  5
5924
  8
0
 10
38.4279104126986795
 20
57.6499999999998209
 30
0.0
 40
6.0092164521602198
 50
338.0112301569428723
 51
21.9887698430570993
  0
LINE
  5
5925
  8
1
 10
45.9371268648588895
 20
57.6499999999998067
 30
0.0
 11
41.2500000000000568
 21
57.6499999999998067
 31
0.0
  0
LINE
  5
5926
  8
0
 10
122.7113248654041939
 20
50.0
 30
0.0
 11
111.2886751345939018
 21
50.0
 31
0.0
  0
LINE
  5
592A
  8
0
 10
110.9999999999990052
 20
99.899999999999622
 30
0.0
 11
110.9999999999990052
 21
50.4999999999999716
 31
0.0
  0
LINE
  5
592B
  8
0
 10
122.9999999999990052
 20
50.5000000000000213
 30
0.0
 11
122.9999999999990052
 21
99.899999999999622
 31
0.0
  0
CIRCLE
  5
592C
  8
0
 10
116.9999999999990052
 20
57.6499999999998209
 30
0.0
 40
2.2500000000002842
  0
LINE
  5
592E
  8
0
 10
44.0
 20
99.899999999999622
 30
0.0
 11
44.0
 21
59.9000000000000981
 31
0.0
  0
LINE
  5
592F
  8
0
 10
56.0
 20
59.9000000000001904
 30
0.0
 11
55.9999999999999929
 21
99.899999999999622
 31
0.0
  0
LINE
  5
5936
  8
1
 10
112.7499999999987068
 20
57.6499999999998067
 30
0.0
 11
121.2499999999993037
 21
57.6499999999998067
 31
0.0
  0
LINE
  5
5937
  8
0
 10
122.7113248654041939
 20
50.0
 30
0.0
 11
122.9999999999990052
 21
50.5
 31
0.0
  0
LINE
  5
5938
  8
0
 10
110.9999999999990052
 20
50.5
 30
0.0
 11
111.2886751345938023
 21
50.0
 31
0.0
  0
LINE
  5
5939
  8
0
 10
122.9999999999990052
 20
50.5
 30
0.0
 11
110.9999999999990052
 21
50.5
 31
0.0
  0
LINE
  5
593A
  8
0
 10
55.7113248654051674
 20
50.0
 30
0.0
 11
55.9999999999999929
 21
50.4999999999999929
 31
0.0
  0
LINE
  5
593B
  8
0
 10
44.0
 20
50.4999999999999929
 30
0.0
 11
44.2886751345948184
 21
50.0
 31
0.0
  0
LINE
  5
593C
  8
0
 10
56.0
 20
50.5
 30
0.0
 11
44.0
 21
50.5
 31
0.0
  0
ENDSEC
  0
EOF
