  0
SECTION
  2
HEADER
  9
$ACADVER
  1
AC1009
  9
$INSBASE
 10
0.0
 20
0.0
 30
0.0
  9
$EXTMIN
 10
0.0
 20
-2.960436562073669
 30
0.0
  9
$EXTMAX
 10
229.7999999999991019
 20
214.1000027492096933
 30
0.0
  9
$LIMMIN
 10
0.0
 20
0.0
  9
$LIMMAX
 10
187.5
 20
135.0
  9
$ORTHOMODE
 70
     1
  9
$REGENMODE
 70
     1
  9
$FILLMODE
 70
     1
  9
$QTEXTMODE
 70
     0
  9
$MIRRTEXT
 70
     0
  9
$DRAGMODE
 70
     2
  9
$LTSCALE
 40
5.0
  9
$OSMODE
 70
    37
  9
$ATTMODE
 70
     1
  9
$TEXTSIZE
 40
4.0
  9
$TRACEWID
 40
0.05
  9
$TEXTSTYLE
  7
STANDARD
  9
$CLAYER
  8
0
  9
$CELTYPE
  6
BYLAYER
  9
$CECOLOR
 62
   256
  9
$DIMSCALE
 40
0.5
  9
$DIMASZ
 40
3.0
  9
$DIMEXO
 40
2.0
  9
$DIMDLI
 40
0.38
  9
$DIMRND
 40
0.0
  9
$DIMDLE
 40
0.0
  9
$DIMEXE
 40
2.0
  9
$DIMTP
 40
0.0
  9
$DIMTM
 40
0.0
  9
$DIMTXT
 40
3.0
  9
$DIMCEN
 40
0.0
  9
$DIMTSZ
 40
0.0
  9
$DIMTOL
 70
     0
  9
$DIMLIM
 70
     0
  9
$DIMTIH
 70
     0
  9
$DIMTOH
 70
     0
  9
$DIMSE1
 70
     0
  9
$DIMSE2
 70
     0
  9
$DIMTAD
 70
     1
  9
$DIMZIN
 70
     0
  9
$DIMBLK
  1

  9
$DIMASO
 70
     0
  9
$DIMSHO
 70
     0
  9
$DIMPOST
  1

  9
$DIMAPOST
  1

  9
$DIMALT
 70
     0
  9
$DIMALTD
 70
     2
  9
$DIMALTF
 40
25.3999999999999986
  9
$DIMLFAC
 40
1.0
  9
$DIMTOFL
 70
     0
  9
$DIMTVP
 40
1.6000000000000001
  9
$DIMTIX
 70
     1
  9
$DIMSOXD
 70
     0
  9
$DIMSAH
 70
     0
  9
$DIMBLK1
  1

  9
$DIMBLK2
  1

  9
$DIMSTYLE
  2
STANDARD
  9
$DIMCLRD
 70
     0
  9
$DIMCLRE
 70
     0
  9
$DIMCLRT
 70
     0
  9
$DIMTFAC
 40
1.0
  9
$DIMGAP
 40
0.09
  9
$LUNITS
 70
     2
  9
$LUPREC
 70
     1
  9
$SKETCHINC
 40
0.1
  9
$FILLETRAD
 40
1.0
  9
$AUNITS
 70
     0
  9
$AUPREC
 70
     0
  9
$MENU
  1
E:\r13\win\SUPPORT\ACAD
  9
$ELEVATION
 40
0.0
  9
$PELEVATION
 40
0.0
  9
$THICKNESS
 40
0.0
  9
$LIMCHECK
 70
     0
  9
$BLIPMODE
 70
     0
  9
$CHAMFERA
 40
0.0
  9
$CHAMFERB
 40
0.0
  9
$SKPOLY
 70
     0
  9
$TDCREATE
 40
2449840.6143865738995373
  9
$TDUPDATE
 40
2460864.3915740740485489
  9
$TDINDWG
 40
0.6567750347
  9
$TDUSRTIMER
 40
0.6567750347
  9
$USRTIMER
 70
     1
  9
$ANGBASE
 50
0.0
  9
$ANGDIR
 70
     0
  9
$PDMODE
 70
     0
  9
$PDSIZE
 40
0.0
  9
$PLINEWID
 40
0.0
  9
$COORDS
 70
     1
  9
$SPLFRAME
 70
     0
  9
$SPLINETYPE
 70
     6
  9
$SPLINESEGS
 70
     8
  9
$ATTDIA
 70
     1
  9
$ATTREQ
 70
     1
  9
$HANDLING
 70
     1
  9
$HANDSEED
  5
552E
  9
$SURFTAB1
 70
     6
  9
$SURFTAB2
 70
     6
  9
$SURFTYPE
 70
     6
  9
$SURFU
 70
     6
  9
$SURFV
 70
     6
  9
$UCSNAME
  2

  9
$UCSORG
 10
0.0
 20
0.0
 30
0.0
  9
$UCSXDIR
 10
1.0
 20
0.0
 30
0.0
  9
$UCSYDIR
 10
0.0
 20
1.0
 30
0.0
  9
$PUCSNAME
  2

  9
$PUCSORG
 10
0.0
 20
0.0
 30
0.0
  9
$PUCSXDIR
 10
1.0
 20
0.0
 30
0.0
  9
$PUCSYDIR
 10
0.0
 20
1.0
 30
0.0
  9
$USERI1
 70
     0
  9
$USERI2
 70
     1
  9
$USERI3
 70
     1
  9
$USERI4
 70
     0
  9
$USERI5
 70
     0
  9
$USERR1
 40
0.0
  9
$USERR2
 40
0.0
  9
$USERR3
 40
0.0
  9
$USERR4
 40
0.0
  9
$USERR5
 40
0.0
  9
$WORLDVIEW
 70
     1
  9
$SHADEDGE
 70
     3
  9
$SHADEDIF
 70
    70
  9
$TILEMODE
 70
     1
  9
$MAXACTVP
 70
    16
  9
$PLIMCHECK
 70
     0
  9
$PEXTMIN
 10
1.0000000000000000E+20
 20
1.0000000000000000E+20
 30
1.0000000000000000E+20
  9
$PEXTMAX
 10
-1.0000000000000000E+20
 20
-1.0000000000000000E+20
 30
-1.0000000000000000E+20
  9
$PLIMMIN
 10
0.0
 20
0.0
  9
$PLIMMAX
 10
12.0
 20
9.0
  9
$UNITMODE
 70
     0
  9
$VISRETAIN
 70
     0
  9
$PLINEGEN
 70
     0
  9
$PSLTSCALE
 70
     0
  0
ENDSEC
  0
SECTION
  2
TABLES
  0
TABLE
  2
VPORT
 70
     1
  0
VPORT
  2
*ACTIVE
 70
     0
 10
0.0
 20
0.0
 11
1.0
 21
1.0
 12
404.6189376443418269
 22
172.2866163435791975
 13
0.0
 23
0.0
 14
5.0
 24
5.0
 15
5.0
 25
5.0
 16
0.0
 26
0.0
 36
1.0
 17
0.0
 27
0.0
 37
0.0
 40
344.573232687158395
 41
2.3485221674876842
 42
50.0
 43
0.0
 44
0.0
 50
0.0
 51
0.0
 71
     0
 72
   100
 73
     1
 74
     0
 75
     0
 76
     0
 77
     0
 78
     0
  0
ENDTAB
  0
TABLE
  2
LTYPE
 70
     3
  0
LTYPE
  2
CONTINUOUS
 70
     0
  3
Solid Line
 72
    65
 73
     0
 40
0.0
  0
LTYPE
  2
CENTER
 70
     0
  3
____ _ ____ _ ____ _ ____ _ ____ _ ____ _ ____
 72
    65
 73
     4
 40
2.0
 49
1.25
 49
-0.25
 49
0.25
 49
-0.25
  0
LTYPE
  2
PHANTOM2
 70
     0
  3
___ _ _ ___ _ _ ___ _ _ ___ _ _
 72
    65
 73
     6
 40
1.25
 49
0.625
 49
-0.125
 49
0.125
 49
-0.125
 49
0.125
 49
-0.125
  0
ENDTAB
  0
TABLE
  2
LAYER
 70
     3
  0
LAYER
  2
0
 70
     0
 62
     7
  6
CONTINUOUS
  0
LAYER
  2
1
 70
     0
 62
     1
  6
CENTER
  0
LAYER
  2
3
 70
     0
 62
     3
  6
CONTINUOUS
  0
ENDTAB
  0
TABLE
  2
STYLE
 70
     2
  0
STYLE
  2
STANDARD
 70
     0
 40
0.0
 41
1.0
 50
0.0
 71
     0
 42
4.0
  3
TXT
  4
BIGFONT
  0
STYLE
  2
STANDARD1
 70
     0
 40
0.0
 41
1.0
 50
0.0
 71
     0
 42
3.0
  3
txt
  4

  0
ENDTAB
  0
TABLE
  2
VIEW
 70
     1
  0
VIEW
  2
ALL
 70
     0
 40
179.6615229999999883
 10
141.9039180000000044
 20
89.8307609999999954
 41
0.0
 11
0.0
 21
0.0
 31
1.0
 12
0.0
 22
0.0
 32
0.0
 42
0.0
 43
0.0
 44
0.0
 50
0.0
 71
     0
  0
ENDTAB
  0
TABLE
  2
UCS
 70
     0
  0
ENDTAB
  0
TABLE
  2
APPID
 70
    13
  0
APPID
  2
ACAD
 70
     0
  0
APPID
  2
DCO15
 70
     0
  0
APPID
  2
ACAD_EXEMPT_FROM_CAD_STANDARDS
 70
     0
  0
APPID
  2
ACAD_MLEADERVER
 70
     0
  0
APPID
  2
ACAD_NAV_VCDISPLAY
 70
     0
  0
APPID
  2
ACAD_DSTYLE_DIMJAG
 70
     0
  0
APPID
  2
ACAD_DSTYLE_DIMTALN
 70
     0
  0
APPID
  2
ACAD_PSEXT
 70
     0
  0
APPID
  2
ACAD_DSTYLE_DIMBREAK
 70
     0
  0
APPID
  2
ACAECLAYERSTANDARD
 70
     0
  0
APPID
  2
ACCMTRANSPARENCY
 70
     0
  0
APPID
  2
GRADIENTCOLOR1ACI
 70
     0
  0
APPID
  2
GRADIENTCOLOR2ACI
 70
     0
  0
ENDTAB
  0
TABLE
  2
DIMSTYLE
 70
     1
  0
DIMSTYLE
  2
STANDARD
 70
     0
  3

  4

  5

  6

  7

 40
1.0
 41
0.18
 42
0.0625
 43
0.38
 44
0.18
 45
0.0
 46
0.0
 47
0.0
 48
0.0
140
0.18
141
0.09
142
0.0
143
25.3999999999999986
144
1.0
145
0.0
146
1.0
147
0.09
 71
     0
 72
     0
 73
     1
 74
     1
 75
     0
 76
     0
 77
     0
 78
     0
170
     0
171
     2
172
     0
173
     0
174
     0
175
     0
176
     0
177
     0
178
     0
  0
ENDTAB
  0
ENDSEC
  0
SECTION
  2
BLOCKS
  0
BLOCK
  8
0
  2
$MODEL_SPACE
 70
     0
 10
0.0
 20
0.0
 30
0.0
  3
$MODEL_SPACE
  1

  0
ENDBLK
  5
1BD
  8
0
  0
BLOCK
 67
     1
  8
0
  2
$PAPER_SPACE
 70
     0
 10
0.0
 20
0.0
 30
0.0
  3
$PAPER_SPACE
  1

  0
ENDBLK
  5
1BB
 67
     1
  8
0
  0
ENDSEC
  0
SECTION
  2
ENTITIES
  0
TEXT
  5
189A
  8
0
 62
     3
 10
0.0
 20
0.0
 30
0.0
 40
10.0
  1
BLPLR08020
  7
STANDARD1
  0
ARC
  5
28D8
  8
0
 10
60.2011291330219933
 20
123.5011291330219052
 30
0.0
 40
0.7988716649422317
 50
359.9190175580811228
 51
90.0809824419179535
  0
ARC
  5
28D9
  8
0
 10
39.7990112328383319
 20
123.5009887671618998
 30
0.0
 40
0.799011844631771
 50
89.9290971715546732
 51
180.0709028284638009
  0
ARC
  5
28DA
  8
0
 10
53.000103303807748
 20
114.0999733972296042
 30
0.0
 40
7.999896696236493
 50
331.1178378048535933
 51
0.0001905307687144
  0
ARC
  5
28DB
  8
0
 10
46.992363239154372
 20
114.0980333891173046
 30
0.0
 40
7.9923634811077333
 50
179.9859017292033059
 51
208.8960699379568098
  0
ARC
  5
28DC
  8
0
 10
63.4921745202440775
 20
108.309338722905494
 30
0.0
 40
3.9840518118006059
 50
151.0805470320293011
 51
169.7170213606698042
  0
ARC
  5
28DD
  8
0
 10
36.4910859036901414
 20
108.3033776277029006
 30
0.0
 40
4.0015876677381801
 50
10.3241746934864196
 51
28.8782569138138712
  0
ARC
  5
28DE
  8
0
 10
55.9999632433079526
 20
98.3761929206360151
 30
0.0
 40
4.0000367566945929
 50
0.0000645612076508
 51
13.9822460852967403
  0
ARC
  5
28DF
  8
0
 10
44.0017379227999186
 20
98.3759843098612947
 30
0.0
 40
4.0017379284748786
 50
166.0207407070849968
 51
179.9969486347231111
  0
LINE
  5
28E0
  8
0
 10
60.0
 20
81.2999999999999972
 30
0.0
 11
60.0
 21
93.7999999999999972
 31
0.0
  0
LINE
  5
28E1
  8
0
 10
40.0
 20
93.7999999999999972
 30
0.0
 11
40.0
 21
81.2999999999999972
 31
0.0
  0
LINE
  5
28E2
  8
0
 10
60.0
 20
96.2999999999999972
 30
0.0
 11
60.0
 21
98.3761974279000242
 31
0.0
  0
LINE
  5
28E3
  8
0
 10
40.0
 20
98.3761974279000242
 30
0.0
 11
40.0
 21
96.2999999999999972
 31
0.0
  0
LINE
  5
28E4
  8
0
 10
40.0
 20
81.2999999999999972
 30
0.0
 11
40.2886751345999912
 21
80.7999999999999972
 31
0.0
  0
LINE
  5
28E5
  8
0
 10
59.7113248654000017
 20
80.7999999999999972
 30
0.0
 11
60.0
 21
81.2999999999999972
 31
0.0
  0
ARC
  5
28E6
  8
0
 10
82.1997596608960066
 20
104.8999923171862036
 30
0.0
 40
22.999764925734631
 50
169.6794139690236989
 51
193.9824367414560129
  0
ARC
  5
28E7
  8
0
 10
17.7999641694430011
 20
104.9000011453828023
 30
0.0
 40
23.0000350457227896
 50
346.017708148766701
 51
10.3204411407536796
  0
LINE
  5
28E8
  8
0
 10
59.0
 20
93.7999999999999972
 30
0.0
 11
59.0
 21
96.2999999999999972
 31
0.0
  0
LINE
  5
28E9
  8
0
 10
41.0
 20
96.2999999999999972
 30
0.0
 11
41.0
 21
93.7999999999999972
 31
0.0
  0
ARC
  5
28EA
  8
0
 10
55.9507032273834781
 20
124.5007032273834966
 30
0.0
 40
0.4992972678415796
 50
359.9193026338629124
 51
90.08069736613038
  0
ARC
  5
28EB
  8
0
 10
44.0498738800653769
 20
124.5001261199346061
 30
0.0
 40
0.4998738959756021
 50
89.9855440740121253
 51
180.0144559259898926
  0
LINE
  5
28EC
  8
0
 10
56.4500000000000384
 20
124.2999999999999972
 30
0.0
 11
56.4500000000000384
 21
124.5
 31
0.0
  0
LINE
  5
28ED
  8
0
 10
43.5500000000000114
 20
124.5
 30
0.0
 11
43.5500000000000114
 21
124.2999999999999972
 31
0.0
  0
LINE
  5
28EE
  8
0
 10
54.0
 20
60.7999552464000104
 30
0.0
 11
54.0000000000000497
 21
80.7999999999999829
 31
0.0
  0
LINE
  5
28EF
  8
0
 10
54.0
 20
53.4999999999999005
 30
0.0
 11
54.0
 21
57.8001002039000085
 31
0.0
  0
LINE
  5
28F0
  8
0
 10
46.0
 20
57.8000447535999982
 30
0.0
 11
46.0
 21
53.4999999999999005
 31
0.0
  0
LINE
  5
28F1
  8
0
 10
46.0000000000000497
 20
80.7999999999999972
 30
0.0
 11
46.0
 21
60.7998997962000018
 31
0.0
  0
LINE
  5
28F4
  8
0
 10
46.0
 20
53.4999999999999005
 30
0.0
 11
46.2886751345999983
 21
53.0
 31
0.0
  0
LINE
  5
28F5
  8
0
 10
53.7113248654000017
 20
53.0
 30
0.0
 11
54.0
 21
53.4999999999999005
 31
0.0
  0
LINE
  5
28F8
  8
0
 10
61.0
 20
120.7999999999999972
 30
0.0
 11
61.0
 21
123.5
 31
0.0
  0
LINE
  5
28F9
  8
0
 10
61.0
 20
114.0999999999999943
 30
0.0
 11
61.0
 21
118.799999999994796
 31
0.0
  0
LINE
  5
28FA
  8
0
 10
39.0
 20
118.7999999999999972
 30
0.0
 11
39.0
 21
114.0999999999999943
 31
0.0
  0
LINE
  5
28FB
  8
0
 10
39.0
 20
123.5
 30
0.0
 11
39.0000000000000568
 21
120.7999999999999972
 31
0.0
  0
LINE
  5
290F
  8
0
 10
46.721280737900031
 20
114.0999999999999943
 30
0.0
 11
46.721280737900031
 21
123.5
 31
0.0
  0
LINE
  5
2911
  8
0
 10
53.2787192622000205
 20
123.5
 30
0.0
 11
53.2787192622000205
 21
114.0999999999999943
 31
0.0
  0
LINE
  5
2913
  8
0
 10
57.4539071087000366
 20
123.5
 30
0.0
 11
53.2787192622000205
 21
123.5
 31
0.0
  0
LINE
  5
2914
  8
0
 10
46.721280737900031
 20
123.5
 30
0.0
 11
42.5460928914000078
 21
123.5
 31
0.0
  0
LINE
  5
2916
  8
0
 10
60.2000000000000384
 20
124.2999999999999972
 30
0.0
 11
39.8000000000000114
 21
124.2999999999999972
 31
0.0
  0
LINE
  5
2918
  8
0
 10
46.721280737900031
 20
114.0999999999999943
 30
0.0
 11
42.5460928914000078
 21
114.0999999999999943
 31
0.0
  0
LINE
  5
2919
  8
0
 10
57.4539071087000366
 20
114.0999999999999943
 30
0.0
 11
53.2787192622000205
 21
114.0999999999999943
 31
0.0
  0
LINE
  5
291B
  8
0
 10
57.4539071087000366
 20
114.0999999999999943
 30
0.0
 11
57.4539071087000366
 21
123.5
 31
0.0
  0
LINE
  5
291C
  8
0
 10
42.5460928914000078
 20
123.5
 30
0.0
 11
42.5460928914000078
 21
114.0999999999999943
 31
0.0
  0
LINE
  5
291D
  8
0
 10
60.0
 20
81.2999999999999972
 30
0.0
 11
40.0
 21
81.2999999999999972
 31
0.0
  0
LINE
  5
291E
  8
0
 10
60.0
 20
93.7999999999999972
 30
0.0
 11
40.0
 21
93.7999999999999972
 31
0.0
  0
LINE
  5
291F
  8
0
 10
60.0
 20
96.2999999999999972
 30
0.0
 11
40.0
 21
96.2999999999999972
 31
0.0
  0
LINE
  5
2920
  8
0
 10
59.7113248654000017
 20
80.7999999999999972
 30
0.0
 11
40.2886751345999912
 21
80.7999999999999972
 31
0.0
  0
LINE
  5
2921
  8
0
 10
60.7326263708000624
 20
123.5
 30
0.0
 11
60.7326263708000624
 21
114.0999999999999943
 31
0.0
  0
LINE
  5
2922
  8
0
 10
39.2673736292000513
 20
114.0999999999999943
 30
0.0
 11
39.2673736292000513
 21
123.5
 31
0.0
  0
LINE
  5
2923
  8
0
 10
55.9500000000000526
 20
125.0
 30
0.0
 11
44.0500000000000114
 21
125.0
 31
0.0
  0
LINE
  5
2927
  8
0
 10
54.0
 20
53.4999999999999005
 30
0.0
 11
46.0
 21
53.4999999999999005
 31
0.0
  0
LINE
  5
2929
  8
0
 10
53.7113248654000017
 20
53.0
 30
0.0
 11
46.2886751345999983
 21
53.0
 31
0.0
  0
LINE
  5
2936
  8
0
 10
61.0
 20
123.5
 30
0.0
 11
60.7326263708000624
 21
123.5
 31
0.0
  0
LINE
  5
2937
  8
0
 10
39.2673736292000513
 20
123.5
 30
0.0
 11
39.0
 21
123.5
 31
0.0
  0
LINE
  5
2938
  8
0
 10
60.0049324024000086
 20
110.2359448712000045
 30
0.0
 11
39.9950675977000287
 21
110.2359448712000045
 31
0.0
  0
LINE
  5
2939
  8
0
 10
39.2673736292000513
 20
114.0999999999999943
 30
0.0
 11
39.0
 21
114.0999999999999943
 31
0.0
  0
LINE
  5
293A
  8
0
 10
61.0
 20
114.0999999999999943
 30
0.0
 11
60.7326263708000624
 21
114.0999999999999943
 31
0.0
  0
LINE
  5
293B
  8
0
 10
59.5721140990000322
 20
109.0205314765999987
 30
0.0
 11
40.4278859011000122
 21
109.0205314765999987
 31
0.0
  0
LINE
  5
293C
  8
0
 10
60.0
 20
98.3761974279000242
 30
0.0
 11
40.0
 21
98.3761974279000242
 31
0.0
  0
LINE
  5
293D
  8
0
 10
59.8814814815000318
 20
99.3426866979000067
 30
0.0
 11
40.1185185186000126
 21
99.3426866979000067
 31
0.0
  0
ARC
  5
2957
  8
0
 10
51.0999999999999304
 20
201.5500027492120978
 30
0.0
 40
2.6457513110645912
 50
1.082852917500825
 51
178.9171470824992127
  0
ARC
  5
295F
  8
0
 10
49.9999999999999574
 20
200.6000027492121092
 30
0.0
 40
6.4500000000000091
 50
8.9190441940425131
 51
171.0809558059575011
  0
ARC
  5
2960
  8
0
 10
49.9999999999999574
 20
200.6000027492121092
 30
0.0
 40
6.4500000000000064
 50
188.4697264838993931
 51
351.0809558059606275
  0
ARC
  5
2965
  8
0
 10
49.8476185125463402
 20
200.3360702708019971
 30
0.0
 40
11.29755260017461
 50
47.6801509953130278
 51
72.3198490046913349
  0
ARC
  5
2967
  8
0
 10
49.9594212400963471
 20
200.6009935121269052
 30
0.0
 40
11.0398123857902508
 50
347.3825769457100137
 51
354.79778995003619
  0
ARC
  5
2969
  8
0
 10
49.9668265488102321
 20
200.6574608521372056
 30
0.0
 40
11.0647437810211802
 50
287.4167306283001722
 51
312.5832693716989752
  0
ARC
  5
296B
  8
0
 10
50.0582243304148307
 20
200.7008502477299032
 30
0.0
 40
11.1136474762674808
 50
227.4730027233784142
 51
252.5269972766222963
  0
ARC
  5
2970
  8
0
 10
50.0937977238644621
 20
200.4375403258148935
 30
0.0
 40
11.18311118388878
 50
107.5520658880532068
 51
132.4479341117593094
  0
ARC
  5
2977
  8
0
 10
49.9999999999999574
 20
200.6000027492121092
 30
0.0
 40
7.5500000000000052
 50
7.6112106176016203
 51
172.3887893823983859
  0
ARC
  5
2978
  8
0
 10
49.9999999999999574
 20
200.6000027492121092
 30
0.0
 40
7.5500000000000016
 50
187.2285635296994997
 51
352.3887893824012281
  0
LINE
  5
2999
  8
0
 10
115.9998868313775944
 20
149.0999999999999943
 30
0.0
 11
115.999886831385993
 21
119.8000079135691038
 31
0.0
  0
LINE
  5
299A
  8
0
 10
117.9998868313009979
 20
119.8000079135775024
 30
0.0
 11
117.9998868313915068
 21
149.0999999999999091
 31
0.0
  0
ARC
  5
299D
  8
0
 10
116.9999999999992042
 20
149.0999999999999943
 30
0.0
 40
1.0000027492144641
 50
359.8656490015445115
 51
180.1343509997327885
  0
ARC
  5
29A0
  8
0
 10
127.2000126925503025
 20
123.5000652929944067
 30
0.0
 40
0.7999347071062188
 50
67.9976050201010764
 51
90.0009091112152362
  0
ARC
  5
29A1
  8
0
 10
106.7961701515866935
 20
123.520084602173597
 30
0.0
 40
0.7799248012855049
 50
89.7186444268368746
 51
112.3174927859356984
  0
ARC
  5
29A2
  8
0
 10
120.2292039246303972
 20
113.9894038272870063
 30
0.0
 40
7.745898949645535
 50
331.0154534727964801
 51
339.8283806634443067
  0
ARC
  5
29A3
  8
0
 10
113.8734051627098012
 20
114.0363322111242042
 30
0.0
 40
7.8584013381663764
 50
200.2348041528651095
 51
208.9213257574608065
  0
ARC
  5
29A4
  8
0
 10
130.5084536297989075
 20
108.3035416037856038
 30
0.0
 40
4.0011052697292309
 50
151.1206147133794957
 51
169.676953687687103
  0
ARC
  5
29A5
  8
0
 10
103.4913694365448009
 20
108.3034785963143065
 30
0.0
 40
4.0012906302899749
 50
10.3234799218407396
 51
28.8789516771016892
  0
LINE
  5
29A6
  8
0
 10
106.9999999999991047
 20
81.2999999999999972
 30
0.0
 11
107.288675134599103
 21
80.7999999999999972
 31
0.0
  0
LINE
  5
29A7
  8
0
 10
126.7113248653991064
 20
80.7999999999999972
 30
0.0
 11
126.9999999999991047
 21
81.2999999999999972
 31
0.0
  0
ARC
  5
29A8
  8
0
 10
123.0188631075184986
 20
98.3785105706873253
 30
0.0
 40
3.981137564478177
 50
359.9667096842460978
 51
14.0156009622584694
  0
ARC
  5
29A9
  8
0
 10
111.0004172519795986
 20
98.3761462613100548
 30
0.0
 40
4.0004172523078143
 50
166.0184221844662886
 51
179.9992671690293946
  0
LINE
  5
29AA
  8
0
 10
126.9999999999991047
 20
81.2999999999999972
 30
0.0
 11
126.9999999999991047
 21
93.7999999999999972
 31
0.0
  0
LINE
  5
29AB
  8
0
 10
106.9999999999991047
 20
93.7999999999999972
 30
0.0
 11
106.9999999999991047
 21
81.2999999999999972
 31
0.0
  0
LINE
  5
29AC
  8
0
 10
126.9999999999991047
 20
96.2999999999999972
 30
0.0
 11
126.9999999999991047
 21
98.3761974279000242
 31
0.0
  0
LINE
  5
29AD
  8
0
 10
106.9999999999991047
 20
98.3761974279000242
 30
0.0
 11
106.9999999999991047
 21
96.2999999999999972
 31
0.0
  0
ARC
  5
29AE
  8
0
 10
149.2000250001202062
 20
104.9000007991678984
 30
0.0
 40
23.0000244524377813
 50
169.6795531771581125
 51
193.9822975333212014
  0
ARC
  5
29AF
  8
0
 10
84.7999553972352942
 20
104.9000014257971003
 30
0.0
 40
23.0000436256703082
 50
346.0177127509247725
 51
10.3204365385936701
  0
LINE
  5
29B0
  8
0
 10
125.9999999999991047
 20
93.7999999999999972
 30
0.0
 11
125.9999999999991047
 21
96.2999999999999972
 31
0.0
  0
LINE
  5
29B1
  8
0
 10
107.9999999999991047
 20
96.2999999999999972
 30
0.0
 11
107.9999999999991047
 21
93.7999999999999972
 31
0.0
  0
ARC
  5
29B3
  8
0
 10
122.9559155691108998
 20
124.5059155691118065
 30
0.0
 40
0.4941198425525034
 50
359.3140424420569161
 51
90.6859575579343442
  0
ARC
  5
29B4
  8
0
 10
111.0351022572257023
 20
124.5148977427733001
 30
0.0
 40
0.4853309620312647
 50
88.2409696562823882
 51
181.7590303437154091
  0
LINE
  5
29B5
  8
0
 10
123.449999999999207
 20
124.2999999999999972
 30
0.0
 11
123.449999999999207
 21
124.5
 31
0.0
  0
LINE
  5
29B6
  8
0
 10
110.5499999999991019
 20
124.5
 30
0.0
 11
110.5499999999991019
 21
124.2999999999999972
 31
0.0
  0
LINE
  5
29B8
  8
0
 10
120.9999999999991047
 20
53.5000000000000568
 30
0.0
 11
120.9999999999991047
 21
80.7999999999999972
 31
0.0
  0
LINE
  5
29B9
  8
0
 10
112.9999999999991047
 20
80.7999999999999972
 30
0.0
 11
112.9999999999991047
 21
53.5000000000000568
 31
0.0
  0
LINE
  5
29BA
  8
0
 10
112.9999999999991047
 20
53.5000000000000568
 30
0.0
 11
113.288675134599103
 21
53.0
 31
0.0
  0
LINE
  5
29BB
  8
0
 10
120.7113248653991064
 20
53.0
 30
0.0
 11
120.9999999999991047
 21
53.5000000000000568
 31
0.0
  0
ARC
  5
29C2
  8
0
 10
116.9998868313435025
 20
119.7991947632248042
 30
0.0
 40
1.0000003305641161
 50
179.9534099274262076
 51
0.0465900730525043
  0
LINE
  5
29C3
  8
0
 10
119.4105458270989999
 20
114.0999999999999943
 30
0.0
 11
114.5894541728989964
 21
114.0999999999999943
 31
0.0
  0
LINE
  5
29C4
  8
0
 10
114.5894541728989964
 20
123.5
 30
0.0
 11
114.5894541728989964
 21
114.0999999999999943
 31
0.0
  0
LINE
  5
29C5
  8
0
 10
119.4105458270989999
 20
114.0999999999999943
 30
0.0
 11
119.4105458270989999
 21
123.5
 31
0.0
  0
LINE
  5
29C7
  8
0
 10
127.4999999999991047
 20
123.5
 30
0.0
 11
125.0894541728989964
 21
123.5
 31
0.0
  0
LINE
  5
29CA
  8
0
 10
108.9105458270990994
 20
123.5
 30
0.0
 11
106.4999999999991047
 21
123.5
 31
0.0
  0
LINE
  5
29CC
  8
0
 10
127.199999999999207
 20
124.2999999999999972
 30
0.0
 11
118.6422613286991066
 21
124.2999999999999972
 31
0.0
  0
LINE
  5
29CD
  8
0
 10
116.6226061835992027
 20
124.2999999999999972
 30
0.0
 11
106.8000000201991071
 21
124.2999999999999972
 31
0.0
  0
LINE
  5
29CE
  8
0
 10
127.4999999999991047
 20
114.0999999999999943
 30
0.0
 11
125.0894541728989964
 21
114.0999999999999943
 31
0.0
  0
LINE
  5
29D1
  8
0
 10
108.9105458270990994
 20
114.0999999999999943
 30
0.0
 11
106.4999999999991047
 21
114.0999999999999943
 31
0.0
  0
LINE
  5
29D4
  8
0
 10
108.9105458270990994
 20
114.0999999999999943
 30
0.0
 11
108.9105458270990994
 21
123.5
 31
0.0
  0
LINE
  5
29D5
  8
0
 10
125.0894541728989964
 20
123.5
 30
0.0
 11
125.0894541728989964
 21
114.0999999999999943
 31
0.0
  0
LINE
  5
29D6
  8
0
 10
126.7113248653991064
 20
80.7999999999999972
 30
0.0
 11
107.288675134599103
 21
80.7999999999999972
 31
0.0
  0
LINE
  5
29D7
  8
0
 10
126.9999999999991047
 20
81.2999999999999972
 30
0.0
 11
106.9999999999991047
 21
81.2999999999999972
 31
0.0
  0
LINE
  5
29D8
  8
0
 10
126.9999999999991047
 20
93.7999999999999972
 30
0.0
 11
106.9999999999991047
 21
93.7999999999999972
 31
0.0
  0
LINE
  5
29D9
  8
0
 10
126.9999999999991047
 20
96.2999999999999972
 30
0.0
 11
106.9999999999991047
 21
96.2999999999999972
 31
0.0
  0
LINE
  5
29DD
  8
0
 10
106.4999999999991047
 20
123.5
 30
0.0
 11
106.4999999999991047
 21
111.3183609275738064
 31
0.0
  0
LINE
  5
29DE
  8
0
 10
127.4999999999991047
 20
111.318360029719301
 30
0.0
 11
127.4999999999991047
 21
123.5
 31
0.0
  0
LINE
  5
29DF
  8
0
 10
122.949999999999207
 20
125.0
 30
0.0
 11
118.7406399129991001
 21
125.0
 31
0.0
  0
LINE
  5
29E0
  8
0
 10
116.7209847678991963
 20
125.0
 30
0.0
 11
111.0499999999991019
 21
125.0
 31
0.0
  0
LINE
  5
29E5
  8
0
 10
120.7113248653991064
 20
53.0
 30
0.0
 11
113.288675134599103
 21
53.0
 31
0.0
  0
LINE
  5
29E6
  8
0
 10
120.9999999999991047
 20
53.5000000000000568
 30
0.0
 11
112.9999999999991047
 21
53.5000000000000568
 31
0.0
  0
LINE
  5
29EB
  8
0
 10
119.4105458270989999
 20
123.5
 30
0.0
 11
118.5298286608990992
 21
123.5
 31
0.0
  0
LINE
  5
29EC
  8
0
 10
116.5101735158991971
 20
123.5
 30
0.0
 11
114.5894541728989964
 21
123.5
 31
0.0
  0
LINE
  5
29ED
  8
0
 10
127.0049324022991044
 20
110.2359448712000045
 30
0.0
 11
106.9950675976990055
 21
110.2359448712000045
 31
0.0
  0
LINE
  5
29EE
  8
0
 10
126.5721140989989948
 20
109.0205314765999987
 30
0.0
 11
107.427885900999101
 21
109.0205314765999987
 31
0.0
  0
LINE
  5
29EF
  8
0
 10
126.9999999999991047
 20
98.3761974279000242
 30
0.0
 11
106.9999999999991047
 21
98.3761974279000242
 31
0.0
  0
LINE
  5
29F0
  8
0
 10
126.8814814814991934
 20
99.3426866979000067
 30
0.0
 11
107.1185185184990019
 21
99.3426866979000067
 31
0.0
  0
POLYLINE
  5
4687
  8
0
 66
     1
 10
0.0
 20
0.0
 30
0.0
  0
VERTEX
  5
5311
  8
0
 10
125.0894541728989964
 20
114.0999999999999943
 30
0.0
  0
VERTEX
  5
5312
  8
0
 10
125.0729763672768939
 20
113.8029721914369929
 30
0.0
  0
VERTEX
  5
5313
  8
0
 10
125.0238128246156037
 20
113.5108624105530026
 30
0.0
  0
VERTEX
  5
5314
  8
0
 10
124.9436465229971986
 20
113.2281313507614016
 30
0.0
  0
VERTEX
  5
5315
  8
0
 10
124.835510698777199
 20
112.958071988925596
 30
0.0
  0
VERTEX
  5
5316
  8
0
 10
124.7024134279484002
 20
112.7026125623786044
 30
0.0
  0
VERTEX
  5
5317
  8
0
 10
124.5465252202317004
 20
112.4644510285713039
 30
0.0
  0
VERTEX
  5
5318
  8
0
 10
124.3700305018952008
 20
112.2463619446708947
 30
0.0
  0
VERTEX
  5
5319
  8
0
 10
124.175488383591599
 20
112.0497366801847932
 30
0.0
  0
VERTEX
  5
531A
  8
0
 10
123.9654940232621954
 20
111.8756389619724985
 30
0.0
  0
VERTEX
  5
531B
  8
0
 10
123.7424235214640049
 20
111.7251679611399027
 30
0.0
  0
VERTEX
  5
531C
  8
0
 10
123.5085873510931975
 20
111.5990522969372023
 30
0.0
  0
VERTEX
  5
531D
  8
0
 10
123.2662555567007985
 20
111.4966536834333937
 30
0.0
  0
VERTEX
  5
531E
  8
0
 10
123.0175815442888023
 20
111.4172258241682982
 30
0.0
  0
VERTEX
  5
531F
  8
0
 10
122.7643096123768061
 20
111.3607823448573981
 30
0.0
  0
VERTEX
  5
5320
  8
0
 10
122.5080308979868988
 20
111.3273235035942008
 30
0.0
  0
VERTEX
  5
5321
  8
0
 10
122.2501266721306052
 20
111.3161208859911966
 30
0.0
  0
VERTEX
  5
5322
  8
0
 10
121.991987254781705
 20
111.3265851194187945
 30
0.0
  0
VERTEX
  5
5323
  8
0
 10
121.7352420455079027
 20
111.3593982828839017
 30
0.0
  0
VERTEX
  5
5324
  8
0
 10
121.4815668652282028
 20
111.4153943503332016
 30
0.0
  0
VERTEX
  5
5325
  8
0
 10
121.232572190826204
 20
111.4946420101727966
 30
0.0
  0
VERTEX
  5
5326
  8
0
 10
120.990014078889601
 20
111.5971559253249978
 30
0.0
  0
VERTEX
  5
5327
  8
0
 10
120.7563433964365061
 20
111.7236149246173937
 30
0.0
  0
VERTEX
  5
5328
  8
0
 10
120.5340816831581066
 20
111.8745526073165024
 30
0.0
  0
VERTEX
  5
5329
  8
0
 10
120.3252577188306986
 20
112.0491102908424068
 30
0.0
  0
VERTEX
  5
532A
  8
0
 10
120.1318835872784945
 20
112.2460765970449046
 30
0.0
  0
VERTEX
  5
532B
  8
0
 10
119.9564248961114998
 20
112.4643335061198002
 30
0.0
  0
VERTEX
  5
532C
  8
0
 10
119.8012719243693027
 20
112.7024778548176016
 30
0.0
  0
VERTEX
  5
532D
  8
0
 10
119.6680756671655956
 20
112.9578799970873035
 30
0.0
  0
VERTEX
  5
532E
  8
0
 10
119.5588867101499062
 20
113.2278891505451952
 30
0.0
  0
VERTEX
  5
532F
  8
0
 10
119.4774426761432977
 20
113.5106304325980062
 30
0.0
  0
VERTEX
  5
5330
  8
0
 10
119.4272790547168057
 20
113.8028299497244973
 30
0.0
  0
VERTEX
  5
5331
  8
0
 10
119.4105458270989999
 20
114.0999999999999943
 30
0.0
  0
SEQEND
  5
5332
  8
0
  0
POLYLINE
  5
4688
  8
0
 66
     1
 10
0.0
 20
0.0
 30
0.0
  0
VERTEX
  5
5333
  8
0
 10
114.5894541728989964
 20
114.0999999999999943
 30
0.0
  0
VERTEX
  5
5334
  8
0
 10
114.5727995846953036
 20
113.8029721914369929
 30
0.0
  0
VERTEX
  5
5335
  8
0
 10
114.5230116734175994
 20
113.5108624105531021
 30
0.0
  0
VERTEX
  5
5336
  8
0
 10
114.4419449577161032
 20
113.228131350761501
 30
0.0
  0
VERTEX
  5
5337
  8
0
 10
114.3331565253943012
 20
112.958071988925596
 30
0.0
  0
VERTEX
  5
5338
  8
0
 10
114.2001636703278962
 20
112.7026125623783059
 30
0.0
  0
VERTEX
  5
5339
  8
0
 10
114.0449028239283962
 20
112.4644510285708066
 30
0.0
  0
VERTEX
  5
533A
  8
0
 10
113.8691985533914988
 20
112.2463619446704968
 30
0.0
  0
VERTEX
  5
533B
  8
0
 10
113.6754902017203932
 20
112.0497366801849068
 30
0.0
  0
VERTEX
  5
533C
  8
0
 10
113.4662703848032947
 20
111.8756389619734932
 30
0.0
  0
VERTEX
  5
533D
  8
0
 10
113.2436489592922015
 20
111.7251679611413948
 30
0.0
  0
VERTEX
  5
533E
  8
0
 10
113.009754420037595
 20
111.5990522969381971
 30
0.0
  0
VERTEX
  5
533F
  8
0
 10
112.7671249667929061
 20
111.4966536834333937
 30
0.0
  0
VERTEX
  5
5340
  8
0
 10
112.5181978654627954
 20
111.4172258241674029
 30
0.0
  0
VERTEX
  5
5341
  8
0
 10
112.2646754556202069
 20
111.3607823448562044
 30
0.0
  0
VERTEX
  5
5342
  8
0
 10
112.0081073123464961
 20
111.3273235035935045
 30
0.0
  0
VERTEX
  5
5343
  8
0
 10
111.7501255343085944
 20
111.3161208859910971
 30
0.0
  0
VERTEX
  5
5344
  8
0
 10
111.4923291865224968
 20
111.3265851194195051
 30
0.0
  0
VERTEX
  5
5345
  8
0
 10
111.2361024484314953
 20
111.359398282884797
 30
0.0
  0
VERTEX
  5
5346
  8
0
 10
110.9828290495820937
 20
111.4153943503338979
 30
0.0
  0
VERTEX
  5
5347
  8
0
 10
110.7341329997514947
 20
111.4946420101729956
 30
0.0
  0
VERTEX
  5
5348
  8
0
 10
110.4917994147403988
 20
111.597155925324401
 30
0.0
  0
VERTEX
  5
5349
  8
0
 10
110.2580172789714936
 20
111.723614924616399
 30
0.0
  0
VERTEX
  5
534A
  8
0
 10
110.0350774846445034
 20
111.8745526073159056
 30
0.0
  0
VERTEX
  5
534B
  8
0
 10
109.8252478571717035
 20
112.0491102908421936
 30
0.0
  0
VERTEX
  5
534C
  8
0
 10
109.6308561059744022
 20
112.2460765970447056
 30
0.0
  0
VERTEX
  5
534D
  8
0
 10
109.4544870772471938
 20
112.4643335061193028
 30
0.0
  0
VERTEX
  5
534E
  8
0
 10
109.2986618978638944
 20
112.7024778548171042
 30
0.0
  0
VERTEX
  5
534F
  8
0
 10
109.165398831997507
 20
112.9578799970871046
 30
0.0
  0
VERTEX
  5
5350
  8
0
 10
109.0569643752290006
 20
113.2278891505453942
 30
0.0
  0
VERTEX
  5
5351
  8
0
 10
108.9765261826886018
 20
113.5106304325981057
 30
0.0
  0
VERTEX
  5
5352
  8
0
 10
108.927070135405998
 20
113.8028299497244973
 30
0.0
  0
VERTEX
  5
5353
  8
0
 10
108.9105458270990994
 20
114.0999999999999943
 30
0.0
  0
SEQEND
  5
5354
  8
0
  0
POLYLINE
  5
468B
  8
0
 66
     1
 10
0.0
 20
0.0
 30
0.0
  0
VERTEX
  5
5355
  8
0
 10
106.5000025880739969
 20
124.2415882196166024
 30
0.0
  0
VERTEX
  5
5356
  8
0
 10
106.5002895184062055
 20
124.2396704002752017
 30
0.0
  0
VERTEX
  5
5357
  8
0
 10
106.5005312170258946
 20
124.2359376895962981
 30
0.0
  0
VERTEX
  5
5358
  8
0
 10
106.5006796484839953
 20
124.2286801850614069
 30
0.0
  0
VERTEX
  5
5359
  8
0
 10
106.5006636307963959
 20
124.2170547302314958
 30
0.0
  0
VERTEX
  5
535A
  8
0
 10
106.5004156234659973
 20
124.200602789050194
 30
0.0
  0
VERTEX
  5
535B
  8
0
 10
106.5000901239095015
 20
124.1782418117095972
 30
0.0
  0
VERTEX
  5
535C
  8
0
 10
106.499988206370702
 20
124.1483729471684967
 30
0.0
  0
VERTEX
  5
535D
  8
0
 10
106.4999182746828978
 20
124.1085395636170006
 30
0.0
  0
VERTEX
  5
535E
  8
0
 10
106.4997852788853976
 20
124.055285815755397
 30
0.0
  0
VERTEX
  5
535F
  8
0
 10
106.5001480160367038
 20
123.9837964966239952
 30
0.0
  0
VERTEX
  5
5360
  8
0
 10
106.5001814816565968
 20
123.8837453465566938
 30
0.0
  0
VERTEX
  5
5361
  8
0
 10
106.4999454859296009
 20
123.7346878533711987
 30
0.0
  0
VERTEX
  5
5362
  8
0
 10
106.4999999999991047
 20
123.5
 30
0.0
  0
SEQEND
  5
5363
  8
0
  0
POLYLINE
  5
468C
  8
0
 66
     1
 10
0.0
 20
0.0
 30
0.0
  0
VERTEX
  5
5364
  8
0
 10
108.9105458270989999
 20
123.5000000000394067
 30
0.0
  0
VERTEX
  5
5365
  8
0
 10
108.9158189521376983
 20
123.5545363542216961
 30
0.0
  0
VERTEX
  5
5366
  8
0
 10
108.922377176522005
 20
123.5809772442728018
 30
0.0
  0
VERTEX
  5
5367
  8
0
 10
108.9312137372840965
 20
123.606526569296193
 30
0.0
  0
VERTEX
  5
5368
  8
0
 10
108.9544219664291944
 20
123.6544349599610939
 30
0.0
  0
VERTEX
  5
5369
  8
0
 10
108.9835277454186979
 20
123.6978748925336049
 30
0.0
  0
VERTEX
  5
536A
  8
0
 10
109.0167901331547
 20
123.7371182306630004
 30
0.0
  0
VERTEX
  5
536B
  8
0
 10
109.0530441442474938
 20
123.772662250199204
 30
0.0
  0
VERTEX
  5
536C
  8
0
 10
109.0914830868090064
 20
123.8050144913550952
 30
0.0
  0
VERTEX
  5
536D
  8
0
 10
109.1315625848323947
 20
123.8346273349725948
 30
0.0
  0
VERTEX
  5
536E
  8
0
 10
109.2152774597876004
 20
123.8870268436518955
 30
0.0
  0
VERTEX
  5
536F
  8
0
 10
109.3023432212792017
 20
123.9317183783948053
 30
0.0
  0
VERTEX
  5
5370
  8
0
 10
109.3914580017339944
 20
123.9701469316118931
 30
0.0
  0
VERTEX
  5
5371
  8
0
 10
109.4820324162951977
 20
124.0035433308505048
 30
0.0
  0
VERTEX
  5
5372
  8
0
 10
109.5736536685010947
 20
124.0329910490974044
 30
0.0
  0
VERTEX
  5
5373
  8
0
 10
109.6660886948885008
 20
124.0590491546816025
 30
0.0
  0
VERTEX
  5
5374
  8
0
 10
109.7591603712842954
 20
124.0821135025842068
 30
0.0
  0
VERTEX
  5
5375
  8
0
 10
109.852691666276101
 20
124.1025797993357997
 30
0.0
  0
VERTEX
  5
5376
  8
0
 10
110.040650657132403
 20
124.1370111078777967
 30
0.0
  0
VERTEX
  5
5377
  8
0
 10
110.2294996989305957
 20
124.1642877424074953
 30
0.0
  0
VERTEX
  5
5378
  8
0
 10
110.4189417258231032
 20
124.1860086754356018
 30
0.0
  0
VERTEX
  5
5379
  8
0
 10
110.6087856621397947
 20
124.2030689843314946
 30
0.0
  0
VERTEX
  5
537A
  8
0
 10
110.7988696544475999
 20
124.2161696776275051
 30
0.0
  0
VERTEX
  5
537B
  8
0
 10
110.989031866546398
 20
124.2260117220653939
 30
0.0
  0
VERTEX
  5
537C
  8
0
 10
111.3692577372114982
 20
124.2380370950314017
 30
0.0
  0
VERTEX
  5
537D
  8
0
 10
111.7496019125208022
 20
124.2416198377772929
 30
0.0
  0
VERTEX
  5
537E
  8
0
 10
112.1302931739380995
 20
124.2380576813907993
 30
0.0
  0
VERTEX
  5
537F
  8
0
 10
112.5109089342201969
 20
124.2260558273165003
 30
0.0
  0
VERTEX
  5
5380
  8
0
 10
112.7010061066452948
 20
124.2162248287247053
 30
0.0
  0
VERTEX
  5
5381
  8
0
 10
112.8908772330305936
 20
124.2031415690205023
 30
0.0
  0
VERTEX
  5
5382
  8
0
 10
113.0804643204980948
 20
124.1860999425269938
 30
0.0
  0
VERTEX
  5
5383
  8
0
 10
113.2697093803015065
 20
124.1643937221116971
 30
0.0
  0
VERTEX
  5
5384
  8
0
 10
113.4584916313258987
 20
124.1371421743328938
 30
0.0
  0
VERTEX
  5
5385
  8
0
 10
113.646432155870599
 20
124.102747178202506
 30
0.0
  0
VERTEX
  5
5386
  8
0
 10
113.7399409978730063
 20
124.0823005015662943
 30
0.0
  0
VERTEX
  5
5387
  8
0
 10
113.833003782296899
 20
124.0592611637623008
 30
0.0
  0
VERTEX
  5
5388
  8
0
 10
113.9254752771960995
 20
124.0332258196670949
 30
0.0
  0
VERTEX
  5
5389
  8
0
 10
114.0172100503176011
 20
124.0037907204417991
 30
0.0
  0
VERTEX
  5
538A
  8
0
 10
114.1079767597712049
 20
123.9704223432134995
 30
0.0
  0
VERTEX
  5
538B
  8
0
 10
114.1971900884500997
 20
123.9320524545250066
 30
0.0
  0
VERTEX
  5
538C
  8
0
 10
114.284126769001503
 20
123.8874385837042951
 30
0.0
  0
VERTEX
  5
538D
  8
0
 10
114.3677658630574996
 20
123.835105827655795
 30
0.0
  0
VERTEX
  5
538E
  8
0
 10
114.4079237803440066
 20
123.8055160828446049
 30
0.0
  0
VERTEX
  5
538F
  8
0
 10
114.4464091246838962
 20
123.7731703949074955
 30
0.0
  0
VERTEX
  5
5390
  8
0
 10
114.4826513157225065
 20
123.7376297965139997
 30
0.0
  0
VERTEX
  5
5391
  8
0
 10
114.515976869728803
 20
123.6983884681264954
 30
0.0
  0
VERTEX
  5
5392
  8
0
 10
114.5455699015612936
 20
123.6548849863659001
 30
0.0
  0
VERTEX
  5
5393
  8
0
 10
114.5691113529822047
 20
123.606897671579901
 30
0.0
  0
VERTEX
  5
5394
  8
0
 10
114.5773139774243958
 20
123.5812860649772063
 30
0.0
  0
VERTEX
  5
5395
  8
0
 10
114.5828814618036944
 20
123.5547279969215992
 30
0.0
  0
VERTEX
  5
5396
  8
0
 10
114.5894541728991953
 20
123.5000000000394067
 30
0.0
  0
SEQEND
  5
5397
  8
0
  0
POLYLINE
  5
468D
  8
0
 66
     1
 10
0.0
 20
0.0
 30
0.0
  0
VERTEX
  5
5398
  8
0
 10
119.4105458270988009
 20
123.5000000000394067
 30
0.0
  0
VERTEX
  5
5399
  8
0
 10
119.4157954677928046
 20
123.5545363542217956
 30
0.0
  0
VERTEX
  5
539A
  8
0
 10
119.4223352523354009
 20
123.5809772442731997
 30
0.0
  0
VERTEX
  5
539B
  8
0
 10
119.4311570787152021
 20
123.6065265692969035
 30
0.0
  0
VERTEX
  5
539C
  8
0
 10
119.4543580287579942
 20
123.6544349599626003
 30
0.0
  0
VERTEX
  5
539D
  8
0
 10
119.4834843050580986
 20
123.697874892535495
 30
0.0
  0
VERTEX
  5
539E
  8
0
 10
119.5167822472236026
 20
123.7371182306650041
 30
0.0
  0
VERTEX
  5
539F
  8
0
 10
119.5530686427702989
 20
123.7726622502006961
 30
0.0
  0
VERTEX
  5
53A0
  8
0
 10
119.5915176906997033
 20
123.8050144913553936
 30
0.0
  0
VERTEX
  5
53A1
  8
0
 10
119.6315688974217011
 20
123.8346273349714011
 30
0.0
  0
VERTEX
  5
53A2
  8
0
 10
119.7151244058232038
 20
123.8870268436489965
 30
0.0
  0
VERTEX
  5
53A3
  8
0
 10
119.8020751166139064
 20
123.9317183783919063
 30
0.0
  0
VERTEX
  5
53A4
  8
0
 10
119.8912768726495983
 20
123.970146931610202
 30
0.0
  0
VERTEX
  5
53A5
  8
0
 10
119.9820213779556042
 20
124.0035433308497943
 30
0.0
  0
VERTEX
  5
53A6
  8
0
 10
120.0737495204325995
 20
124.0329910490963954
 30
0.0
  0
VERTEX
  5
53A7
  8
0
 10
120.1662174984794973
 20
124.0590491546793999
 30
0.0
  0
VERTEX
  5
53A8
  8
0
 10
120.2592796463177933
 20
124.0821135025804978
 30
0.0
  0
VERTEX
  5
53A9
  8
0
 10
120.3527903800443966
 20
124.1025797993313944
 30
0.0
  0
VERTEX
  5
53AA
  8
0
 10
120.5407273468140943
 20
124.1370111078746987
 30
0.0
  0
VERTEX
  5
53AB
  8
0
 10
120.7295041136786011
 20
124.1642877424071969
 30
0.0
  0
VERTEX
  5
53AC
  8
0
 10
120.9187495217123001
 20
124.1860086754371935
 30
0.0
  0
VERTEX
  5
53AD
  8
0
 10
121.1083372523609967
 20
124.2030689843339957
 30
0.0
  0
VERTEX
  5
53AE
  8
0
 10
121.2982084912813008
 20
124.2161696776301056
 30
0.0
  0
VERTEX
  5
53AF
  8
0
 10
121.4883044251896962
 20
124.2260117220677955
 30
0.0
  0
VERTEX
  5
53B0
  8
0
 10
121.8689143787757985
 20
124.2380370950325954
 30
0.0
  0
VERTEX
  5
53B1
  8
0
 10
122.2496019462607961
 20
124.2416198377772929
 30
0.0
  0
VERTEX
  5
53B2
  8
0
 10
122.6299433707657016
 20
124.2380576813906998
 30
0.0
  0
VERTEX
  5
53B3
  8
0
 10
123.0101618684596048
 20
124.2260558273168982
 30
0.0
  0
VERTEX
  5
53B4
  8
0
 10
123.200322095897306
 20
124.2162248287253021
 30
0.0
  0
VERTEX
  5
53B5
  8
0
 10
123.3904093346714035
 20
124.2031415690210991
 30
0.0
  0
VERTEX
  5
53B6
  8
0
 10
123.5802594181214005
 20
124.1860999425275054
 30
0.0
  0
VERTEX
  5
53B7
  8
0
 10
123.769708123556299
 20
124.1643937221118961
 30
0.0
  0
VERTEX
  5
53B8
  8
0
 10
123.958563834040504
 20
124.1371421743328938
 30
0.0
  0
VERTEX
  5
53B9
  8
0
 10
124.1465223161364975
 20
124.1027471782018949
 30
0.0
  0
VERTEX
  5
53BA
  8
0
 10
124.2400509629662935
 20
124.0823005015652996
 30
0.0
  0
VERTEX
  5
53BB
  8
0
 10
124.3331266888199025
 20
124.0592611637610929
 30
0.0
  0
VERTEX
  5
53BC
  8
0
 10
124.4255725885646058
 20
124.0332258196661996
 30
0.0
  0
VERTEX
  5
53BD
  8
0
 10
124.5172114546076045
 20
124.003790720442197
 30
0.0
  0
VERTEX
  5
53BE
  8
0
 10
124.6078131573693071
 20
123.9704223432165975
 30
0.0
  0
VERTEX
  5
53BF
  8
0
 10
124.6969295117354051
 20
123.9320524545297957
 30
0.0
  0
VERTEX
  5
53C0
  8
0
 10
124.7839670747605965
 20
123.887438583708402
 30
0.0
  0
VERTEX
  5
53C1
  8
0
 10
124.8677655950390033
 20
123.8351058276572019
 30
0.0
  0
VERTEX
  5
53C2
  8
0
 10
124.9079555043181955
 20
123.8055160828445054
 30
0.0
  0
VERTEX
  5
53C3
  8
0
 10
124.9464368904211966
 20
123.7731703949061028
 30
0.0
  0
VERTEX
  5
53C4
  8
0
 10
124.9826502875837946
 20
123.7376297965118965
 30
0.0
  0
VERTEX
  5
53C5
  8
0
 10
125.015939863322302
 20
123.6983884681244064
 30
0.0
  0
VERTEX
  5
53C6
  8
0
 10
125.0455133416067071
 20
123.6548849863643937
 30
0.0
  0
VERTEX
  5
53C7
  8
0
 10
125.069060636302595
 20
123.6068976715792047
 30
0.0
  0
VERTEX
  5
53C8
  8
0
 10
125.0772727669816931
 20
123.5812860649767941
 30
0.0
  0
VERTEX
  5
53C9
  8
0
 10
125.0828524886315023
 20
123.5547279969214003
 30
0.0
  0
VERTEX
  5
53CA
  8
0
 10
125.0894541728989964
 20
123.5000000000394067
 30
0.0
  0
SEQEND
  5
53CB
  8
0
  0
POLYLINE
  5
468E
  8
0
 66
     1
 10
0.0
 20
0.0
 30
0.0
  0
VERTEX
  5
53CC
  8
0
 10
127.4999999999991047
 20
123.5
 30
0.0
  0
VERTEX
  5
53CD
  8
0
 10
127.5001469750935001
 20
123.7863199165642953
 30
0.0
  0
VERTEX
  5
53CE
  8
0
 10
127.4996326212663007
 20
123.9481837245719049
 30
0.0
  0
VERTEX
  5
53CF
  8
0
 10
127.5002804518986039
 20
124.0494693198385932
 30
0.0
  0
VERTEX
  5
53D0
  8
0
 10
127.5003542183967937
 20
124.1182819095160994
 30
0.0
  0
VERTEX
  5
53D1
  8
0
 10
127.5000044079177002
 20
124.1644362581075995
 30
0.0
  0
VERTEX
  5
53D2
  8
0
 10
127.4995364757817953
 20
124.1960748336472022
 30
0.0
  0
VERTEX
  5
53D3
  8
0
 10
127.4992578752179071
 20
124.2178281120733061
 30
0.0
  0
VERTEX
  5
53D4
  8
0
 10
127.4994485804537021
 20
124.2332164823469043
 30
0.0
  0
VERTEX
  5
53D5
  8
0
 10
127.4997045105815943
 20
124.2417393115755004
 30
0.0
  0
SEQEND
  5
53D6
  8
0
  0
POLYLINE
  5
4699
  8
0
 66
     1
 10
0.0
 20
0.0
 30
0.0
  0
VERTEX
  5
53D7
  8
0
 10
39.0
 20
120.7999999999999972
 30
0.0
  0
VERTEX
  5
53D8
  8
0
 10
39.0066463674630768
 20
120.7228750070094065
 30
0.0
  0
VERTEX
  5
53D9
  8
0
 10
39.0227494340850285
 20
120.5071282862619029
 30
0.0
  0
VERTEX
  5
53DA
  8
0
 10
39.0387646584136974
 20
120.1823590734083069
 30
0.0
  0
VERTEX
  5
53DB
  8
0
 10
39.0455488635896018
 20
119.8000127664703029
 30
0.0
  0
VERTEX
  5
53DC
  8
0
 10
39.0387756946603872
 20
119.417639220297005
 30
0.0
  0
VERTEX
  5
53DD
  8
0
 10
39.0227516507122232
 20
119.0929072715586017
 30
0.0
  0
VERTEX
  5
53DE
  8
0
 10
39.0066480984676218
 20
118.8773089903160951
 30
0.0
  0
VERTEX
  5
53DF
  8
0
 10
39.0
 20
118.7999999999999972
 30
0.0
  0
SEQEND
  5
53E0
  8
0
  0
POLYLINE
  5
469A
  8
0
 66
     1
 10
0.0
 20
0.0
 30
0.0
  0
VERTEX
  5
53E1
  8
0
 10
60.9999999999995524
 20
118.7999999999999972
 30
0.0
  0
VERTEX
  5
53E2
  8
0
 10
60.9975827473883214
 20
118.8272954199797056
 30
0.0
  0
VERTEX
  5
53E3
  8
0
 10
60.9933540406148111
 20
118.8772619544722033
 30
0.0
  0
VERTEX
  5
53E4
  8
0
 10
60.986124035247478
 20
118.967293437216
 30
0.0
  0
VERTEX
  5
53E5
  8
0
 10
60.9772478037040671
 20
119.0929144284251038
 30
0.0
  0
VERTEX
  5
53E6
  8
0
 10
60.9685503234013595
 20
119.2450437777145993
 30
0.0
  0
VERTEX
  5
53E7
  8
0
 10
60.961231412624727
 20
119.4176900813321964
 30
0.0
  0
VERTEX
  5
53E8
  8
0
 10
60.9544510841571991
 20
119.8000451546786991
 30
0.0
  0
VERTEX
  5
53E9
  8
0
 10
60.9612243030534771
 20
120.182421158263594
 30
0.0
  0
VERTEX
  5
53EA
  8
0
 10
60.9686727580402135
 20
120.3564152188943979
 30
0.0
  0
VERTEX
  5
53EB
  8
0
 10
60.9772482715028374
 20
120.5070991856613034
 30
0.0
  0
VERTEX
  5
53EC
  8
0
 10
60.9856646303847967
 20
120.6274411320141979
 30
0.0
  0
VERTEX
  5
53ED
  8
0
 10
60.9933576545514597
 20
120.7227661203453977
 30
0.0
  0
VERTEX
  5
53EE
  8
0
 10
60.9993059989702715
 20
120.7923761433732039
 30
0.0
  0
VERTEX
  5
53EF
  8
0
 10
61.0
 20
120.7999999999999972
 30
0.0
  0
SEQEND
  5
53F0
  8
0
  0
POLYLINE
  5
469D
  8
0
 66
     1
 10
0.0
 20
0.0
 30
0.0
  0
VERTEX
  5
53F1
  8
0
 10
60.7326263708000624
 20
114.0999999999999943
 30
0.0
  0
VERTEX
  5
53F2
  8
0
 10
60.7232149708074189
 20
113.8029721914369929
 30
0.0
  0
VERTEX
  5
53F3
  8
0
 10
60.6951908656060866
 20
113.5108624105531021
 30
0.0
  0
VERTEX
  5
53F4
  8
0
 10
60.6494266841000425
 20
113.228131350761501
 30
0.0
  0
VERTEX
  5
53F5
  8
0
 10
60.5873712203410193
 20
112.958071988925596
 30
0.0
  0
VERTEX
  5
53F6
  8
0
 10
60.51046719073139
 20
112.7026125623783059
 30
0.0
  0
VERTEX
  5
53F7
  8
0
 10
60.420102884817652
 20
112.4644510285708066
 30
0.0
  0
VERTEX
  5
53F8
  8
0
 10
60.3177472464253128
 20
112.2463619446704968
 30
0.0
  0
VERTEX
  5
53F9
  8
0
 10
60.2049469266638582
 20
112.0497366801849068
 30
0.0
  0
VERTEX
  5
53FA
  8
0
 10
60.0832594433518281
 20
111.8756389619734932
 30
0.0
  0
VERTEX
  5
53FB
  8
0
 10
59.9542103547747089
 20
111.7251679611413948
 30
0.0
  0
VERTEX
  5
53FC
  8
0
 10
59.819238678155898
 20
111.5990522969381971
 30
0.0
  0
VERTEX
  5
53FD
  8
0
 10
59.6795002048486865
 20
111.4966536834333937
 30
0.0
  0
VERTEX
  5
53FE
  8
0
 10
59.5360743177972225
 20
111.4172258241674029
 30
0.0
  0
VERTEX
  5
53FF
  8
0
 10
59.3899923132308416
 20
111.3607823448562044
 30
0.0
  0
VERTEX
  5
5400
  8
0
 10
59.2421968303336826
 20
111.3273235035935045
 30
0.0
  0
VERTEX
  5
5401
  8
0
 10
59.0933405308838289
 20
111.3161208859910971
 30
0.0
  0
VERTEX
  5
5402
  8
0
 10
58.9441055974844517
 20
111.3265851194195051
 30
0.0
  0
VERTEX
  5
5403
  8
0
 10
58.7955743423203785
 20
111.359398282884797
 30
0.0
  0
VERTEX
  5
5404
  8
0
 10
58.6488829400821032
 20
111.4153943503338979
 30
0.0
  0
VERTEX
  5
5405
  8
0
 10
58.5049533868124101
 20
111.4946420101729956
 30
0.0
  0
VERTEX
  5
5406
  8
0
 10
58.3647827649102666
 20
111.597155925324401
 30
0.0
  0
VERTEX
  5
5407
  8
0
 10
58.2299372810958289
 20
111.723614924616399
 30
0.0
  0
VERTEX
  5
5408
  8
0
 10
58.1020059113805516
 20
111.8745526073159056
 30
0.0
  0
VERTEX
  5
5409
  8
0
 10
57.9820219592509218
 20
112.0491102908421936
 30
0.0
  0
VERTEX
  5
540A
  8
0
 10
57.8709648753208512
 20
112.2460765970447056
 30
0.0
  0
VERTEX
  5
540B
  8
0
 10
57.7701893363787917
 20
112.4643335061193028
 30
0.0
  0
VERTEX
  5
540C
  8
0
 10
57.6809998256405834
 20
112.7024778548171042
 30
0.0
  0
VERTEX
  5
540D
  8
0
 10
57.6041375026890705
 20
112.9578799970871046
 30
0.0
  0
VERTEX
  5
540E
  8
0
 10
57.5406616180436004
 20
113.2278891505453942
 30
0.0
  0
VERTEX
  5
540F
  8
0
 10
57.4930591602445134
 20
113.5106304325981057
 30
0.0
  0
VERTEX
  5
5410
  8
0
 10
57.4636886617875504
 20
113.8028299497244973
 30
0.0
  0
VERTEX
  5
5411
  8
0
 10
57.4539071087000366
 20
114.0999999999999943
 30
0.0
  0
SEQEND
  5
5412
  8
0
  0
POLYLINE
  5
469E
  8
0
 66
     1
 10
0.0
 20
0.0
 30
0.0
  0
VERTEX
  5
5413
  8
0
 10
42.5460928914000078
 20
114.0999999999999943
 30
0.0
  0
VERTEX
  5
5414
  8
0
 10
42.5363752949209015
 20
113.8029721914369929
 30
0.0
  0
VERTEX
  5
5415
  8
0
 10
42.5072697515538493
 20
113.5108624105531021
 30
0.0
  0
VERTEX
  5
5416
  8
0
 10
42.4599460071078667
 20
113.228131350761501
 30
0.0
  0
VERTEX
  5
5417
  8
0
 10
42.3967601929590501
 20
112.9580719889254965
 30
0.0
  0
VERTEX
  5
5418
  8
0
 10
42.3200370167546609
 20
112.7026125623779933
 30
0.0
  0
VERTEX
  5
5419
  8
0
 10
42.2307593325166977
 20
112.464451028570295
 30
0.0
  0
VERTEX
  5
541A
  8
0
 10
42.1297727898745435
 20
112.2463619446701983
 30
0.0
  0
VERTEX
  5
541B
  8
0
 10
42.0184165962824565
 20
112.0497366801850063
 30
0.0
  0
VERTEX
  5
541C
  8
0
 10
41.8980706615127403
 20
111.8756389619740048
 30
0.0
  0
VERTEX
  5
541D
  8
0
 10
41.7697993958819325
 20
111.7251679611421054
 30
0.0
  0
VERTEX
  5
541E
  8
0
 10
41.6347266213905414
 20
111.599052296938595
 30
0.0
  0
VERTEX
  5
541F
  8
0
 10
41.494472587828227
 20
111.4966536834332942
 30
0.0
  0
VERTEX
  5
5420
  8
0
 10
41.3506083379118579
 20
111.4172258241669056
 30
0.0
  0
VERTEX
  5
5421
  8
0
 10
41.2040924928426691
 20
111.3607823448553944
 30
0.0
  0
VERTEX
  5
5422
  8
0
 10
41.0557957044145994
 20
111.3273235035928934
 30
0.0
  0
VERTEX
  5
5423
  8
0
 10
40.9068050806449079
 20
111.3161208859910971
 30
0.0
  0
VERTEX
  5
5424
  8
0
 10
40.7581643611587765
 20
111.326585119419903
 30
0.0
  0
VERTEX
  5
5425
  8
0
 10
40.6105311244251013
 20
111.3593982828853939
 30
0.0
  0
VERTEX
  5
5426
  8
0
 10
40.4645356280378223
 20
111.4153943503341964
 30
0.0
  0
VERTEX
  5
5427
  8
0
 10
40.3211233076986488
 20
111.4946420101728961
 30
0.0
  0
VERTEX
  5
5428
  8
0
 10
40.1813415778398735
 20
111.5971559253245005
 30
0.0
  0
VERTEX
  5
5429
  8
0
 10
40.0463030512203204
 20
111.7236149246166974
 30
0.0
  0
VERTEX
  5
542A
  8
0
 10
39.9171972106762496
 20
111.8745526073161045
 30
0.0
  0
VERTEX
  5
542B
  8
0
 10
39.7954713988832012
 20
112.0491102908422931
 30
0.0
  0
VERTEX
  5
542C
  8
0
 10
39.6826517460251011
 20
112.2460765970449046
 30
0.0
  0
VERTEX
  5
542D
  8
0
 10
39.58029945617767
 20
112.4643335061196012
 30
0.0
  0
VERTEX
  5
542E
  8
0
 10
39.4899456476515027
 20
112.7024778548174027
 30
0.0
  0
VERTEX
  5
542F
  8
0
 10
39.4129676087006331
 20
112.9578799970872041
 30
0.0
  0
VERTEX
  5
5430
  8
0
 10
39.3507985568164074
 20
113.2278891505452947
 30
0.0
  0
VERTEX
  5
5431
  8
0
 10
39.3049382675414378
 20
113.5106304325981057
 30
0.0
  0
VERTEX
  5
5432
  8
0
 10
39.2767933234523028
 20
113.8028299497244973
 30
0.0
  0
VERTEX
  5
5433
  8
0
 10
39.2673736292000513
 20
114.0999999999999943
 30
0.0
  0
SEQEND
  5
5434
  8
0
  0
POLYLINE
  5
469F
  8
0
 66
     1
 10
0.0
 20
0.0
 30
0.0
  0
VERTEX
  5
5435
  8
0
 10
39.2673736292000513
 20
123.5
 30
0.0
  0
VERTEX
  5
5436
  8
0
 10
39.2704316280768424
 20
123.5545363542217956
 30
0.0
  0
VERTEX
  5
5437
  8
0
 10
39.2793389645711386
 20
123.6065265692966051
 30
0.0
  0
VERTEX
  5
5438
  8
0
 10
39.2927424445061888
 20
123.6544349599622024
 30
0.0
  0
VERTEX
  5
5439
  8
0
 10
39.3095348397124624
 20
123.6978748925349976
 30
0.0
  0
VERTEX
  5
543A
  8
0
 10
39.3287183608663327
 20
123.7371182306643931
 30
0.0
  0
VERTEX
  5
543B
  8
0
 10
39.3496309267571291
 20
123.7726622502001987
 30
0.0
  0
VERTEX
  5
543C
  8
0
 10
39.3949740692198205
 20
123.8346273349718984
 30
0.0
  0
VERTEX
  5
543D
  8
0
 10
39.4433988851334405
 20
123.8870268436507018
 30
0.0
  0
VERTEX
  5
543E
  8
0
 10
39.4937327505213034
 20
123.9317183783941942
 30
0.0
  0
VERTEX
  5
543F
  8
0
 10
39.5451329776300895
 20
123.9701469316114952
 30
0.0
  0
VERTEX
  5
5440
  8
0
 10
39.5973279383208592
 20
124.0035433308499933
 30
0.0
  0
VERTEX
  5
5441
  8
0
 10
39.7035121425371926
 20
124.0590491546810057
 30
0.0
  0
VERTEX
  5
5442
  8
0
 10
39.8112647906676216
 20
124.1025797993354018
 30
0.0
  0
VERTEX
  5
5443
  8
0
 10
39.9197956802470273
 20
124.1370111078775977
 30
0.0
  0
VERTEX
  5
5444
  8
0
 10
40.0288694533165881
 20
124.1642877424072964
 30
0.0
  0
VERTEX
  5
5445
  8
0
 10
40.1383573764884929
 20
124.1860086754352039
 30
0.0
  0
VERTEX
  5
5446
  8
0
 10
40.2481117446353096
 20
124.2030689843308977
 30
0.0
  0
VERTEX
  5
5447
  8
0
 10
40.4678080920636987
 20
124.2260117220644986
 30
0.0
  0
VERTEX
  5
5448
  8
0
 10
40.6871098504690778
 20
124.2380370950310038
 30
0.0
  0
VERTEX
  5
5449
  8
0
 10
40.9065034049050382
 20
124.2416198377771934
 30
0.0
  0
VERTEX
  5
544A
  8
0
 10
41.1264975855964892
 20
124.2380576813900035
 30
0.0
  0
VERTEX
  5
544B
  8
0
 10
41.3464755569137878
 20
124.2260558273150934
 30
0.0
  0
VERTEX
  5
544C
  8
0
 10
41.5656891791422183
 20
124.2031415690199054
 30
0.0
  0
VERTEX
  5
544D
  8
0
 10
41.6749954943262466
 20
124.1860999425268943
 30
0.0
  0
VERTEX
  5
544E
  8
0
 10
41.7841386056870192
 20
124.1643937221118961
 30
0.0
  0
VERTEX
  5
544F
  8
0
 10
41.8930896772953929
 20
124.1371421743329932
 30
0.0
  0
VERTEX
  5
5450
  8
0
 10
42.0015868219353408
 20
124.1027471782020939
 30
0.0
  0
VERTEX
  5
5451
  8
0
 10
42.1092850946146697
 20
124.0592611637612066
 30
0.0
  0
VERTEX
  5
5452
  8
0
 10
42.2157067823908392
 20
124.003790720442197
 30
0.0
  0
VERTEX
  5
5453
  8
0
 10
42.2682062331873567
 20
123.9704223432161001
 30
0.0
  0
VERTEX
  5
5454
  8
0
 10
42.319769560661932
 20
123.9320524545291988
 30
0.0
  0
VERTEX
  5
5455
  8
0
 10
42.3699042320566832
 20
123.8874385837079046
 30
0.0
  0
VERTEX
  5
5456
  8
0
 10
42.4181012407500404
 20
123.8351058276571024
 30
0.0
  0
VERTEX
  5
5457
  8
0
 10
42.4634897637208724
 20
123.7731703949062023
 30
0.0
  0
VERTEX
  5
5458
  8
0
 10
42.4844308266245321
 20
123.7376297965120955
 30
0.0
  0
VERTEX
  5
5459
  8
0
 10
42.5036921162632026
 20
123.6983884681246053
 30
0.0
  0
VERTEX
  5
545A
  8
0
 10
42.520788950404949
 20
123.6548849863646069
 30
0.0
  0
VERTEX
  5
545B
  8
0
 10
42.5343772401054068
 20
123.6068976715793042
 30
0.0
  0
VERTEX
  5
545C
  8
0
 10
42.542314862522403
 20
123.5547279969214998
 30
0.0
  0
VERTEX
  5
545D
  8
0
 10
42.5460928914000078
 20
123.5
 30
0.0
  0
SEQEND
  5
545E
  8
0
  0
POLYLINE
  5
46A0
  8
0
 66
     1
 10
0.0
 20
0.0
 30
0.0
  0
VERTEX
  5
545F
  8
0
 10
57.4539071087000366
 20
123.5
 30
0.0
  0
VERTEX
  5
5460
  8
0
 10
57.4569244314728778
 20
123.5545363542216961
 30
0.0
  0
VERTEX
  5
5461
  8
0
 10
57.4657743085289212
 20
123.606526569296193
 30
0.0
  0
VERTEX
  5
5462
  8
0
 10
57.479165180691723
 20
123.6544349599610939
 30
0.0
  0
VERTEX
  5
5463
  8
0
 10
57.4959930782828224
 20
123.6978748925336049
 30
0.0
  0
VERTEX
  5
5464
  8
0
 10
57.5152381815150306
 20
123.7371182306630004
 30
0.0
  0
VERTEX
  5
5465
  8
0
 10
57.536206838924393
 20
123.772662250199204
 30
0.0
  0
VERTEX
  5
5466
  8
0
 10
57.5815184824224389
 20
123.8346273349725948
 30
0.0
  0
VERTEX
  5
5467
  8
0
 10
57.6296672673660169
 20
123.8870268436518955
 30
0.0
  0
VERTEX
  5
5468
  8
0
 10
57.6798018590940771
 20
123.9317183783948053
 30
0.0
  0
VERTEX
  5
5469
  8
0
 10
57.7313527323293485
 20
123.9701469316118931
 30
0.0
  0
VERTEX
  5
546A
  8
0
 10
57.7838422988335694
 20
124.0035433308505048
 30
0.0
  0
VERTEX
  5
546B
  8
0
 10
57.8902687163762266
 20
124.0590491546816025
 30
0.0
  0
VERTEX
  5
546C
  8
0
 10
57.9979692474020112
 20
124.1025797993357997
 30
0.0
  0
VERTEX
  5
546D
  8
0
 10
58.1064619901458101
 20
124.1370111078777967
 30
0.0
  0
VERTEX
  5
546E
  8
0
 10
58.2154105793617305
 20
124.1642877424074953
 30
0.0
  0
VERTEX
  5
546F
  8
0
 10
58.3245579486838324
 20
124.1860086754356018
 30
0.0
  0
VERTEX
  5
5470
  8
0
 10
58.4338685555985577
 20
124.2030689843314946
 30
0.0
  0
VERTEX
  5
5471
  8
0
 10
58.6530816061580822
 20
124.2260117220653939
 30
0.0
  0
VERTEX
  5
5472
  8
0
 10
58.8730486156934489
 20
124.2380370950314017
 30
0.0
  0
VERTEX
  5
5473
  8
0
 10
59.0930369428215769
 20
124.2416198377772929
 30
0.0
  0
VERTEX
  5
5474
  8
0
 10
59.3124251882080102
 20
124.2380576813907993
 30
0.0
  0
VERTEX
  5
5475
  8
0
 10
59.5317150805408275
 20
124.2260558273165003
 30
0.0
  0
VERTEX
  5
5476
  8
0
 10
59.7514122348911698
 20
124.2031415690205023
 30
0.0
  0
VERTEX
  5
5477
  8
0
 10
59.8611740724777519
 20
124.1860999425269938
 30
0.0
  0
VERTEX
  5
5478
  8
0
 10
59.9706699084181309
 20
124.1643937221116971
 30
0.0
  0
VERTEX
  5
5479
  8
0
 10
60.0797482155424518
 20
124.1371421743328938
 30
0.0
  0
VERTEX
  5
547A
  8
0
 10
60.1882764635740273
 20
124.102747178202506
 30
0.0
  0
VERTEX
  5
547B
  8
0
 10
60.2960314544353011
 20
124.0592611637623008
 30
0.0
  0
VERTEX
  5
547C
  8
0
 10
60.4022426941700701
 20
124.0037907204417991
 30
0.0
  0
VERTEX
  5
547D
  8
0
 10
60.4544563449905468
 20
123.9704223432134995
 30
0.0
  0
VERTEX
  5
547E
  8
0
 10
60.5058517080275422
 20
123.9320524545250066
 30
0.0
  0
VERTEX
  5
547F
  8
0
 10
60.5561611129930384
 20
123.8874385837042951
 30
0.0
  0
VERTEX
  5
5480
  8
0
 10
60.604634256005852
 20
123.835105827655795
 30
0.0
  0
VERTEX
  5
5481
  8
0
 10
60.6500713348697786
 20
123.7731703949074955
 30
0.0
  0
VERTEX
  5
5482
  8
0
 10
60.6709625253179681
 20
123.7376297965139997
 30
0.0
  0
VERTEX
  5
5483
  8
0
 10
60.6901614987696121
 20
123.6983884681264954
 30
0.0
  0
VERTEX
  5
5484
  8
0
 10
60.7072244651713504
 20
123.6548849863659001
 30
0.0
  0
VERTEX
  5
5485
  8
0
 10
60.720822875717829
 20
123.606897671579901
 30
0.0
  0
VERTEX
  5
5486
  8
0
 10
60.7287981589908483
 20
123.5547279969215992
 30
0.0
  0
VERTEX
  5
5487
  8
0
 10
60.7326263708000624
 20
123.5
 30
0.0
  0
SEQEND
  5
5488
  8
0
  0
POLYLINE
  5
46A1
  8
0
 66
     1
 10
0.0
 20
0.0
 30
0.0
  0
VERTEX
  5
5489
  8
0
 10
46.721280737900031
 20
123.5
 30
0.0
  0
VERTEX
  5
548A
  8
0
 10
46.7231700739156892
 20
123.5274395397010068
 30
0.0
  0
VERTEX
  5
548B
  8
0
 10
46.7274248518019633
 20
123.5545239390471011
 30
0.0
  0
VERTEX
  5
548C
  8
0
 10
46.7350600022963931
 20
123.5809444154206034
 30
0.0
  0
VERTEX
  5
548D
  8
0
 10
46.7453209121017608
 20
123.6064644501625054
 30
0.0
  0
VERTEX
  5
548E
  8
0
 10
46.7577783918737779
 20
123.6309435993385932
 30
0.0
  0
VERTEX
  5
548F
  8
0
 10
46.7722266982554515
 20
123.6543078915219951
 30
0.0
  0
VERTEX
  5
5490
  8
0
 10
46.8058989862282075
 20
123.6977045081626017
 30
0.0
  0
VERTEX
  5
5491
  8
0
 10
46.8443249717623118
 20
123.7369475879804952
 30
0.0
  0
VERTEX
  5
5492
  8
0
 10
46.8861647390471603
 20
123.7725364807529047
 30
0.0
  0
VERTEX
  5
5493
  8
0
 10
46.930486034153148
 20
123.8049813939105945
 30
0.0
  0
VERTEX
  5
5494
  8
0
 10
46.9766659832530422
 20
123.834720539097205
 30
0.0
  0
VERTEX
  5
5495
  8
0
 10
47.0243084533496472
 20
123.862071577639
 30
0.0
  0
VERTEX
  5
5496
  8
0
 10
47.0731601730987492
 20
123.8872594852795999
 30
0.0
  0
VERTEX
  5
5497
  8
0
 10
47.1736330049230901
 20
123.9319422128051968
 30
0.0
  0
VERTEX
  5
5498
  8
0
 10
47.2766101598165207
 20
123.9702857650078016
 30
0.0
  0
VERTEX
  5
5499
  8
0
 10
47.3813216487859492
 20
124.0035877070163934
 30
0.0
  0
VERTEX
  5
549A
  8
0
 10
47.4871906569359226
 20
124.0329806750611965
 30
0.0
  0
VERTEX
  5
549B
  8
0
 10
47.5939461284187928
 20
124.0590170953091018
 30
0.0
  0
VERTEX
  5
549C
  8
0
 10
47.7014054378239507
 20
124.0820815878398946
 30
0.0
  0
VERTEX
  5
549D
  8
0
 10
47.8093860643577884
 20
124.1025586327551054
 30
0.0
  0
VERTEX
  5
549E
  8
0
 10
48.0263967524385222
 20
124.1370110276534007
 30
0.0
  0
VERTEX
  5
549F
  8
0
 10
48.2444096532960316
 20
124.1643032668761037
 30
0.0
  0
VERTEX
  5
54A0
  8
0
 10
48.4630363806003288
 20
124.1860299834649055
 30
0.0
  0
VERTEX
  5
54A1
  8
0
 10
48.6820939106257811
 20
124.2030852271204964
 30
0.0
  0
VERTEX
  5
54A2
  8
0
 10
48.9014537977907935
 20
124.2161768571766061
 30
0.0
  0
VERTEX
  5
54A3
  8
0
 10
49.1209876144636226
 20
124.2260126601940016
 30
0.0
  0
VERTEX
  5
54A4
  8
0
 10
49.3405920401930302
 20
124.2331982313872061
 30
0.0
  0
VERTEX
  5
54A5
  8
0
 10
49.5602389669542092
 20
124.238033036049103
 30
0.0
  0
VERTEX
  5
54A6
  8
0
 10
49.9996039877071894
 20
124.2416198837389061
 30
0.0
  0
VERTEX
  5
54A7
  8
0
 10
50.4389696826905194
 20
124.2380574907584929
 30
0.0
  0
VERTEX
  5
54A8
  8
0
 10
50.6586170953038888
 20
124.233230595092607
 30
0.0
  0
VERTEX
  5
54A9
  8
0
 10
50.8782217887497765
 20
124.2260518001100991
 30
0.0
  0
VERTEX
  5
54AA
  8
0
 10
51.0977554286138798
 20
124.2162225133284039
 30
0.0
  0
VERTEX
  5
54AB
  8
0
 10
51.317115357179091
 20
124.2031390644104931
 30
0.0
  0
VERTEX
  5
54AC
  8
0
 10
51.5361743691116203
 20
124.1860970214278979
 30
0.0
  0
VERTEX
  5
54AD
  8
0
 10
51.7548052436264925
 20
124.1643918890496963
 30
0.0
  0
VERTEX
  5
54AE
  8
0
 10
51.9728261361107116
 20
124.137136877656701
 30
0.0
  0
VERTEX
  5
54AF
  8
0
 10
52.1898418687433079
 20
124.1027332477972038
 30
0.0
  0
VERTEX
  5
54B0
  8
0
 10
52.2978224086927526
 20
124.0822821602615988
 30
0.0
  0
VERTEX
  5
54B1
  8
0
 10
52.4052832060849596
 20
124.0592405463329015
 30
0.0
  0
VERTEX
  5
54B2
  8
0
 10
52.512042245768491
 20
124.033213231296898
 30
0.0
  0
VERTEX
  5
54B3
  8
0
 10
52.6179173343615503
 20
124.0038047950233988
 30
0.0
  0
VERTEX
  5
54B4
  8
0
 10
52.7226390880706504
 20
123.9704757344881045
 30
0.0
  0
VERTEX
  5
54B5
  8
0
 10
52.825602801977702
 20
123.9321324256661967
 30
0.0
  0
VERTEX
  5
54B6
  8
0
 10
52.9260406312371785
 20
123.8875121758730984
 30
0.0
  0
VERTEX
  5
54B7
  8
0
 10
52.9749273793204907
 20
123.8623905750864935
 30
0.0
  0
VERTEX
  5
54B8
  8
0
 10
53.0226830741430035
 20
123.8351342344003996
 30
0.0
  0
VERTEX
  5
54B9
  8
0
 10
53.069045665492979
 20
123.8055080560525028
 30
0.0
  0
VERTEX
  5
54BA
  8
0
 10
53.113452695326032
 20
123.7731272485907965
 30
0.0
  0
VERTEX
  5
54BB
  8
0
 10
53.1552652220583468
 20
123.7375679953000969
 30
0.0
  0
VERTEX
  5
54BC
  8
0
 10
53.1937248931327034
 20
123.6983280725755066
 30
0.0
  0
VERTEX
  5
54BD
  8
0
 10
53.2279099641096991
 20
123.6548412176931038
 30
0.0
  0
VERTEX
  5
54BE
  8
0
 10
53.2426866519830924
 20
123.6314088708254957
 30
0.0
  0
VERTEX
  5
54BF
  8
0
 10
53.2551317341796633
 20
123.6068776715238045
 30
0.0
  0
VERTEX
  5
54C0
  8
0
 10
53.2646254260920387
 20
123.5812751674332048
 30
0.0
  0
VERTEX
  5
54C1
  8
0
 10
53.2710780020255967
 20
123.5547227179027061
 30
0.0
  0
VERTEX
  5
54C2
  8
0
 10
53.2787192622000205
 20
123.5
 30
0.0
  0
SEQEND
  5
54C3
  8
0
  0
LINE
  5
46AB
  8
1
 10
50.0
 20
128.0
 30
0.0
 11
50.0
 21
50.0
 31
0.0
  0
LINE
  5
46AC
  8
1
 10
116.9999999999992042
 20
153.1000027492144113
 30
0.0
 11
116.9999999999991047
 21
50.0
 31
0.0
  0
LINE
  5
46AD
  8
1
 10
30.4999999999995097
 20
200.6000027492121092
 30
0.0
 11
69.4999999999990479
 21
200.6000027492121092
 31
0.0
  0
LINE
  5
46AE
  8
1
 10
50.0000000000000213
 20
187.1000027492144966
 30
0.0
 11
49.9999999999999574
 21
214.1000027492096933
 31
0.0
  0
POLYLINE
  5
49E6
  8
0
 66
     1
 10
0.0
 20
0.0
 30
0.0
  0
VERTEX
  5
54C4
  8
0
 10
53.2787192622000205
 20
114.0999999999999943
 30
0.0
  0
VERTEX
  5
54C5
  8
0
 10
53.2605498994177466
 20
113.8027245964886021
 30
0.0
  0
VERTEX
  5
54C6
  8
0
 10
53.2055934566289466
 20
113.5100147583028019
 30
0.0
  0
VERTEX
  5
54C7
  8
0
 10
53.114797088517598
 20
113.2263608172337968
 30
0.0
  0
VERTEX
  5
54C8
  8
0
 10
52.9910226520699368
 20
112.9554487639844069
 30
0.0
  0
VERTEX
  5
54C9
  8
0
 10
52.8372361567646109
 20
112.6998813980825958
 30
0.0
  0
VERTEX
  5
54CA
  8
0
 10
52.6561645213919789
 20
112.4625248690120998
 30
0.0
  0
VERTEX
  5
54CB
  8
0
 10
52.4509177053257076
 20
112.2459951022934064
 30
0.0
  0
VERTEX
  5
54CC
  8
0
 10
52.2250356445835635
 20
112.0510556723765063
 30
0.0
  0
VERTEX
  5
54CD
  8
0
 10
51.9819485268673702
 20
111.8781344667611961
 30
0.0
  0
VERTEX
  5
54CE
  8
0
 10
51.7241567331877334
 20
111.7281823269059942
 30
0.0
  0
VERTEX
  5
54CF
  8
0
 10
51.4539772466224008
 20
111.6019840429309937
 30
0.0
  0
VERTEX
  5
54D0
  8
0
 10
51.1739963888073319
 20
111.4990893314301985
 30
0.0
  0
VERTEX
  5
54D1
  8
0
 10
50.8867307288324469
 20
111.4189198440799942
 30
0.0
  0
VERTEX
  5
54D2
  8
0
 10
50.594111384959831
 20
111.3616748540792969
 30
0.0
  0
VERTEX
  5
54D3
  8
0
 10
50.2979127922833982
 20
111.3275846968643066
 30
0.0
  0
VERTEX
  5
54D4
  8
0
 10
49.9999055308883911
 20
111.3161333716632981
 30
0.0
  0
VERTEX
  5
54D5
  8
0
 10
49.7018642299437303
 20
111.3268381655668975
 30
0.0
  0
VERTEX
  5
54D6
  8
0
 10
49.4055863480976427
 20
111.3602574247726977
 30
0.0
  0
VERTEX
  5
54D7
  8
0
 10
49.1128825971821286
 20
111.4170697391552949
 30
0.0
  0
VERTEX
  5
54D8
  8
0
 10
48.8255955244861113
 20
111.4971495570809026
 30
0.0
  0
VERTEX
  5
54D9
  8
0
 10
48.5456990195394269
 20
111.6002819845809029
 30
0.0
  0
VERTEX
  5
54DA
  8
0
 10
48.2757137255628592
 20
111.7269001998763969
 30
0.0
  0
VERTEX
  5
54DB
  8
0
 10
48.0182265294404829
 20
111.8773389297479071
 30
0.0
  0
VERTEX
  5
54DC
  8
0
 10
47.7754349076681706
 20
112.0506770026173058
 30
0.0
  0
VERTEX
  5
54DD
  8
0
 10
47.5496931375509391
 20
112.2458062089588964
 30
0.0
  0
VERTEX
  5
54DE
  8
0
 10
47.3444433603565926
 20
112.4622937811996053
 30
0.0
  0
VERTEX
  5
54DF
  8
0
 10
47.163278907698718
 20
112.6994860156943048
 30
0.0
  0
VERTEX
  5
54E0
  8
0
 10
47.0092285404920673
 20
112.9549777550475937
 30
0.0
  0
VERTEX
  5
54E1
  8
0
 10
46.8852940913509926
 20
113.2259598488243029
 30
0.0
  0
VERTEX
  5
54E2
  8
0
 10
46.7944357390053369
 20
113.509733302493899
 30
0.0
  0
VERTEX
  5
54E3
  8
0
 10
46.7394459386198875
 20
113.8025843112682054
 30
0.0
  0
VERTEX
  5
54E4
  8
0
 10
46.721280737900031
 20
114.0999999999999943
 30
0.0
  0
SEQEND
  5
54E5
  8
0
  0
LINE
  5
4B19
  8
3
 10
55.9499999999999815
 20
130.0
 30
0.0
 11
44.0500000000000114
 21
130.0
 31
0.0
  0
ARC
  5
4B1A
  8
3
 10
44.0373176158088313
 20
129.5126823841912085
 30
0.0
 40
0.4874826166606598
 50
88.5092205165366153
 51
181.490779483469197
  0
ARC
  5
4B1B
  8
3
 10
55.977231642213269
 20
129.5272316422133088
 30
0.0
 40
0.4735519849625659
 50
356.7033833269038041
 51
93.2966166730910089
  0
LINE
  5
4B1D
  8
3
 10
43.5500000000000114
 20
129.5
 30
0.0
 11
43.5500000000000611
 21
129.1999999999999886
 31
0.0
  0
LINE
  5
4B1E
  8
3
 10
56.4499999999999318
 20
129.1999999999999886
 30
0.0
 11
56.4499999999999886
 21
129.5
 31
0.0
  0
LINE
  5
4B23
  8
3
 10
57.2180149999993475
 20
129.1999999999999886
 30
0.0
 11
42.781985000000077
 21
129.1999999999999886
 31
0.0
  0
LINE
  5
4B4B
  8
3
 10
42.7819849999999633
 20
129.1999999999999886
 30
0.0
 11
42.5999999999997883
 21
128.7000000000008981
 31
0.0
  0
LINE
  5
4B4C
  8
3
 10
57.3999999999995225
 20
128.7000000000008981
 30
0.0
 11
57.2180149999993475
 21
129.1999999999999886
 31
0.0
  0
LINE
  5
4B4D
  8
3
 10
57.3999999999995296
 20
124.2999999999999972
 30
0.0
 11
57.3999999999995225
 21
128.7000000000008981
 31
0.0
  0
LINE
  5
4B4E
  8
3
 10
42.5999999999997883
 20
128.7000000000008981
 30
0.0
 11
42.5999999999997883
 21
124.2999999999999972
 31
0.0
  0
LINE
  5
4C25
  8
3
 10
56.1999999999787931
 20
132.0126633025325873
 30
0.0
 11
56.1999999999873125
 21
130.4000000000326054
 31
0.0
  0
ARC
  5
4C26
  8
3
 10
69.1992280550659302
 20
132.0129664606743063
 30
0.0
 40
12.9992280586221494
 50
137.1168240446475863
 51
180.001336208732198
  0
ARC
  5
4C27
  8
3
 10
35.4622196036604009
 20
131.8248878413955936
 30
0.0
 40
12.9378043341225002
 50
359.8897827547652923
 51
43.7130362185451631
  0
CIRCLE
  5
4C28
  8
3
 10
52.1999999998718565
 20
152.3000000000116074
 30
0.0
 40
2.7499999999999849
  0
ARC
  5
4C29
  8
3
 10
52.199999999895617
 20
147.8000000000116074
 30
0.0
 40
10.2000000000000401
 50
317.1181602530032251
 51
223.6028189730016038
  0
LINE
  5
4C2A
  8
3
 10
48.3999999999894115
 20
129.9999999999915019
 30
0.0
 11
48.3999999999799115
 21
131.7999999999915133
 31
0.0
  0
ARC
  5
4C2B
  8
3
 10
55.8000096887613424
 20
130.399990311256289
 30
0.0
 40
0.3999903113433063
 50
269.9986121520311144
 51
0.0013878485917815
  0
LINE
  5
4C74
  8
1
 10
113.5000214427299028
 20
59.2999999999999901
 30
0.0
 11
120.5000214427299028
 21
59.2999999999999901
 31
0.0
  0
CIRCLE
  5
4CA7
  8
0
 10
117.0000214427300023
 20
59.2999999999999901
 30
0.0
 40
1.5
  0
ARC
  5
4CC3
  8
0
 10
57.714726391533361
 20
59.2999552463998967
 30
0.0
 40
4.0061443014393356
 50
158.0112301569400017
 51
201.9887698430597993
  0
ARC
  5
4CC5
  8
0
 10
42.285273608466639
 20
59.2999552463998967
 30
0.0
 40
4.0061443014393356
 50
338.0112301569403144
 51
21.9887698430597496
  0
ARC
  5
4CC6
  8
0
 10
53.25
 20
59.2999552463998398
 30
0.0
 40
1.4999999999999929
 50
297.2583934622599031
 51
62.7416065377401182
  0
ARC
  5
4CC7
  8
0
 10
46.7499999999999929
 20
59.2999552463998398
 30
0.0
 40
1.4999999999999929
 50
117.2583934622599031
 51
242.7416065377402106
  0
LINE
  5
4CD3
  8
0
 10
53.278719262158539
 20
211.1000027492096933
 30
0.0
 11
46.7212807378565103
 21
211.1000027492096933
 31
0.0
  0
LINE
  5
4CDA
  8
0
 10
42.5460928913388017
 20
208.6894569221146014
 30
0.0
 11
39.2666500375826502
 21
203.0092952788903915
 31
0.0
  0
LINE
  5
4CDB
  8
0
 10
39.2673736291878512
 20
198.1894569221146014
 30
0.0
 11
42.5460928913388017
 21
192.5105485763143065
 31
0.0
  0
LINE
  5
4CDC
  8
0
 10
46.7212807378488932
 20
190.1000027492144966
 30
0.0
 11
53.278719262150922
 21
190.1000027492144966
 31
0.0
  0
LINE
  5
4CDD
  8
0
 10
57.4539071086609994
 20
192.5105485763143065
 30
0.0
 11
60.7326263708120706
 21
198.1894569221146014
 31
0.0
  0
LINE
  5
4CDE
  8
0
 10
60.7333499624174493
 20
203.0092952788895957
 30
0.0
 11
57.4539071086609994
 21
208.6894569221146014
 31
0.0
  0
ARC
  5
4CE3
  8
0
 10
49.9999999999999574
 20
200.6000027492121092
 30
0.0
 40
7.3999999999995216
 50
7.7664341685209699
 51
172.2335658314790123
  0
ARC
  5
4CE4
  8
0
 10
49.9999999999999574
 20
200.6000027492121092
 30
0.0
 40
7.3999999999995216
 50
187.3758950441547029
 51
352.2335658314817124
  0
LINE
  5
512A
  8
0
 10
66.3352799999984057
 20
123.9437952492140056
 30
0.0
 11
61.0264274999990519
 21
141.8661789992150943
 31
0.0
  0
LINE
  5
512B
  8
0
 10
59.1087874999984706
 20
141.2981489992124011
 30
0.0
 11
64.4176399999991958
 21
123.3757652492188015
 31
0.0
  0
LINE
  5
512C
  8
0
 10
62.4999999999995381
 20
120.7999999999994998
 30
0.0
 11
60.9999999999995524
 21
120.7999999999994998
 31
0.0
  0
LINE
  5
512D
  8
0
 10
60.9999999999995524
 20
118.7999999999999972
 30
0.0
 11
62.4999999999995381
 21
118.7999999999999972
 31
0.0
  0
LINE
  5
512E
  8
0
 10
38.9735737499995594
 20
141.8661789992150943
 30
0.0
 11
33.6647212499997295
 21
123.9437952492140056
 31
0.0
  0
LINE
  5
512F
  8
0
 10
35.5823612500003108
 20
123.3757652492188015
 30
0.0
 11
40.8912137500001265
 21
141.2981489992124011
 31
0.0
  0
LINE
  5
5130
  8
0
 10
39.0000000000004619
 20
120.7999999999994998
 30
0.0
 11
37.5
 21
120.7999999999994998
 31
0.0
  0
POLYLINE
  5
5131
  8
0
 66
     1
 10
0.0
 20
0.0
 30
0.0
  0
VERTEX
  5
54E6
  8
0
 10
50.0
 20
150.1000027492144113
 30
0.0
  0
VERTEX
  5
54E7
  8
0
 10
48.1232086002537471
 20
149.9465074300512129
 30
0.0
  0
VERTEX
  5
54E8
  8
0
 10
46.3318127977740915
 20
149.5002168019414057
 30
0.0
  0
VERTEX
  5
54E9
  8
0
 10
44.6543273697666265
 20
148.7824238589548997
 30
0.0
  0
VERTEX
  5
54EA
  8
0
 10
43.1192670934378768
 20
147.8144215951610079
 30
0.0
  0
VERTEX
  5
54EB
  8
0
 10
41.755146745992981
 20
146.6175030046296115
 30
0.0
  0
VERTEX
  5
54EC
  8
0
 10
40.5904811046366305
 20
145.2129610814305067
 30
0.0
  0
VERTEX
  5
54ED
  8
0
 10
39.6537849465757972
 20
143.6220888196330918
 30
0.0
  0
VERTEX
  5
54EE
  8
0
 10
38.9735737499995594
 20
141.8661789992150943
 30
0.0
  0
SEQEND
  5
54EF
  8
0
  0
POLYLINE
  5
5132
  8
0
 66
     1
 10
0.0
 20
0.0
 30
0.0
  0
VERTEX
  5
54F0
  8
0
 10
61.0264274999990519
 20
141.8661789992150943
 30
0.0
  0
VERTEX
  5
54F1
  8
0
 10
60.3462150534228385
 20
143.6220888196330918
 30
0.0
  0
VERTEX
  5
54F2
  8
0
 10
59.4095188953629005
 20
145.2129610814305067
 30
0.0
  0
VERTEX
  5
54F3
  8
0
 10
58.2448532540070119
 20
146.6175030046296115
 30
0.0
  0
VERTEX
  5
54F4
  8
0
 10
56.8807329065621232
 20
147.8144215951610079
 30
0.0
  0
VERTEX
  5
54F5
  8
0
 10
55.3456726302333735
 20
148.7824238589548997
 30
0.0
  0
VERTEX
  5
54F6
  8
0
 10
53.6681872022259085
 20
149.5002168019414057
 30
0.0
  0
VERTEX
  5
54F7
  8
0
 10
51.8767913997467076
 20
149.9465074300512129
 30
0.0
  0
VERTEX
  5
54F8
  8
0
 10
50.0
 20
150.1000027492144113
 30
0.0
  0
SEQEND
  5
54F9
  8
0
  0
POLYLINE
  5
5133
  8
0
 66
     1
 10
0.0
 20
0.0
 30
0.0
  0
VERTEX
  5
54FA
  8
0
 10
35.5823612500003108
 20
123.3757652492188015
 30
0.0
  0
VERTEX
  5
54FB
  8
0
 10
35.7423657746753634
 20
121.8456824794826048
 30
0.0
  0
VERTEX
  5
54FC
  8
0
 10
36.931969310592649
 20
120.8823605302667943
 30
0.0
  0
VERTEX
  5
54FD
  8
0
 10
37.2130147560174009
 20
120.8206972263610055
 30
0.0
  0
VERTEX
  5
54FE
  8
0
 10
37.5
 20
120.7999999999994998
 30
0.0
  0
SEQEND
  5
54FF
  8
0
  0
POLYLINE
  5
5134
  8
0
 66
     1
 10
0.0
 20
0.0
 30
0.0
  0
VERTEX
  5
5500
  8
0
 10
33.6647212499997295
 20
123.9437952492140056
 30
0.0
  0
VERTEX
  5
5501
  8
0
 10
33.5239099335190076
 20
122.353920399235804
 30
0.0
  0
VERTEX
  5
5502
  8
0
 10
33.9847315493525528
 20
120.8913649589605939
 30
0.0
  0
VERTEX
  5
5503
  8
0
 10
34.9603523109376511
 20
119.7083226490402978
 30
0.0
  0
VERTEX
  5
5504
  8
0
 10
36.3639386211830171
 20
118.9647210605261023
 30
0.0
  0
VERTEX
  5
5505
  8
0
 10
37.5
 20
118.7999999999999972
 30
0.0
  0
SEQEND
  5
5506
  8
0
  0
POLYLINE
  5
5135
  8
0
 66
     1
 10
0.0
 20
0.0
 30
0.0
  0
VERTEX
  5
5507
  8
0
 10
62.4999999999995381
 20
120.7999999999994998
 30
0.0
  0
VERTEX
  5
5508
  8
0
 10
63.9142135623719696
 20
121.3857864376280986
 30
0.0
  0
VERTEX
  5
5509
  8
0
 10
64.4999999999995453
 20
122.7999999999990024
 30
0.0
  0
VERTEX
  5
550A
  8
0
 10
64.4793027736377553
 20
123.0869852439845999
 30
0.0
  0
VERTEX
  5
550B
  8
0
 10
64.4176399999991958
 20
123.3757652492188015
 30
0.0
  0
SEQEND
  5
550C
  8
0
  0
POLYLINE
  5
5136
  8
0
 66
     1
 10
0.0
 20
0.0
 30
0.0
  0
VERTEX
  5
550D
  8
0
 10
62.4999999999995381
 20
118.7999999999999972
 30
0.0
  0
VERTEX
  5
550E
  8
0
 10
64.0569805153381822
 20
119.1143398282201957
 30
0.0
  0
VERTEX
  5
550F
  8
0
 10
65.328427124744394
 20
119.9715728752540969
 30
0.0
  0
VERTEX
  5
5510
  8
0
 10
66.1856601717777266
 20
121.2430194846606071
 30
0.0
  0
VERTEX
  5
5511
  8
0
 10
66.499999999998181
 20
122.7999999999990024
 30
0.0
  0
VERTEX
  5
5512
  8
0
 10
66.3375709151824253
 20
123.9360612499990992
 30
0.0
  0
SEQEND
  5
5513
  8
0
  0
POLYLINE
  5
5137
  8
0
 66
     1
 10
0.0
 20
0.0
 30
0.0
  0
VERTEX
  5
5514
  8
0
 10
59.1087874999984706
 20
141.2981489992124011
 30
0.0
  0
VERTEX
  5
5515
  8
0
 10
58.7858901065151329
 20
142.215538907996887
 30
0.0
  0
VERTEX
  5
5516
  8
0
 10
58.3799588108518108
 20
143.079070177512591
 30
0.0
  0
VERTEX
  5
5517
  8
0
 10
57.8969284072058983
 20
143.8855199919325969
 30
0.0
  0
VERTEX
  5
5518
  8
0
 10
57.3427337085268007
 20
144.6316660107401049
 30
0.0
  0
VERTEX
  5
5519
  8
0
 10
56.7233095277647408
 20
145.3142858934180026
 30
0.0
  0
VERTEX
  5
551A
  8
0
 10
56.0445906778672907
 20
145.9301572994496894
 30
0.0
  0
VERTEX
  5
551B
  8
0
 10
55.3125119717851703
 20
146.4760578883175981
 30
0.0
  0
VERTEX
  5
551C
  8
0
 10
54.5330082224663784
 20
146.9487653195049006
 30
0.0
  0
VERTEX
  5
551D
  8
0
 10
53.7120142428602705
 20
147.3450572524947972
 30
0.0
  0
VERTEX
  5
551E
  8
0
 10
52.8554648459166927
 20
147.6617113467696925
 30
0.0
  0
VERTEX
  5
551F
  8
0
 10
51.9692948445845104
 20
147.8955052618134118
 30
0.0
  0
VERTEX
  5
5520
  8
0
 10
51.0594390518121983
 20
148.043216657108303
 30
0.0
  0
VERTEX
  5
5521
  8
0
 10
50.1318322805495882
 20
148.1016231921375947
 30
0.0
  0
VERTEX
  5
5522
  8
0
 10
49.1924093437464833
 20
148.0675025263840894
 30
0.0
  0
VERTEX
  5
5523
  8
0
 10
48.2471050543508682
 20
147.9376323193309872
 30
0.0
  0
VERTEX
  5
5524
  8
0
 10
47.3018542253125815
 20
147.7087902304610907
 30
0.0
  0
VERTEX
  5
5525
  8
0
 10
46.178296679342111
 20
147.2975245036336958
 30
0.0
  0
VERTEX
  5
5526
  8
0
 10
45.1274220416030403
 20
146.7554297367109939
 30
0.0
  0
VERTEX
  5
5527
  8
0
 10
44.15892133407214
 20
146.092196951670104
 30
0.0
  0
VERTEX
  5
5528
  8
0
 10
43.2824855787275666
 20
145.3175171704887134
 30
0.0
  0
VERTEX
  5
5529
  8
0
 10
42.5078057975456431
 20
144.4410814151439126
 30
0.0
  0
VERTEX
  5
552A
  8
0
 10
41.8445730125040427
 20
143.4725807076129911
 30
0.0
  0
VERTEX
  5
552B
  8
0
 10
41.3024782455804598
 20
142.4217060698736077
 30
0.0
  0
VERTEX
  5
552C
  8
0
 10
40.8912137500001265
 20
141.2981489992124011
 30
0.0
  0
SEQEND
  5
552D
  8
0
  0
LINE
  5
5138
  8
0
 10
37.5
 20
118.7999999999999972
 30
0.0
 11
39.0000000000004619
 21
118.7999999999999972
 31
0.0
  0
LINE
  5
5142
  8
0
 10
34.4999999999995097
 20
199.6000027492113986
 30
0.0
 11
65.4999999999990337
 21
199.6000027492113986
 31
0.0
  0
LINE
  5
5143
  8
0
 10
65.4999999999990337
 20
201.6000027492131039
 30
0.0
 11
34.4999999999995097
 21
201.6000027492131039
 31
0.0
  0
ARC
  5
5144
  8
0
 10
65.4999999999990337
 20
200.6000027492121092
 30
0.0
 40
1.0
 50
270.0
 51
90.0
  0
ARC
  5
5145
  8
0
 10
34.4999999999995097
 20
200.6000027492121092
 30
0.0
 40
1.0
 50
90.0
 51
270.0
  0
ARC
  5
5149
  8
0
 10
50.0405787599035818
 20
200.6009935121269052
 30
0.0
 40
11.0398123857902508
 50
167.3997803213007955
 51
174.8081163683148134
  0
ARC
  5
514A
  8
0
 10
50.0405787599035818
 20
200.6009935121269052
 30
0.0
 40
11.0398123857902508
 50
185.2022100499636963
 51
192.6174230542895032
  0
ARC
  5
514B
  8
0
 10
49.9594212400963471
 20
200.6009935121269052
 30
0.0
 40
11.0398123857902508
 50
5.1918836316852204
 51
12.6002196786995704
  0
LINE
  5
51B4
  8
0
 10
227.8999999999990962
 20
169.7159673131988029
 30
0.0
 11
229.7999999999991019
 21
169.7159673131988029
 31
0.0
  0
LINE
  5
51B5
  8
0
 10
227.8999999999990962
 20
151.2159673131988029
 30
0.0
 11
229.7999999999991019
 21
151.2159673131988029
 31
0.0
  0
LINE
  5
51B8
  8
0
 10
229.7999999999991019
 20
151.2159673131988029
 30
0.0
 11
229.7999999999991019
 21
197.7159673131988029
 31
0.0
  0
LINE
  5
51B9
  8
0
 10
227.8999999999990962
 20
151.2159673131988029
 30
0.0
 11
227.8999999999990962
 21
197.7159673131988029
 31
0.0
  0
LINE
  5
51BC
  8
0
 10
227.8999999999990962
 20
180.5749830755081007
 30
0.0
 11
229.7999999999991019
 21
180.5749830755081007
 31
0.0
  0
LINE
  5
51BF
  8
0
 10
229.7999999999991019
 20
197.7159673131988029
 30
0.0
 11
227.8999999999990962
 21
197.7159673131988029
 31
0.0
  0
LINE
  5
51C1
  8
0
 10
227.8999999999990962
 20
154.3331246007242896
 30
0.0
 11
229.7999999999991019
 21
154.3331246007242896
 31
0.0
  0
ARC
  5
51C4
  8
0
 10
194.3845612252200965
 20
153.2267294905749964
 30
0.0
 40
0.484603423864764
 50
179.2438694425594861
 51
225.7571464927845
  0
ARC
  5
51C5
  8
0
 10
201.3012843283364077
 20
170.114682984861588
 30
0.0
 40
0.3987177401730935
 50
269.8154415691299732
 51
0.1845584308760427
  0
LINE
  5
51C6
  8
0
 10
195.4999999999992042
 20
151.4260693646421885
 30
0.0
 11
194.046452878385395
 21
152.8795649413737863
 31
0.0
  0
ARC
  5
51C7
  8
0
 10
195.9999999999992042
 20
151.9141420977834969
 30
0.0
 40
0.6987238315929973
 50
224.3084022672420019
 51
315.6915977327585097
  0
LINE
  5
51C8
  8
0
 10
193.8999999999992099
 20
153.23312460072421
 30
0.0
 11
193.8999999999992099
 21
171.5159673131987859
 31
0.0
  0
ARC
  5
51C9
  8
0
 10
197.6999999999991076
 20
187.5159673131988995
 30
0.0
 40
10.1999999999999993
 50
317.1181602527256018
 51
223.6028189726993958
  0
CIRCLE
  5
51CA
  8
0
 10
197.6999999999991076
 20
192.0159673131988995
 30
0.0
 40
2.75
  0
ARC
  5
51CB
  8
0
 10
180.9879341470638963
 20
171.5511409720245979
 30
0.0
 40
12.9121137609925398
 50
359.8439213957893799
 51
43.7588975769212993
  0
ARC
  5
51CC
  8
0
 10
213.5198649197959924
 20
172.1920930500268128
 30
0.0
 40
11.8289477194834003
 50
134.8727162171697955
 51
182.245444035557
  0
LINE
  5
51CD
  8
0
 10
201.6999999999991076
 20
171.7286306157060949
 30
0.0
 11
201.6999999999991076
 21
170.1159673131988086
 31
0.0
  0
LINE
  5
51CE
  8
0
 10
199.1999999999991076
 20
169.7159673131988029
 30
0.0
 11
199.1999999999991076
 21
154.3331246007242896
 31
0.0
  0
ARC
  5
51CF
  8
0
 10
198.7182118385586875
 20
154.3255809025579026
 30
0.0
 40
0.4818472163312415
 50
314.1023744507809852
 51
0.897047260403796
  0
LINE
  5
51D0
  8
0
 10
199.0535498221699982
 20
153.9795676417805907
 30
0.0
 11
196.4999999999992042
 21
151.4260693646421885
 31
0.0
  0
LINE
  5
51D1
  8
0
 10
199.1999999999991076
 20
169.7159673131988029
 30
0.0
 11
201.2999999999991019
 21
169.7159673131988029
 31
0.0
  0
LINE
  5
51DC
  8
1
 10
197.6999999999991076
 20
200.7157654259038111
 30
0.0
 11
197.6999999999989939
 21
148.5968185829487993
 31
0.0
  0
LINE
  5
51E4
  8
1
 10
192.9499999999991076
 20
192.0159673131988995
 30
0.0
 11
202.4499999999991076
 21
192.0159673131988995
 31
0.0
  0
LINE
  5
51FC
  8
0
 10
227.8999999999990962
 20
103.2159673131988029
 30
0.0
 11
229.7999999999991019
 21
103.2159673131988029
 31
0.0
  0
LINE
  5
51FD
  8
0
 10
227.8999999999990962
 20
84.7159673131988598
 30
0.0
 11
229.7999999999991019
 21
84.7159673131988598
 31
0.0
  0
LINE
  5
51FE
  8
0
 10
229.7999999999991019
 20
84.7159673131988598
 30
0.0
 11
229.7999999999991019
 21
131.2159673131988029
 31
0.0
  0
LINE
  5
51FF
  8
0
 10
227.8999999999990962
 20
84.7159673131988598
 30
0.0
 11
227.8999999999990962
 21
131.2159673131988029
 31
0.0
  0
LINE
  5
5200
  8
0
 10
227.8999999999990962
 20
114.0749830755081007
 30
0.0
 11
229.7999999999991019
 21
114.0749830755081007
 31
0.0
  0
LINE
  5
5201
  8
0
 10
229.7999999999991019
 20
131.2159673131988029
 30
0.0
 11
227.8999999999990962
 21
131.2159673131988029
 31
0.0
  0
LINE
  5
5202
  8
0
 10
227.8999999999990962
 20
87.8331246007242754
 30
0.0
 11
229.7999999999991019
 21
87.8331246007242754
 31
0.0
  0
ARC
  5
5203
  8
0
 10
194.3845612252200965
 20
86.7267294905750816
 30
0.0
 40
0.484603423864764
 50
179.2438694425592871
 51
225.7571464927845
  0
ARC
  5
5204
  8
0
 10
201.3012843283364077
 20
103.6146829848616022
 30
0.0
 40
0.3987177401730935
 50
269.8154415691299732
 51
0.1845584308762463
  0
LINE
  5
5205
  8
0
 10
195.4999999999992042
 20
84.9260693646422169
 30
0.0
 11
194.046452878385395
 21
86.3795649413738147
 31
0.0
  0
ARC
  5
5206
  8
0
 10
195.9999999999992042
 20
85.4141420977834969
 30
0.0
 40
0.6987238315929973
 50
224.308402267241803
 51
315.6915977327607834
  0
LINE
  5
5207
  8
0
 10
193.8999999999992099
 20
86.7331246007242243
 30
0.0
 11
193.8999999999992099
 21
105.0159673131988001
 31
0.0
  0
ARC
  5
5208
  8
0
 10
197.6999999999991076
 20
121.0159673131988995
 30
0.0
 40
10.1999999999999993
 50
317.1181602527256018
 51
223.6028189726993105
  0
CIRCLE
  5
5209
  8
0
 10
197.6999999999991076
 20
125.5159673131988001
 30
0.0
 40
2.75
  0
ARC
  5
520A
  8
0
 10
180.9879341470638963
 20
105.0511409720245979
 30
0.0
 40
12.9121137609925398
 50
359.8439213957889251
 51
43.7588975769210791
  0
ARC
  5
520B
  8
0
 10
213.5198649197959924
 20
105.6920930500267986
 30
0.0
 40
11.8289477194834003
 50
134.8727162171697955
 51
182.2454440355575116
  0
LINE
  5
520C
  8
0
 10
201.6999999999991076
 20
105.2286306157060949
 30
0.0
 11
201.6999999999991076
 21
103.6159673131987944
 31
0.0
  0
LINE
  5
520D
  8
0
 10
199.1999999999991076
 20
103.2159673131988029
 30
0.0
 11
199.1999999999991076
 21
87.8331246007242754
 31
0.0
  0
ARC
  5
520E
  8
0
 10
198.7182118385586875
 20
87.8255809025578742
 30
0.0
 40
0.4818472163312415
 50
314.1023744507809283
 51
0.8970472604033894
  0
LINE
  5
520F
  8
0
 10
199.0535498221699982
 20
87.4795676417806476
 30
0.0
 11
196.4999999999992042
 21
84.9260693646422169
 31
0.0
  0
LINE
  5
5210
  8
0
 10
199.1999999999991076
 20
103.2159673131988029
 30
0.0
 11
201.2999999999991019
 21
103.2159673131988029
 31
0.0
  0
LINE
  5
5211
  8
1
 10
197.6999999999991076
 20
134.2157654259038111
 30
0.0
 11
197.6999999999989939
 21
82.0968185829488277
 31
0.0
  0
LINE
  5
5212
  8
1
 10
192.9499999999991076
 20
125.5159673131988001
 30
0.0
 11
202.4499999999991076
 21
125.5159673131988001
 31
0.0
  0
LINE
  5
5298
  8
1
 10
52.2085820900940405
 20
59.2999999999999901
 30
0.0
 11
56.25
 21
59.2999999999999901
 31
0.0
  0
LINE
  5
5299
  8
1
 10
47.7914179099059524
 20
59.2999999999999901
 30
0.0
 11
43.75
 21
59.2999999999999901
 31
0.0
  0
ENDSEC
  0
EOF
