  0
SECTION
  2
HEADER
  9
$ACADVER
  1
AC1009
  9
$INSBASE
 10
0.0
 20
0.0
 30
0.0
  9
$EXTMIN
 10
0.0
 20
-2.960436562073669
 30
0.0
  9
$EXTMAX
 10
248.2500000000001137
 20
286.1499820425174221
 30
0.0
  9
$LIMMIN
 10
0.0
 20
0.0
  9
$LIMMAX
 10
187.5
 20
135.0
  9
$ORTHOMODE
 70
     1
  9
$REGENMODE
 70
     1
  9
$FILLMODE
 70
     1
  9
$QTEXTMODE
 70
     0
  9
$MIRRTEXT
 70
     0
  9
$DRAGMODE
 70
     2
  9
$LTSCALE
 40
5.0
  9
$OSMODE
 70
    37
  9
$ATTMODE
 70
     1
  9
$TEXTSIZE
 40
4.0
  9
$TRACEWID
 40
0.05
  9
$TEXTSTYLE
  7
STANDARD
  9
$CLAYER
  8
0
  9
$CELTYPE
  6
BYLAYER
  9
$CECOLOR
 62
   256
  9
$DIMSCALE
 40
0.5
  9
$DIMASZ
 40
3.0
  9
$DIMEXO
 40
2.0
  9
$DIMDLI
 40
0.38
  9
$DIMRND
 40
0.0
  9
$DIMDLE
 40
0.0
  9
$DIMEXE
 40
2.0
  9
$DIMTP
 40
0.0
  9
$DIMTM
 40
0.0
  9
$DIMTXT
 40
3.0
  9
$DIMCEN
 40
0.0
  9
$DIMTSZ
 40
0.0
  9
$DIMTOL
 70
     0
  9
$DIMLIM
 70
     0
  9
$DIMTIH
 70
     0
  9
$DIMTOH
 70
     0
  9
$DIMSE1
 70
     0
  9
$DIMSE2
 70
     0
  9
$DIMTAD
 70
     1
  9
$DIMZIN
 70
     0
  9
$DIMBLK
  1

  9
$DIMASO
 70
     0
  9
$DIMSHO
 70
     0
  9
$DIMPOST
  1

  9
$DIMAPOST
  1

  9
$DIMALT
 70
     0
  9
$DIMALTD
 70
     2
  9
$DIMALTF
 40
25.3999999999999986
  9
$DIMLFAC
 40
1.0
  9
$DIMTOFL
 70
     0
  9
$DIMTVP
 40
1.6000000000000001
  9
$DIMTIX
 70
     1
  9
$DIMSOXD
 70
     0
  9
$DIMSAH
 70
     0
  9
$DIMBLK1
  1

  9
$DIMBLK2
  1

  9
$DIMSTYLE
  2
STANDARD
  9
$DIMCLRD
 70
     0
  9
$DIMCLRE
 70
     0
  9
$DIMCLRT
 70
     0
  9
$DIMTFAC
 40
1.0
  9
$DIMGAP
 40
0.09
  9
$LUNITS
 70
     2
  9
$LUPREC
 70
     1
  9
$SKETCHINC
 40
0.1
  9
$FILLETRAD
 40
1.0
  9
$AUNITS
 70
     0
  9
$AUPREC
 70
     0
  9
$MENU
  1
E:\r13\win\SUPPORT\ACAD
  9
$ELEVATION
 40
0.0
  9
$PELEVATION
 40
0.0
  9
$THICKNESS
 40
0.0
  9
$LIMCHECK
 70
     0
  9
$BLIPMODE
 70
     0
  9
$CHAMFERA
 40
0.0
  9
$CHAMFERB
 40
0.0
  9
$SKPOLY
 70
     0
  9
$TDCREATE
 40
2449840.6143865738995373
  9
$TDUPDATE
 40
2460864.3915509260259569
  9
$TDINDWG
 40
0.7585458681
  9
$TDUSRTIMER
 40
0.7585458681
  9
$USRTIMER
 70
     1
  9
$ANGBASE
 50
0.0
  9
$ANGDIR
 70
     0
  9
$PDMODE
 70
     0
  9
$PDSIZE
 40
0.0
  9
$PLINEWID
 40
0.0
  9
$COORDS
 70
     1
  9
$SPLFRAME
 70
     0
  9
$SPLINETYPE
 70
     6
  9
$SPLINESEGS
 70
     8
  9
$ATTDIA
 70
     1
  9
$ATTREQ
 70
     1
  9
$HANDLING
 70
     1
  9
$HANDSEED
  5
74BA
  9
$SURFTAB1
 70
     6
  9
$SURFTAB2
 70
     6
  9
$SURFTYPE
 70
     6
  9
$SURFU
 70
     6
  9
$SURFV
 70
     6
  9
$UCSNAME
  2

  9
$UCSORG
 10
0.0
 20
0.0
 30
0.0
  9
$UCSXDIR
 10
1.0
 20
0.0
 30
0.0
  9
$UCSYDIR
 10
0.0
 20
1.0
 30
0.0
  9
$PUCSNAME
  2

  9
$PUCSORG
 10
0.0
 20
0.0
 30
0.0
  9
$PUCSXDIR
 10
1.0
 20
0.0
 30
0.0
  9
$PUCSYDIR
 10
0.0
 20
1.0
 30
0.0
  9
$USERI1
 70
     0
  9
$USERI2
 70
     1
  9
$USERI3
 70
     1
  9
$USERI4
 70
     0
  9
$USERI5
 70
     0
  9
$USERR1
 40
0.0
  9
$USERR2
 40
0.0
  9
$USERR3
 40
0.0
  9
$USERR4
 40
0.0
  9
$USERR5
 40
0.0
  9
$WORLDVIEW
 70
     1
  9
$SHADEDGE
 70
     3
  9
$SHADEDIF
 70
    70
  9
$TILEMODE
 70
     1
  9
$MAXACTVP
 70
    16
  9
$PLIMCHECK
 70
     0
  9
$PEXTMIN
 10
1.0000000000000000E+20
 20
1.0000000000000000E+20
 30
1.0000000000000000E+20
  9
$PEXTMAX
 10
-1.0000000000000000E+20
 20
-1.0000000000000000E+20
 30
-1.0000000000000000E+20
  9
$PLIMMIN
 10
0.0
 20
0.0
  9
$PLIMMAX
 10
12.0
 20
9.0
  9
$UNITMODE
 70
     0
  9
$VISRETAIN
 70
     0
  9
$PLINEGEN
 70
     0
  9
$PSLTSCALE
 70
     0
  0
ENDSEC
  0
SECTION
  2
TABLES
  0
TABLE
  2
VPORT
 70
     1
  0
VPORT
  2
*ACTIVE
 70
     0
 10
0.0
 20
0.0
 11
1.0
 21
1.0
 12
539.4919168591223979
 22
229.7154884581055967
 13
0.0
 23
0.0
 14
5.0
 24
5.0
 15
5.0
 25
5.0
 16
0.0
 26
0.0
 36
1.0
 17
0.0
 27
0.0
 37
0.0
 40
459.4309769162111934
 41
2.3485221674876842
 42
50.0
 43
0.0
 44
0.0
 50
0.0
 51
0.0
 71
     0
 72
   100
 73
     1
 74
     0
 75
     0
 76
     0
 77
     0
 78
     0
  0
ENDTAB
  0
TABLE
  2
LTYPE
 70
     4
  0
LTYPE
  2
CONTINUOUS
 70
     0
  3
Solid Line
 72
    65
 73
     0
 40
0.0
  0
LTYPE
  2
CENTER
 70
     0
  3
____ _ ____ _ ____ _ ____ _ ____ _ ____ _ ____
 72
    65
 73
     4
 40
2.0
 49
1.25
 49
-0.25
 49
0.25
 49
-0.25
  0
LTYPE
  2
PHANTOM2
 70
     0
  3
___ _ _ ___ _ _ ___ _ _ ___ _ _
 72
    65
 73
     6
 40
1.25
 49
0.625
 49
-0.125
 49
0.125
 49
-0.125
 49
0.125
 49
-0.125
  0
LTYPE
  2
HIDDEN
 70
     0
  3
_ _ _ _ _ _ _ _ _ _ _ _ _ _ _ _ _ _ _ _ _ _ _
 72
    65
 73
     2
 40
0.375
 49
0.25
 49
-0.125
  0
ENDTAB
  0
TABLE
  2
LAYER
 70
     5
  0
LAYER
  2
0
 70
     0
 62
     7
  6
CONTINUOUS
  0
LAYER
  2
1
 70
     0
 62
     1
  6
CENTER
  0
LAYER
  2
3
 70
     0
 62
     3
  6
CONTINUOUS
  0
LAYER
  2
DEFPOINTS
 70
     0
 62
     7
  6
CONTINUOUS
  0
LAYER
  2
2
 70
     0
 62
     2
  6
HIDDEN
  0
ENDTAB
  0
TABLE
  2
STYLE
 70
     2
  0
STYLE
  2
STANDARD
 70
     0
 40
0.0
 41
1.0
 50
0.0
 71
     0
 42
4.0
  3
TXT
  4
BIGFONT
  0
STYLE
  2
STANDARD1
 70
     0
 40
0.0
 41
1.0
 50
0.0
 71
     0
 42
3.0
  3
txt
  4

  0
ENDTAB
  0
TABLE
  2
VIEW
 70
     1
  0
VIEW
  2
ALL
 70
     0
 40
179.6615229999999883
 10
141.9039180000000044
 20
89.8307609999999954
 41
0.0
 11
0.0
 21
0.0
 31
1.0
 12
0.0
 22
0.0
 32
0.0
 42
0.0
 43
0.0
 44
0.0
 50
0.0
 71
     0
  0
ENDTAB
  0
TABLE
  2
UCS
 70
     0
  0
ENDTAB
  0
TABLE
  2
APPID
 70
    13
  0
APPID
  2
ACAD
 70
     0
  0
APPID
  2
DCO15
 70
     0
  0
APPID
  2
ACAD_EXEMPT_FROM_CAD_STANDARDS
 70
     0
  0
APPID
  2
ACAD_MLEADERVER
 70
     0
  0
APPID
  2
ACAD_NAV_VCDISPLAY
 70
     0
  0
APPID
  2
ACAD_DSTYLE_DIMJAG
 70
     0
  0
APPID
  2
ACAD_DSTYLE_DIMTALN
 70
     0
  0
APPID
  2
ACAD_PSEXT
 70
     0
  0
APPID
  2
ACAD_DSTYLE_DIMBREAK
 70
     0
  0
APPID
  2
ACAECLAYERSTANDARD
 70
     0
  0
APPID
  2
ACCMTRANSPARENCY
 70
     0
  0
APPID
  2
GRADIENTCOLOR1ACI
 70
     0
  0
APPID
  2
GRADIENTCOLOR2ACI
 70
     0
  0
ENDTAB
  0
TABLE
  2
DIMSTYLE
 70
     1
  0
DIMSTYLE
  2
STANDARD
 70
     0
  3

  4

  5

  6

  7

 40
1.0
 41
0.18
 42
0.0625
 43
0.38
 44
0.18
 45
0.0
 46
0.0
 47
0.0
 48
0.0
140
0.18
141
0.09
142
0.0
143
25.3999999999999986
144
1.0
145
0.0
146
1.0
147
0.09
 71
     0
 72
     0
 73
     1
 74
     1
 75
     0
 76
     0
 77
     0
 78
     0
170
     0
171
     2
172
     0
173
     0
174
     0
175
     0
176
     0
177
     0
178
     0
  0
ENDTAB
  0
ENDSEC
  0
SECTION
  2
BLOCKS
  0
BLOCK
  8
0
  2
$MODEL_SPACE
 70
     0
 10
0.0
 20
0.0
 30
0.0
  3
$MODEL_SPACE
  1

  0
ENDBLK
  5
1BD
  8
0
  0
BLOCK
 67
     1
  8
0
  2
$PAPER_SPACE
 70
     0
 10
0.0
 20
0.0
 30
0.0
  3
$PAPER_SPACE
  1

  0
ENDBLK
  5
1BB
 67
     1
  8
0
  0
ENDSEC
  0
SECTION
  2
ENTITIES
  0
TEXT
  5
189A
  8
0
 62
     3
 10
0.0
 20
0.0
 30
0.0
 40
10.0
  1
BLPLK12070
  7
STANDARD1
  0
ARC
  5
5604
  8
0
 10
103.755376004163395
 20
164.2958776824908114
 30
0.0
 40
10.9442086741419207
 50
2.6401456806686858
 51
32.8455134596842626
  0
ARC
  5
5605
  8
0
 10
155.1315155703711071
 20
164.3000719140547972
 30
0.0
 40
10.9309215523534107
 50
147.1356902493245968
 51
177.3786506103224099
  0
LINE
  5
5606
  8
0
 10
145.9500000000001023
 20
170.2317510873359936
 30
0.0
 11
145.9500000000001023
 21
179.2983930612253971
 31
0.0
  0
LINE
  5
5607
  8
0
 10
112.9500000000000028
 20
179.2983930612253971
 30
0.0
 11
112.9500000000000028
 21
170.2317510873359936
 31
0.0
  0
LINE
  5
5608
  8
0
 10
114.6879678373999951
 20
164.8000000000000114
 30
0.0
 11
116.296237264200002
 21
144.8110910610000133
 31
0.0
  0
LINE
  5
5609
  8
0
 10
142.6037627358001032
 20
144.8110910610000133
 30
0.0
 11
144.21203216260011
 21
164.8000000000000114
 31
0.0
  0
ARC
  5
560A
  8
0
 10
116.6322705242151017
 20
144.8531566951573097
 30
0.0
 40
0.338655975015094
 50
187.1353370080030913
 51
224.764662966565993
  0
ARC
  5
560B
  8
0
 10
142.2988064013754865
 20
144.8380330225882915
 30
0.0
 40
0.306144141214389
 50
313.1487989389376025
 51
354.9512010864170861
  0
LINE
  5
560C
  8
0
 10
116.3918230267000951
 20
144.614676359799887
 30
0.0
 11
118.2500000000000995
 21
142.9000000000000057
 31
0.0
  0
LINE
  5
560D
  8
0
 10
140.6500000000000909
 20
142.9000000000000057
 30
0.0
 11
142.5081769732998964
 21
144.614676359799887
 31
0.0
  0
LINE
  5
560E
  8
0
 10
119.4500000000000028
 20
133.4000000000000057
 30
0.0
 11
119.7386751346000011
 21
132.9000000000000057
 31
0.0
  0
LINE
  5
560F
  8
0
 10
139.161324865400104
 20
132.9000000000000057
 30
0.0
 11
139.4500000000001023
 21
133.4000000000000057
 31
0.0
  0
LINE
  5
5610
  8
0
 10
139.4500000000001023
 20
133.4000000000000057
 30
0.0
 11
139.4500000000001023
 21
142.9000000000000057
 31
0.0
  0
LINE
  5
5611
  8
0
 10
119.4500000000000028
 20
142.9000000000000057
 30
0.0
 11
119.4500000000000028
 21
133.4000000000000057
 31
0.0
  0
LINE
  5
5623
  8
0
 10
116.8199721998999934
 20
174.6542868777000024
 30
0.0
 11
142.0800278000999981
 21
174.6542868777000024
 31
0.0
  0
LINE
  5
5638
  8
0
 10
142.5532865065999886
 20
182.4000000000000057
 30
0.0
 11
116.3467134934000029
 21
182.4000000000000057
 31
0.0
  0
LINE
  5
563B
  8
0
 10
118.2500000000000995
 20
142.9000000000000057
 30
0.0
 11
140.6500000000000909
 21
142.9000000000000057
 31
0.0
  0
LINE
  5
563C
  8
0
 10
139.161324865400104
 20
132.9000000000000057
 30
0.0
 11
119.7386751346000011
 21
132.9000000000000057
 31
0.0
  0
LINE
  5
563D
  8
0
 10
139.4500000000001023
 20
133.4000000000000057
 30
0.0
 11
119.4500000000000028
 21
133.4000000000000057
 31
0.0
  0
LINE
  5
564A
  8
0
 10
116.296237264200002
 20
144.8110910610000133
 30
0.0
 11
142.6037627358001032
 21
144.8110910610000133
 31
0.0
  0
POLYLINE
  5
62DA
  8
0
 66
     1
 10
0.0
 20
0.0
 30
0.0
  0
VERTEX
  5
72C0
  8
0
 10
115.461160714284901
 20
174.1999999999852946
 30
0.0
  0
VERTEX
  5
72C1
  8
0
 10
115.1595002214542944
 20
173.9493479428325884
 30
0.0
  0
VERTEX
  5
72C2
  8
0
 10
114.8770956245545989
 20
173.681280293431513
 30
0.0
  0
VERTEX
  5
72C3
  8
0
 10
114.3737830647586975
 20
173.0974785125160906
 30
0.0
  0
VERTEX
  5
72C4
  8
0
 10
113.9459985543463034
 20
172.4747680529808065
 30
0.0
  0
VERTEX
  5
72C5
  8
0
 10
113.5939860917863058
 20
171.8422692690116094
 30
0.0
  0
VERTEX
  5
72C6
  8
0
 10
113.3170328611302011
 20
171.239663908287298
 30
0.0
  0
VERTEX
  5
72C7
  8
0
 10
113.2061425028746982
 20
170.9682363582236064
 30
0.0
  0
VERTEX
  5
72C8
  8
0
 10
113.1138485969563021
 20
170.7258897594244047
 30
0.0
  0
VERTEX
  5
72C9
  8
0
 10
113.0406748679168061
 20
170.5191648373979092
 30
0.0
  0
VERTEX
  5
72CA
  8
0
 10
112.9893043703475968
 20
170.3638553452418023
 30
0.0
  0
VERTEX
  5
72CB
  8
0
 10
112.9622371452969958
 20
170.2762793676930073
 30
0.0
  0
VERTEX
  5
72CC
  8
0
 10
112.9500000000000028
 20
170.2317510873359936
 30
0.0
  0
SEQEND
  5
72CD
  8
0
  0
POLYLINE
  5
62DC
  8
0
 66
     1
 10
0.0
 20
0.0
 30
0.0
  0
VERTEX
  5
72CE
  8
0
 10
115.9224072331284958
 20
182.2478510859889127
 30
0.0
  0
VERTEX
  5
72CF
  8
0
 10
115.9737450447174041
 20
182.2928203230268025
 30
0.0
  0
SEQEND
  5
72D0
  8
0
  0
POLYLINE
  5
62DD
  8
0
 66
     1
 10
0.0
 20
0.0
 30
0.0
  0
VERTEX
  5
72D1
  8
0
 10
142.926254955277301
 20
182.2928203230297015
 30
0.0
  0
VERTEX
  5
72D2
  8
0
 10
142.977592766869094
 20
182.2478510859893959
 30
0.0
  0
SEQEND
  5
72D3
  8
0
  0
POLYLINE
  5
62DE
  8
0
 66
     1
 10
0.0
 20
0.0
 30
0.0
  0
VERTEX
  5
72D4
  8
0
 10
142.977592766869094
 20
182.2478510859893959
 30
0.0
  0
VERTEX
  5
72D5
  8
0
 10
143.6534595505414131
 20
181.6110842302367985
 30
0.0
  0
VERTEX
  5
72D6
  8
0
 10
144.2475957059259883
 20
181.0375777091745135
 30
0.0
  0
VERTEX
  5
72D7
  8
0
 10
144.7582968157132939
 20
180.5321942804662001
 30
0.0
  0
VERTEX
  5
72D8
  8
0
 10
145.1816282827952023
 20
180.1032413991559054
 30
0.0
  0
VERTEX
  5
72D9
  8
0
 10
145.5121802022511019
 20
179.7578369592154957
 30
0.0
  0
VERTEX
  5
72DA
  8
0
 10
145.7539212614327084
 20
179.501159746145504
 30
0.0
  0
VERTEX
  5
72DB
  8
0
 10
145.8944496483962041
 20
179.3533910307961037
 30
0.0
  0
VERTEX
  5
72DC
  8
0
 10
145.9500000000001023
 20
179.2983930612253971
 30
0.0
  0
SEQEND
  5
72DD
  8
0
  0
POLYLINE
  5
62DF
  8
0
 66
     1
 10
0.0
 20
0.0
 30
0.0
  0
VERTEX
  5
72DE
  8
0
 10
142.926254955277301
 20
182.2928203230297015
 30
0.0
  0
VERTEX
  5
72DF
  8
0
 10
142.8729883124703974
 20
182.3292258200341109
 30
0.0
  0
VERTEX
  5
72E0
  8
0
 10
142.8158686476498076
 20
182.3567560321473024
 30
0.0
  0
VERTEX
  5
72E1
  8
0
 10
142.7552026163054961
 20
182.3767795938240113
 30
0.0
  0
VERTEX
  5
72E2
  8
0
 10
142.6911321217934017
 20
182.3901449720094092
 30
0.0
  0
VERTEX
  5
72E3
  8
0
 10
142.6237332373250979
 20
182.3975805749551
 30
0.0
  0
VERTEX
  5
72E4
  8
0
 10
142.5532865065999886
 20
182.4000000000000057
 30
0.0
  0
SEQEND
  5
72E5
  8
0
  0
POLYLINE
  5
62E0
  8
0
 66
     1
 10
0.0
 20
0.0
 30
0.0
  0
VERTEX
  5
72E6
  8
0
 10
116.3467134934000029
 20
182.4000000000000057
 30
0.0
  0
VERTEX
  5
72E7
  8
0
 10
116.2625571036441983
 20
182.3964892029316047
 30
0.0
  0
VERTEX
  5
72E8
  8
0
 10
116.1828267491604976
 20
182.3855682339138866
 30
0.0
  0
VERTEX
  5
72E9
  8
0
 10
116.1079921119575999
 20
182.3655949839202037
 30
0.0
  0
VERTEX
  5
72EA
  8
0
 10
116.0381219246020947
 20
182.3354379464240935
 30
0.0
  0
VERTEX
  5
72EB
  8
0
 10
115.973745044717603
 20
182.2928203230268878
 30
0.0
  0
SEQEND
  5
72EC
  8
0
  0
POLYLINE
  5
62E1
  8
0
 66
     1
 10
0.0
 20
0.0
 30
0.0
  0
VERTEX
  5
72ED
  8
0
 10
142.977592766869094
 20
174.4176494928327941
 30
0.0
  0
VERTEX
  5
72EE
  8
0
 10
143.4388392857136125
 20
174.1999999999852946
 30
0.0
  0
SEQEND
  5
72EF
  8
0
  0
POLYLINE
  5
62E2
  8
0
 66
     1
 10
0.0
 20
0.0
 30
0.0
  0
VERTEX
  5
72F0
  8
0
 10
142.0800278000999981
 20
174.6542868777000024
 30
0.0
  0
VERTEX
  5
72F1
  8
0
 10
142.2192066912492123
 20
174.6309808124472056
 30
0.0
  0
VERTEX
  5
72F2
  8
0
 10
142.3509796516368908
 20
174.605827894517688
 30
0.0
  0
VERTEX
  5
72F3
  8
0
 10
142.4752054515105044
 20
174.5788626187915042
 30
0.0
  0
VERTEX
  5
72F4
  8
0
 10
142.5916980190499999
 20
174.5501041869395067
 30
0.0
  0
VERTEX
  5
72F5
  8
0
 10
142.70031197219879
 20
174.5195789521594918
 30
0.0
  0
VERTEX
  5
72F6
  8
0
 10
142.8009190729719933
 20
174.4873131534706943
 30
0.0
  0
VERTEX
  5
72F7
  8
0
 10
142.8933668260860941
 20
174.4533254454412941
 30
0.0
  0
VERTEX
  5
72F8
  8
0
 10
142.977592766869094
 20
174.4176494928327941
 30
0.0
  0
SEQEND
  5
72F9
  8
0
  0
POLYLINE
  5
62E3
  8
0
 66
     1
 10
0.0
 20
0.0
 30
0.0
  0
VERTEX
  5
72FA
  8
0
 10
115.9224072331283963
 20
174.4176494928321972
 30
0.0
  0
VERTEX
  5
72FB
  8
0
 10
116.0066331739121068
 20
174.4533254454412088
 30
0.0
  0
VERTEX
  5
72FC
  8
0
 10
116.0990809270274013
 20
174.4873131534710922
 30
0.0
  0
VERTEX
  5
72FD
  8
0
 10
116.1996880278018978
 20
174.5195789521602876
 30
0.0
  0
VERTEX
  5
72FE
  8
0
 10
116.3083019809522938
 20
174.5501041869405014
 30
0.0
  0
VERTEX
  5
72FF
  8
0
 10
116.424794548493594
 20
174.5788626187928116
 30
0.0
  0
VERTEX
  5
7300
  8
0
 10
116.5490203483689982
 20
174.6058278945191944
 30
0.0
  0
VERTEX
  5
7301
  8
0
 10
116.6807933087588935
 20
174.6309808124489109
 30
0.0
  0
VERTEX
  5
7302
  8
0
 10
116.8199721998999934
 20
174.6542868777000024
 30
0.0
  0
SEQEND
  5
7303
  8
0
  0
POLYLINE
  5
62E4
  8
0
 66
     1
 10
0.0
 20
0.0
 30
0.0
  0
VERTEX
  5
7304
  8
0
 10
115.461160714284901
 20
174.1999999999852946
 30
0.0
  0
VERTEX
  5
7305
  8
0
 10
115.9224072331283963
 20
174.4176494928321972
 30
0.0
  0
SEQEND
  5
7306
  8
0
  0
ARC
  5
6454
  8
0
 10
24.2555963130066097
 20
164.2817490448944113
 30
0.0
 40
10.9945926870045394
 50
2.701746237870243
 51
64.4358396054091003
  0
LINE
  5
6455
  8
0
 10
64.7620321625500424
 20
164.8000000000000114
 30
0.0
 11
63.1537627358499591
 21
144.8110910610000133
 31
0.0
  0
LINE
  5
6456
  8
0
 10
36.8462372641500266
 20
144.8110910610000133
 30
0.0
 11
35.2379678374415519
 21
164.7999999999483123
 31
0.0
  0
LINE
  5
6458
  8
0
 10
28.9999999999500311
 20
174.1999999999999034
 30
0.0
 11
27.4857829779500094
 21
174.6542868777000024
 31
0.0
  0
ARC
  5
6459
  8
0
 10
62.8560483008274602
 20
144.8345087321361007
 30
0.0
 40
0.2986340103575264
 50
312.5975205611638899
 51
355.5024794171001759
  0
ARC
  5
645A
  8
0
 10
37.1393877877612226
 20
144.8322876919083058
 30
0.0
 40
0.2939158496157983
 50
184.135648743117514
 51
227.7643512786031863
  0
LINE
  5
645B
  8
0
 10
63.0581769732499993
 20
144.614676359799887
 30
0.0
 11
61.1999999999499593
 21
142.9000000000000057
 31
0.0
  0
LINE
  5
645C
  8
0
 10
38.7999999999499892
 20
142.9000000000000057
 30
0.0
 11
36.9418230267500007
 21
144.614676359799887
 31
0.0
  0
ARC
  5
645D
  8
0
 10
27.6878859282788312
 20
181.9202573614713003
 30
0.0
 40
0.4801413157195168
 50
87.6649625990067136
 51
180.3350374081786072
  0
ARC
  5
645E
  8
0
 10
72.2978097426011459
 20
181.9054447950510962
 30
0.0
 40
0.494583154857749
 50
1.3908696800612681
 51
90.609130312737733
  0
ARC
  5
645F
  8
0
 10
72.3705131627295231
 20
175.1332163319493986
 30
0.0
 40
0.5000242207445728
 50
286.7019906006012206
 51
357.9980094004604894
  0
ARC
  5
6460
  8
0
 10
27.6290343566815295
 20
175.1328672455213962
 30
0.0
 40
0.4995599323130446
 50
181.9637903893654141
 51
253.3362096095800098
  0
LINE
  5
6461
  8
0
 10
27.0499999999499892
 20
177.4000000000000057
 30
0.0
 11
27.2077528213499704
 21
181.9174497482999016
 31
0.0
  0
LINE
  5
6462
  8
0
 10
72.7922471786499727
 20
181.9174497482999016
 30
0.0
 11
72.9499999999499664
 21
177.4000000000000057
 31
0.0
  0
LINE
  5
6463
  8
0
 10
72.9499999999499664
 20
177.4000000000000057
 30
0.0
 11
72.87023217564996
 21
175.1157483768000134
 31
0.0
  0
LINE
  5
6464
  8
0
 10
27.12976782435004
 20
175.1157483768000134
 30
0.0
 11
27.0499999999499892
 21
177.4000000000000057
 31
0.0
  0
LINE
  5
6465
  8
0
 10
39.9999999999500275
 20
133.4000000000000057
 30
0.0
 11
39.9999999999500275
 21
142.9000000000000057
 31
0.0
  0
LINE
  5
6466
  8
0
 10
59.9999999999500275
 20
142.9000000000000057
 30
0.0
 11
59.9999999999500275
 21
133.4000000000000057
 31
0.0
  0
LINE
  5
6467
  8
0
 10
59.9999999999500275
 20
133.4000000000000057
 30
0.0
 11
59.7113248654499671
 21
132.9000000000000057
 31
0.0
  0
LINE
  5
6468
  8
0
 10
40.2886751345500329
 20
132.9000000000000057
 30
0.0
 11
39.9999999999500275
 21
133.4000000000000057
 31
0.0
  0
LINE
  5
647B
  8
0
 10
67.9204877926500217
 20
182.4000000000000057
 30
0.0
 11
72.2925517651499945
 21
182.4000000000000057
 31
0.0
  0
LINE
  5
647D
  8
0
 10
61.1999999999499593
 20
142.9000000000000057
 30
0.0
 11
38.7999999999499892
 21
142.9000000000000057
 31
0.0
  0
LINE
  5
647F
  8
0
 10
32.0795122073499783
 20
182.4000000000000057
 30
0.0
 11
27.7074482348500091
 21
182.4000000000000057
 31
0.0
  0
LINE
  5
6483
  8
0
 10
39.9999999999500275
 20
133.4000000000000057
 30
0.0
 11
59.9999999999500275
 21
133.4000000000000057
 31
0.0
  0
LINE
  5
6484
  8
0
 10
40.2886751345500329
 20
132.9000000000000057
 30
0.0
 11
59.7113248654499671
 21
132.9000000000000057
 31
0.0
  0
LINE
  5
648D
  8
0
 10
63.1537627358499591
 20
144.8110910610000133
 30
0.0
 11
36.8462372641500266
 21
144.8110910610000133
 31
0.0
  0
LINE
  5
648F
  8
0
 10
72.5142170220499906
 20
174.6542868777000024
 30
0.0
 11
68.6379281542500053
 21
174.6542868777000024
 31
0.0
  0
LINE
  5
6490
  8
0
 10
31.3620718457499912
 20
174.6542868777000024
 30
0.0
 11
27.4857829779500094
 21
174.6542868777000024
 31
0.0
  0
POLYLINE
  5
649E
  8
0
 66
     1
 10
0.0
 20
0.0
 30
0.0
  0
VERTEX
  5
7307
  8
0
 10
32.0795122073499783
 20
182.4000000000000057
 30
0.0
  0
VERTEX
  5
7308
  8
0
 10
32.2338272295824595
 20
182.3964892029316047
 30
0.0
  0
VERTEX
  5
7309
  8
0
 10
32.3901220700083172
 20
182.3855682339138866
 30
0.0
  0
VERTEX
  5
730A
  8
0
 10
32.5479376939602503
 20
182.3655949839202037
 30
0.0
  0
VERTEX
  5
730B
  8
0
 10
32.7064234194663825
 20
182.3354379464240935
 30
0.0
  0
VERTEX
  5
730C
  8
0
 10
32.8643484984878
 20
182.2928203230268025
 30
0.0
  0
SEQEND
  5
730D
  8
0
  0
POLYLINE
  5
649F
  8
0
 66
     1
 10
0.0
 20
0.0
 30
0.0
  0
VERTEX
  5
730E
  8
0
 10
67.1356515015199307
 20
182.2928203230297015
 30
0.0
  0
VERTEX
  5
730F
  8
0
 10
67.2671781542938447
 20
182.3292258200341109
 30
0.0
  0
VERTEX
  5
7310
  8
0
 10
67.399261139727912
 20
182.3567560321473024
 30
0.0
  0
VERTEX
  5
7311
  8
0
 10
67.5310976796359341
 20
182.3767795938240113
 30
0.0
  0
VERTEX
  5
7312
  8
0
 10
67.662181057055875
 20
182.3901449720094092
 30
0.0
  0
VERTEX
  5
7313
  8
0
 10
67.792046937486063
 20
182.3975805749551
 30
0.0
  0
VERTEX
  5
7314
  8
0
 10
67.9204877926500217
 20
182.4000000000000057
 30
0.0
  0
SEQEND
  5
7315
  8
0
  0
POLYLINE
  5
64A4
  8
0
 66
     1
 10
0.0
 20
0.0
 30
0.0
  0
VERTEX
  5
7316
  8
0
 10
32.9999999999998295
 20
174.4176494928321972
 30
0.0
  0
VERTEX
  5
7317
  8
0
 10
32.7821867523222821
 20
174.4533254454412088
 30
0.0
  0
VERTEX
  5
7318
  8
0
 10
32.5674612474008995
 20
174.4873131534710922
 30
0.0
  0
VERTEX
  5
7319
  8
0
 10
32.3561637660854515
 20
174.5195789521602876
 30
0.0
  0
VERTEX
  5
731A
  8
0
 10
32.1486061852405669
 20
174.5501041869405014
 30
0.0
  0
VERTEX
  5
731B
  8
0
 10
31.9451076228405704
 20
174.5788626187928116
 30
0.0
  0
VERTEX
  5
731C
  8
0
 10
31.7459857341244209
 20
174.6058278945191944
 30
0.0
  0
VERTEX
  5
731D
  8
0
 10
31.5515312070534186
 20
174.6309808124489109
 30
0.0
  0
VERTEX
  5
731E
  8
0
 10
31.3620718457499912
 20
174.6542868777000024
 30
0.0
  0
SEQEND
  5
731F
  8
0
  0
POLYLINE
  5
64A6
  8
0
 66
     1
 10
0.0
 20
0.0
 30
0.0
  0
VERTEX
  5
7320
  8
0
 10
68.6379281542500053
 20
174.6542868777000024
 30
0.0
  0
VERTEX
  5
7321
  8
0
 10
68.4484687929319193
 20
174.6309808124472056
 30
0.0
  0
VERTEX
  5
7322
  8
0
 10
68.2540142658625086
 20
174.6058278945176028
 30
0.0
  0
VERTEX
  5
7323
  8
0
 10
68.0548923771481782
 20
174.5788626187913053
 30
0.0
  0
VERTEX
  5
7324
  8
0
 10
67.8513938147497555
 20
174.5501041869393077
 30
0.0
  0
VERTEX
  5
7325
  8
0
 10
67.6438362339069386
 20
174.5195789521592928
 30
0.0
  0
VERTEX
  5
7326
  8
0
 10
67.4325387525934161
 20
174.4873131534702964
 30
0.0
  0
VERTEX
  5
7327
  8
0
 10
67.2178132476740871
 20
174.4533254454410098
 30
0.0
  0
VERTEX
  5
7328
  8
0
 10
66.9999999999986926
 20
174.4176494928321972
 30
0.0
  0
SEQEND
  5
7329
  8
0
  0
POLYLINE
  5
64A8
  8
0
 66
     1
 10
0.0
 20
0.0
 30
0.0
  0
VERTEX
  5
732A
  8
0
 10
66.9999999999986926
 20
174.4176494928321972
 30
0.0
  0
VERTEX
  5
732B
  8
0
 10
65.6624511312385835
 20
174.1999999999852946
 30
0.0
  0
SEQEND
  5
732C
  8
0
  0
POLYLINE
  5
64A9
  8
0
 66
     1
 10
0.0
 20
0.0
 30
0.0
  0
VERTEX
  5
732D
  8
0
 10
34.3375488687601731
 20
174.1999999999852946
 30
0.0
  0
VERTEX
  5
732E
  8
0
 10
35.2889616713770806
 20
173.9500839944990105
 30
0.0
  0
VERTEX
  5
732F
  8
0
 10
36.2415960557248695
 20
173.681125796047894
 30
0.0
  0
VERTEX
  5
7330
  8
0
 10
37.1952196591807365
 20
173.3960200258107136
 30
0.0
  0
VERTEX
  5
7331
  8
0
 10
38.1499242174291382
 20
173.097762585018188
 30
0.0
  0
VERTEX
  5
7332
  8
0
 10
40.0643987981450707
 20
172.4752403726388934
 30
0.0
  0
VERTEX
  5
7333
  8
0
 10
41.991038556358987
 20
171.8428913172575108
 30
0.0
  0
VERTEX
  5
7334
  8
0
 10
42.9618350047783721
 20
171.5344386139499022
 30
0.0
  0
VERTEX
  5
7335
  8
0
 10
43.9397252433579411
 20
171.2403631188549014
 30
0.0
  0
VERTEX
  5
7336
  8
0
 10
44.4318188298929471
 20
171.1010624266720868
 30
0.0
  0
VERTEX
  5
7337
  8
0
 10
44.9262718017725433
 20
170.9681707781838043
 30
0.0
  0
VERTEX
  5
7338
  8
0
 10
45.4232377590513394
 20
170.842671942430286
 30
0.0
  0
VERTEX
  5
7339
  8
0
 10
45.9227391165573522
 20
170.7256928537979093
 30
0.0
  0
VERTEX
  5
733A
  8
0
 10
46.4247725583727018
 20
170.618388527206406
 30
0.0
  0
VERTEX
  5
733B
  8
0
 10
46.9293347685783715
 20
170.5219139775759061
 30
0.0
  0
VERTEX
  5
733C
  8
0
 10
47.4364224312562897
 20
170.4374242198263971
 30
0.0
  0
VERTEX
  5
733D
  8
0
 10
47.9459857797533502
 20
170.3660578015824001
 30
0.0
  0
VERTEX
  5
733E
  8
0
 10
48.4576452118635004
 20
170.3088363401427046
 30
0.0
  0
VERTEX
  5
733F
  8
0
 10
48.9708784011690383
 20
170.2667308555055001
 30
0.0
  0
VERTEX
  5
7340
  8
0
 10
49.4851624505394625
 20
170.2407121653452009
 30
0.0
  0
VERTEX
  5
7341
  8
0
 10
49.9999744628437881
 20
170.2317510873359936
 30
0.0
  0
VERTEX
  5
7342
  8
0
 10
50.5147907757231565
 20
170.2404977061436
 30
0.0
  0
VERTEX
  5
7343
  8
0
 10
51.0290846654532402
 20
170.2663189834995023
 30
0.0
  0
VERTEX
  5
7344
  8
0
 10
51.5423286428534198
 20
170.308261052669792
 30
0.0
  0
VERTEX
  5
7345
  8
0
 10
52.053995218743303
 20
170.3653700469203045
 30
0.0
  0
VERTEX
  5
7346
  8
0
 10
52.5635576075861195
 20
170.4366918033481966
 30
0.0
  0
VERTEX
  5
7347
  8
0
 10
53.0706374719591665
 20
170.5212096760965039
 30
0.0
  0
VERTEX
  5
7348
  8
0
 10
53.5751873267974474
 20
170.6177677610039041
 30
0.0
  0
VERTEX
  5
7349
  8
0
 10
54.0772043985626212
 20
170.7251913344834122
 30
0.0
  0
VERTEX
  5
734A
  8
0
 10
54.5766859137162825
 20
170.8423056729479867
 30
0.0
  0
VERTEX
  5
734B
  8
0
 10
55.0736290987204598
 20
170.967936052810586
 30
0.0
  0
VERTEX
  5
734C
  8
0
 10
55.5680588521589129
 20
171.1009396773864069
 30
0.0
  0
VERTEX
  5
734D
  8
0
 10
56.060132995685592
 20
171.2403271109027116
 30
0.0
  0
VERTEX
  5
734E
  8
0
 10
57.0380051978527902
 20
171.5344796377025034
 30
0.0
  0
VERTEX
  5
734F
  8
0
 10
58.0088272326252579
 20
171.8428461426096874
 30
0.0
  0
VERTEX
  5
7350
  8
0
 10
59.9354950161056692
 20
172.4751034458068091
 30
0.0
  0
VERTEX
  5
7351
  8
0
 10
61.8499851345905469
 20
173.0976722927603078
 30
0.0
  0
VERTEX
  5
7352
  8
0
 10
62.804700999321021
 20
173.3959247408745057
 30
0.0
  0
VERTEX
  5
7353
  8
0
 10
63.7583540146041017
 20
173.6811710762785026
 30
0.0
  0
VERTEX
  5
7354
  8
0
 10
64.7109897381356518
 20
173.949833855555795
 30
0.0
  0
VERTEX
  5
7355
  8
0
 10
65.6624511312385835
 20
174.1999999999852946
 30
0.0
  0
SEQEND
  5
7356
  8
0
  0
POLYLINE
  5
64AA
  8
0
 66
     1
 10
0.0
 20
0.0
 30
0.0
  0
VERTEX
  5
7357
  8
0
 10
34.3375488687601731
 20
174.1999999999852946
 30
0.0
  0
VERTEX
  5
7358
  8
0
 10
32.9999999999998295
 20
174.4176494928321972
 30
0.0
  0
SEQEND
  5
7359
  8
0
  0
POLYLINE
  5
64AB
  8
0
 66
     1
 10
0.0
 20
0.0
 30
0.0
  0
VERTEX
  5
735A
  8
0
 10
67.1356515015199307
 20
182.2928203230297015
 30
0.0
  0
VERTEX
  5
735B
  8
0
 10
66.9999999999983515
 20
182.2478510859884011
 30
0.0
  0
SEQEND
  5
735C
  8
0
  0
POLYLINE
  5
64AC
  8
0
 66
     1
 10
0.0
 20
0.0
 30
0.0
  0
VERTEX
  5
735D
  8
0
 10
66.9999999999983515
 20
182.2478510859884011
 30
0.0
  0
VERTEX
  5
735E
  8
0
 10
66.0043871499745478
 20
181.92216851236401
 30
0.0
  0
VERTEX
  5
735F
  8
0
 10
64.9973599938568327
 20
181.6114641032008024
 30
0.0
  0
VERTEX
  5
7360
  8
0
 10
63.979384705962218
 20
181.3162870288635133
 30
0.0
  0
VERTEX
  5
7361
  8
0
 10
62.9508328258853496
 20
181.0374409740641113
 30
0.0
  0
VERTEX
  5
7362
  8
0
 10
61.9121512297709273
 20
180.7757750341264114
 30
0.0
  0
VERTEX
  5
7363
  8
0
 10
60.863840613644193
 20
180.5322029439614937
 30
0.0
  0
VERTEX
  5
7364
  8
0
 10
59.8064537502528424
 20
180.3076902706224018
 30
0.0
  0
VERTEX
  5
7365
  8
0
 10
58.7405992454959502
 20
180.1032286442587917
 30
0.0
  0
VERTEX
  5
7366
  8
0
 10
57.6665767247710122
 20
179.9193869847900089
 30
0.0
  0
VERTEX
  5
7367
  8
0
 10
56.5851348114103416
 20
179.7571932581338103
 30
0.0
  0
VERTEX
  5
7368
  8
0
 10
55.4972834139718429
 20
179.6179662119326963
 30
0.0
  0
VERTEX
  5
7369
  8
0
 10
54.4040324410134986
 20
179.5030245938289113
 30
0.0
  0
VERTEX
  5
736A
  8
0
 10
53.3064094156764483
 20
179.413493268058204
 30
0.0
  0
VERTEX
  5
736B
  8
0
 10
52.2055250286462567
 20
179.3495816751826908
 30
0.0
  0
VERTEX
  5
736C
  8
0
 10
51.1025144928376491
 20
179.3112293400226065
 30
0.0
  0
VERTEX
  5
736D
  8
0
 10
49.9985130246744234
 20
179.2983757487729122
 30
0.0
  0
VERTEX
  5
736E
  8
0
 10
48.894647332804368
 20
179.3110096663575916
 30
0.0
  0
VERTEX
  5
736F
  8
0
 10
47.7920089874687122
 20
179.3493233863289902
 30
0.0
  0
VERTEX
  5
7370
  8
0
 10
46.6916795495515586
 20
179.4135527285928049
 30
0.0
  0
VERTEX
  5
7371
  8
0
 10
45.5946968858100306
 20
179.5035141970872985
 30
0.0
  0
VERTEX
  5
7372
  8
0
 10
44.5020375521758567
 20
179.618435918779312
 30
0.0
  0
VERTEX
  5
7373
  8
0
 10
43.4146724305434688
 20
179.7574697862667108
 30
0.0
  0
VERTEX
  5
7374
  8
0
 10
42.3335627524986009
 20
179.9194812477649918
 30
0.0
  0
VERTEX
  5
7375
  8
0
 10
41.259664688648229
 20
180.1031855639170942
 30
0.0
  0
VERTEX
  5
7376
  8
0
 10
40.1938062241878811
 20
180.3074988710390869
 30
0.0
  0
VERTEX
  5
7377
  8
0
 10
39.1364046081598076
 20
180.5319444409088021
 30
0.0
  0
VERTEX
  5
7378
  8
0
 10
38.0880661883305223
 20
180.7755292803387022
 30
0.0
  0
VERTEX
  5
7379
  8
0
 10
37.0493278208111292
 20
181.0372143492249108
 30
0.0
  0
VERTEX
  5
737A
  8
0
 10
36.0207980485097892
 20
181.3162083609203137
 30
0.0
  0
VERTEX
  5
737B
  8
0
 10
35.0025662812071801
 20
181.6111971431253949
 30
0.0
  0
VERTEX
  5
737C
  8
0
 10
32.9999999999998295
 20
182.2478510859886001
 30
0.0
  0
SEQEND
  5
737D
  8
0
  0
POLYLINE
  5
64AD
  8
0
 66
     1
 10
0.0
 20
0.0
 30
0.0
  0
VERTEX
  5
737E
  8
0
 10
32.9999999999998295
 20
182.2478510859886001
 30
0.0
  0
VERTEX
  5
737F
  8
0
 10
32.8643484984878
 20
182.2928203230268025
 30
0.0
  0
SEQEND
  5
7380
  8
0
  0
ARC
  5
6675
  8
0
 10
75.7399039669299441
 20
164.2847351203108985
 30
0.0
 40
10.9899575635959597
 50
115.5497156847703053
 51
177.312698471590096
  0
LINE
  5
6677
  8
0
 10
71.0000000000499654
 20
174.1999999999999034
 30
0.0
 11
72.5142170220499906
 21
174.6542868777000024
 31
0.0
  0
LINE
  5
6698
  8
1
 10
50.0
 20
185.4000000000000057
 30
0.0
 11
50.0
 21
50.0000000000000071
 31
0.0
  0
ARC
  5
66BA
  8
0
 10
64.8159303175951891
 20
274.2583495143576897
 30
0.0
 40
6.310403696050888
 50
58.4454263742335911
 51
60.5450030228196567
  0
ARC
  5
66BB
  8
0
 10
66.2060712977733488
 20
256.6817057059068929
 30
0.0
 40
3.5726169985720611
 50
298.6502976074007165
 51
302.3592729782769766
  0
ARC
  5
66BD
  8
0
 10
34.9173662731190007
 20
274.7060083909428272
 30
0.0
 40
5.7909238096313231
 50
119.3608128042948948
 51
121.6487578152472935
  0
ARC
  5
66BF
  8
0
 10
35.6136227465880779
 20
259.7753704650173745
 30
0.0
 40
7.1623385319995814
 50
238.5703065456933132
 51
240.4201228183077035
  0
ARC
  5
66C4
  8
0
 10
49.9985190916490865
 20
266.6497978174375021
 30
0.0
 40
22.9500000000000384
 50
332.502368830002581
 51
27.49763117009865
  0
ARC
  5
66C5
  8
0
 10
49.9985190916490865
 20
266.6497978174375021
 30
0.0
 40
22.9499999999999886
 50
152.5023688300024958
 51
207.4976311700986003
  0
LINE
  5
66C8
  8
0
 10
48.298519091649041
 20
267.6497978174375021
 30
0.0
 11
53.798519091649041
 21
267.6497978174375021
 31
0.0
  0
ARC
  5
66C9
  8
0
 10
51.0985190916489884
 20
267.5997978174374907
 30
0.0
 40
2.6457513110645912
 50
1.082852917497567
 51
178.9171470824992127
  0
LINE
  5
66CB
  8
0
 10
48.2985190916490978
 20
267.6497978174373884
 30
0.0
 11
48.2985190916489771
 21
265.6497978174375021
 31
0.0
  0
LINE
  5
66CC
  8
0
 10
48.298519091649041
 20
265.6497978174375021
 30
0.0
 11
53.798519091649041
 21
265.6497978174375021
 31
0.0
  0
LINE
  5
66CD
  8
0
 10
53.7985190916490907
 20
267.6497978174373884
 30
0.0
 11
53.7985190916489273
 21
265.6497978174375021
 31
0.0
  0
POLYLINE
  5
66E8
  8
0
 66
     1
 10
0.0
 20
0.0
 30
0.0
  0
VERTEX
  5
7381
  8
0
 10
29.6411823610768614
 20
277.246086848890684
 30
0.0
  0
VERTEX
  5
7382
  8
0
 10
29.7107334408697206
 20
277.3742663082879858
 30
0.0
  0
VERTEX
  5
7383
  8
0
 10
29.7703384456140192
 20
277.478707864680473
 30
0.0
  0
VERTEX
  5
7384
  8
0
 10
29.8214982186923407
 20
277.5647608728722275
 30
0.0
  0
VERTEX
  5
7385
  8
0
 10
29.8667031785322514
 20
277.6382595973597063
 30
0.0
  0
VERTEX
  5
7386
  8
0
 10
29.9076300187147091
 20
277.7028857326840239
 30
0.0
  0
VERTEX
  5
7387
  8
0
 10
29.9453487507332703
 20
277.7609257472320792
 30
0.0
  0
VERTEX
  5
7388
  8
0
 10
29.9805666766240009
 20
277.8138677826884759
 30
0.0
  0
VERTEX
  5
7389
  8
0
 10
30.0137730849555808
 20
277.8627308658142283
 30
0.0
  0
VERTEX
  5
738A
  8
0
 10
30.0453198339818108
 20
277.9082424377583038
 30
0.0
  0
VERTEX
  5
738B
  8
0
 10
30.0754688783805513
 20
277.9509410673607022
 30
0.0
  0
VERTEX
  5
738C
  8
0
 10
30.1044209269787189
 20
277.991237594484403
 30
0.0
  0
VERTEX
  5
738D
  8
0
 10
30.1323334556774398
 20
278.0294532091352835
 30
0.0
  0
VERTEX
  5
738E
  8
0
 10
30.1593325445097697
 20
278.0658442971305817
 30
0.0
  0
VERTEX
  5
738F
  8
0
 10
30.1855208645840811
 20
278.100619110852108
 30
0.0
  0
VERTEX
  5
7390
  8
0
 10
30.210983264482941
 20
278.133949375209113
 30
0.0
  0
VERTEX
  5
7391
  8
0
 10
30.2357908043745702
 20
278.1659786343387282
 30
0.0
  0
VERTEX
  5
7392
  8
0
 10
30.2600037102269006
 20
278.1968283425890718
 30
0.0
  0
VERTEX
  5
7393
  8
0
 10
30.2836735718991612
 20
278.2266023826084052
 30
0.0
  0
VERTEX
  5
7394
  8
0
 10
30.3068448384775593
 20
278.2553901355756238
 30
0.0
  0
VERTEX
  5
7395
  8
0
 10
30.3295561123585493
 20
278.2832691322656729
 30
0.0
  0
VERTEX
  5
7396
  8
0
 10
30.3518413766336188
 20
278.3103075509487212
 30
0.0
  0
VERTEX
  5
7397
  8
0
 10
30.3737306339203315
 20
278.336565522530293
 30
0.0
  0
VERTEX
  5
7398
  8
0
 10
30.3952501252645106
 20
278.3620955996755129
 30
0.0
  0
VERTEX
  5
7399
  8
0
 10
30.4164238504396316
 20
278.3869457854158895
 30
0.0
  0
VERTEX
  5
739A
  8
0
 10
30.4372735793443816
 20
278.4111595757952955
 30
0.0
  0
VERTEX
  5
739B
  8
0
 10
30.4578160083472085
 20
278.4347704332597004
 30
0.0
  0
VERTEX
  5
739C
  8
0
 10
30.4780696852227493
 20
278.457815332428595
 30
0.0
  0
VERTEX
  5
739D
  8
0
 10
30.4980599721498002
 20
278.4803444343243086
 30
0.0
  0
VERTEX
  5
739E
  8
0
 10
30.5177839799532684
 20
278.5023527296988277
 30
0.0
  0
VERTEX
  5
739F
  8
0
 10
30.5372283326097396
 20
278.5238146921383873
 30
0.0
  0
VERTEX
  5
73A0
  8
0
 10
30.5565041588265593
 20
278.5449475349602722
 30
0.0
  0
SEQEND
  5
73A1
  8
0
  0
POLYLINE
  5
66E9
  8
0
 66
     1
 10
0.0
 20
0.0
 30
0.0
  0
VERTEX
  5
73A2
  8
0
 10
30.5565041588265593
 20
254.7546480998929894
 30
0.0
  0
VERTEX
  5
73A3
  8
0
 10
30.5211444623366788
 20
254.7935979156866892
 30
0.0
  0
VERTEX
  5
73A4
  8
0
 10
30.4851826973402886
 20
254.8337248294724873
 30
0.0
  0
VERTEX
  5
73A5
  8
0
 10
30.4482164256569412
 20
254.875817058416601
 30
0.0
  0
VERTEX
  5
73A6
  8
0
 10
30.4102464547593208
 20
254.9198773692137934
 30
0.0
  0
VERTEX
  5
73A7
  8
0
 10
30.3712030299038815
 20
254.9660472884368119
 30
0.0
  0
VERTEX
  5
73A8
  8
0
 10
30.3309145835372718
 20
255.0146683127397012
 30
0.0
  0
VERTEX
  5
73A9
  8
0
 10
30.2892109177952307
 20
255.0660815867304905
 30
0.0
  0
VERTEX
  5
73AA
  8
0
 10
30.2458794692005313
 20
255.1207140260679012
 30
0.0
  0
VERTEX
  5
73AB
  8
0
 10
30.2006399007558493
 20
255.1791293918678036
 30
0.0
  0
VERTEX
  5
73AC
  8
0
 10
30.153124172066331
 20
255.2420700158413069
 30
0.0
  0
VERTEX
  5
73AD
  8
0
 10
30.1028270540086815
 20
255.3105582898012926
 30
0.0
  0
VERTEX
  5
73AE
  8
0
 10
30.0490266100923691
 20
255.3860614593052958
 30
0.0
  0
VERTEX
  5
73AF
  8
0
 10
29.9906303517201387
 20
255.4708125732902033
 30
0.0
  0
VERTEX
  5
73B0
  8
0
 10
29.9258528615847617
 20
255.5684923545840093
 30
0.0
  0
VERTEX
  5
73B1
  8
0
 10
29.8514532032535307
 20
255.6858759709579942
 30
0.0
  0
VERTEX
  5
73B2
  8
0
 10
29.7606643212724293
 20
255.8375354035354974
 30
0.0
  0
VERTEX
  5
73B3
  8
0
 10
29.6411823610957299
 20
256.0535087859481109
 30
0.0
  0
SEQEND
  5
73B4
  8
0
  0
POLYLINE
  5
66EA
  8
0
 66
     1
 10
0.0
 20
0.0
 30
0.0
  0
VERTEX
  5
73B5
  8
0
 10
70.3558558222213151
 20
256.0535087859843202
 30
0.0
  0
VERTEX
  5
73B6
  8
0
 10
70.2863047425287277
 20
255.9253293265680043
 30
0.0
  0
VERTEX
  5
73B7
  8
0
 10
70.2266997377839033
 20
255.8208877701748065
 30
0.0
  0
VERTEX
  5
73B8
  8
0
 10
70.1755399647055356
 20
255.7348347619827109
 30
0.0
  0
VERTEX
  5
73B9
  8
0
 10
70.1303350048654579
 20
255.6613360374950901
 30
0.0
  0
VERTEX
  5
73BA
  8
0
 10
70.0894081646828226
 20
255.596709902170403
 30
0.0
  0
VERTEX
  5
73BB
  8
0
 10
70.0516894326644319
 20
255.5386698876222056
 30
0.0
  0
VERTEX
  5
73BC
  8
0
 10
70.0164715067734136
 20
255.4857278521656099
 30
0.0
  0
VERTEX
  5
73BD
  8
0
 10
69.9832650984417342
 20
255.4368647690398006
 30
0.0
  0
VERTEX
  5
73BE
  8
0
 10
69.9517183494155006
 20
255.3913531970956967
 30
0.0
  0
VERTEX
  5
73BF
  8
0
 10
69.921569305016817
 20
255.3486545674932984
 30
0.0
  0
VERTEX
  5
73C0
  8
0
 10
69.8926172564186459
 20
255.3083580403693986
 30
0.0
  0
VERTEX
  5
73C1
  8
0
 10
69.8647047277197544
 20
255.2701424257184044
 30
0.0
  0
VERTEX
  5
73C2
  8
0
 10
69.837705638887428
 20
255.2337513377231062
 30
0.0
  0
VERTEX
  5
73C3
  8
0
 10
69.8115173188129461
 20
255.1989765240016084
 30
0.0
  0
VERTEX
  5
73C4
  8
0
 10
69.7860549189142603
 20
255.1656462596446033
 30
0.0
  0
VERTEX
  5
73C5
  8
0
 10
69.7612473790225067
 20
255.1336170005149029
 30
0.0
  0
VERTEX
  5
73C6
  8
0
 10
69.7370344731702971
 20
255.1027672922643035
 30
0.0
  0
VERTEX
  5
73C7
  8
0
 10
69.7133646114979797
 20
255.0729932522449133
 30
0.0
  0
VERTEX
  5
73C8
  8
0
 10
69.6901933449194644
 20
255.0442054992778083
 30
0.0
  0
VERTEX
  5
73C9
  8
0
 10
69.6674820710383642
 20
255.0163265025877024
 30
0.0
  0
VERTEX
  5
73CA
  8
0
 10
69.645196806763181
 20
254.9892880839047109
 30
0.0
  0
VERTEX
  5
73CB
  8
0
 10
69.6233075494765643
 20
254.9630301123231106
 30
0.0
  0
VERTEX
  5
73CC
  8
0
 10
69.6017880581323425
 20
254.9375000351778056
 30
0.0
  0
VERTEX
  5
73CD
  8
0
 10
69.5806143329572251
 20
254.9126498494374005
 30
0.0
  0
VERTEX
  5
73CE
  8
0
 10
69.5597646040525319
 20
254.8884360590577955
 30
0.0
  0
VERTEX
  5
73CF
  8
0
 10
69.5392221750496446
 20
254.8648252015933906
 30
0.0
  0
VERTEX
  5
73D0
  8
0
 10
69.5189684981741607
 20
254.8417803024244961
 30
0.0
  0
VERTEX
  5
73D1
  8
0
 10
69.498978211247163
 20
254.8192512005288961
 30
0.0
  0
VERTEX
  5
73D2
  8
0
 10
69.4792542034437446
 20
254.7972429051544054
 30
0.0
  0
VERTEX
  5
73D3
  8
0
 10
69.45980985078711
 20
254.7757809427147038
 30
0.0
  0
VERTEX
  5
73D4
  8
0
 10
69.4405340245702831
 20
254.7546480998929894
 30
0.0
  0
SEQEND
  5
73D5
  8
0
  0
POLYLINE
  5
66EB
  8
0
 66
     1
 10
0.0
 20
0.0
 30
0.0
  0
VERTEX
  5
73D6
  8
0
 10
69.4405340245702831
 20
278.5449475349602153
 30
0.0
  0
VERTEX
  5
73D7
  8
0
 10
69.4758937210602312
 20
278.5059977191662028
 30
0.0
  0
VERTEX
  5
73D8
  8
0
 10
69.5118554860565041
 20
278.4658708053805185
 30
0.0
  0
VERTEX
  5
73D9
  8
0
 10
69.5488217577399155
 20
278.4237785764362911
 30
0.0
  0
VERTEX
  5
73DA
  8
0
 10
69.5867917286375928
 20
278.3797182656390987
 30
0.0
  0
VERTEX
  5
73DB
  8
0
 10
69.6258351534930284
 20
278.3335483464160802
 30
0.0
  0
VERTEX
  5
73DC
  8
0
 10
69.666123599859759
 20
278.2849273221132762
 30
0.0
  0
VERTEX
  5
73DD
  8
0
 10
69.7078272656017361
 20
278.2335140481224016
 30
0.0
  0
VERTEX
  5
73DE
  8
0
 10
69.7511587141966061
 20
278.1788816087849909
 30
0.0
  0
VERTEX
  5
73DF
  8
0
 10
69.7963982826413485
 20
278.1204662429851169
 30
0.0
  0
VERTEX
  5
73E0
  8
0
 10
69.8439140113306962
 20
278.0575256190114146
 30
0.0
  0
VERTEX
  5
73E1
  8
0
 10
69.8942111293885091
 20
277.9890373450513152
 30
0.0
  0
VERTEX
  5
73E2
  8
0
 10
69.9480115733047683
 20
277.9135341755472837
 30
0.0
  0
VERTEX
  5
73E3
  8
0
 10
70.0064078316769951
 20
277.8287830615620919
 30
0.0
  0
VERTEX
  5
73E4
  8
0
 10
70.0711853218124929
 20
277.7311032802684849
 30
0.0
  0
VERTEX
  5
73E5
  8
0
 10
70.1455849801438944
 20
277.6137196638944147
 30
0.0
  0
VERTEX
  5
73E6
  8
0
 10
70.2363738621249354
 20
277.4620602313165136
 30
0.0
  0
VERTEX
  5
73E7
  8
0
 10
70.3558558222024857
 20
277.2460868489268933
 30
0.0
  0
SEQEND
  5
73E8
  8
0
  0
POLYLINE
  5
66EC
  8
0
 66
     1
 10
0.0
 20
0.0
 30
0.0
  0
VERTEX
  5
73E9
  8
0
 10
66.9985190916899001
 20
253.1222050505533048
 30
0.0
  0
VERTEX
  5
73EA
  8
0
 10
67.1341705932101149
 20
253.1735428621448989
 30
0.0
  0
SEQEND
  5
73EB
  8
0
  0
POLYLINE
  5
66ED
  8
0
 66
     1
 10
0.0
 20
0.0
 30
0.0
  0
VERTEX
  5
73EC
  8
0
 10
32.9985190916990021
 20
280.1773905842971999
 30
0.0
  0
VERTEX
  5
73ED
  8
0
 10
32.8628675901868519
 20
280.1260527727083058
 30
0.0
  0
SEQEND
  5
73EE
  8
0
  0
POLYLINE
  5
66EE
  8
0
 66
     1
 10
0.0
 20
0.0
 30
0.0
  0
VERTEX
  5
73EF
  8
0
 10
32.8628675901777569
 20
253.1735428621483948
 30
0.0
  0
VERTEX
  5
73F0
  8
0
 10
32.9985190916962665
 20
253.122205050556687
 30
0.0
  0
SEQEND
  5
73F1
  8
0
  0
POLYLINE
  5
66EF
  8
0
 66
     1
 10
0.0
 20
0.0
 30
0.0
  0
VERTEX
  5
73F2
  8
0
 10
67.1341705932189825
 20
280.1260527727047247
 30
0.0
  0
VERTEX
  5
73F3
  8
0
 10
66.9985190916974034
 20
280.1773905842975978
 30
0.0
  0
SEQEND
  5
73F4
  8
0
  0
POLYLINE
  5
66F1
  8
0
 66
     1
 10
0.0
 20
0.0
 30
0.0
  0
VERTEX
  5
73F5
  8
0
 10
66.9985190916974034
 20
280.1773905842975978
 30
0.0
  0
VERTEX
  5
73F6
  8
0
 10
66.0029062416735997
 20
280.524932843567683
 30
0.0
  0
VERTEX
  5
73F7
  8
0
 10
64.9958790855558846
 20
280.8527519896089188
 30
0.0
  0
VERTEX
  5
73F8
  8
0
 10
63.9779037976612699
 20
281.160476747928783
 30
0.0
  0
VERTEX
  5
73F9
  8
0
 10
62.9493519175844014
 20
281.4475648552520965
 30
0.0
  0
VERTEX
  5
73FA
  8
0
 10
61.9106703214699792
 20
281.7135763061963871
 30
0.0
  0
VERTEX
  5
73FB
  8
0
 10
60.8623597053432377
 20
281.9581271342592004
 30
0.0
  0
VERTEX
  5
73FC
  8
0
 10
59.8049728419518871
 20
282.1808653623436953
 30
0.0
  0
VERTEX
  5
73FD
  8
0
 10
58.7391183371950092
 20
282.381444107784489
 30
0.0
  0
VERTEX
  5
73FE
  8
0
 10
57.6650958164700569
 20
282.5587774057482875
 30
0.0
  0
VERTEX
  5
73FF
  8
0
 10
56.5836539031093935
 20
282.7126730109195023
 30
0.0
  0
VERTEX
  5
7400
  8
0
 10
55.4958025056708877
 20
282.8434720750200881
 30
0.0
  0
VERTEX
  5
7401
  8
0
 10
54.4025515327125504
 20
282.9515157497722271
 30
0.0
  0
VERTEX
  5
7402
  8
0
 10
53.3049285073755073
 20
283.036964372762327
 30
0.0
  0
VERTEX
  5
7403
  8
0
 10
52.2040441203453227
 20
283.0991245646794141
 30
0.0
  0
VERTEX
  5
7404
  8
0
 10
51.101033584536701
 20
283.1370512249205831
 30
0.0
  0
VERTEX
  5
7405
  8
0
 10
49.9970321163734681
 20
283.1497992168614815
 30
0.0
  0
VERTEX
  5
7406
  8
0
 10
48.8931664245034199
 20
283.1367657730369842
 30
0.0
  0
VERTEX
  5
7407
  8
0
 10
47.7905280791677569
 20
283.0987621625507131
 30
0.0
  0
VERTEX
  5
7408
  8
0
 10
46.6901986412506105
 20
283.0369548718944088
 30
0.0
  0
VERTEX
  5
7409
  8
0
 10
45.5932159775090824
 20
282.9520547402099737
 30
0.0
  0
VERTEX
  5
740A
  8
0
 10
44.5005566438749085
 20
282.8441332495870029
 30
0.0
  0
VERTEX
  5
740B
  8
0
 10
43.4131915222425278
 20
282.7131946111753109
 30
0.0
  0
VERTEX
  5
740C
  8
0
 10
42.3320818441976527
 20
282.5590703115249198
 30
0.0
  0
VERTEX
  5
740D
  8
0
 10
41.2581837803472808
 20
282.3815012771244142
 30
0.0
  0
VERTEX
  5
740E
  8
0
 10
40.1923253158869329
 20
282.1806204013063279
 30
0.0
  0
VERTEX
  5
740F
  8
0
 10
39.1349236998588594
 20
281.9577374362528985
 30
0.0
  0
VERTEX
  5
7410
  8
0
 10
38.086585280029567
 20
281.7131767400591116
 30
0.0
  0
VERTEX
  5
7411
  8
0
 10
37.047846912510181
 20
281.4472585171296259
 30
0.0
  0
VERTEX
  5
7412
  8
0
 10
36.019317140208841
 20
281.160166722549377
 30
0.0
  0
VERTEX
  5
7413
  8
0
 10
35.0010853729062319
 20
280.8528930725037185
 30
0.0
  0
VERTEX
  5
7414
  8
0
 10
33.994516907858717
 20
280.5243342053672109
 30
0.0
  0
VERTEX
  5
7415
  8
0
 10
32.9985190916990021
 20
280.1773905842971999
 30
0.0
  0
SEQEND
  5
7416
  8
0
  0
POLYLINE
  5
66F2
  8
0
 66
     1
 10
0.0
 20
0.0
 30
0.0
  0
VERTEX
  5
7417
  8
0
 10
32.9985190916962665
 20
253.122205050556687
 30
0.0
  0
VERTEX
  5
7418
  8
0
 10
33.9941323498580914
 20
252.7746630582138039
 30
0.0
  0
VERTEX
  5
7419
  8
0
 10
35.0011595224174172
 20
252.4468435571511122
 30
0.0
  0
VERTEX
  5
741A
  8
0
 10
36.0191350309062273
 20
252.1391187881802978
 30
0.0
  0
VERTEX
  5
741B
  8
0
 10
37.0476871432013013
 20
251.8520306943341041
 30
0.0
  0
VERTEX
  5
741C
  8
0
 10
38.0863689691618674
 20
251.5860192496980972
 30
0.0
  0
VERTEX
  5
741D
  8
0
 10
39.1346798170540069
 20
251.3414684187144132
 30
0.0
  0
VERTEX
  5
741E
  8
0
 10
40.1920669527186121
 20
251.118730245670605
 30
0.0
  0
VERTEX
  5
741F
  8
0
 10
41.2579222648487303
 20
250.9181525924639971
 30
0.0
  0
VERTEX
  5
7420
  8
0
 10
42.3319474527003194
 20
250.7408242656458981
 30
0.0
  0
VERTEX
  5
7421
  8
0
 10
43.4133902256169222
 20
250.5869292145659983
 30
0.0
  0
VERTEX
  5
7422
  8
0
 10
44.5012411438768822
 20
250.4561260081349019
 30
0.0
  0
VERTEX
  5
7423
  8
0
 10
45.5944907677582023
 20
250.3480732152630992
 30
0.0
  0
VERTEX
  5
7424
  8
0
 10
46.6921115891854015
 20
250.2626154955326001
 30
0.0
  0
VERTEX
  5
7425
  8
0
 10
47.7929930281582074
 20
250.20045308785771
 30
0.0
  0
VERTEX
  5
7426
  8
0
 10
48.8960006455104121
 20
250.1625319629046089
 30
0.0
  0
VERTEX
  5
7427
  8
0
 10
50.0
 20
250.1497981127170931
 30
0.0
  0
VERTEX
  5
7428
  8
0
 10
51.1038651700962419
 20
250.162843083375094
 30
0.0
  0
VERTEX
  5
7429
  8
0
 10
52.206504176263131
 20
250.2008463304809993
 30
0.0
  0
VERTEX
  5
742A
  8
0
 10
53.3068345121716902
 20
250.2626462296196053
 30
0.0
  0
VERTEX
  5
742B
  8
0
 10
54.4038183604035268
 20
250.3475414785278872
 30
0.0
  0
VERTEX
  5
742C
  8
0
 10
55.4964790050993315
 20
250.455460157051391
 30
0.0
  0
VERTEX
  5
742D
  8
0
 10
56.5838452370144225
 20
250.5863960876953058
 30
0.0
  0
VERTEX
  5
742E
  8
0
 10
57.664955393273317
 20
250.7405196263439962
 30
0.0
  0
VERTEX
  5
742F
  8
0
 10
58.738852712245027
 20
250.9180917139730127
 30
0.0
  0
VERTEX
  5
7430
  8
0
 10
59.8047108574825188
 20
251.1189741037553063
 30
0.0
  0
VERTEX
  5
7431
  8
0
 10
60.8621130588261323
 20
251.3418556440119005
 30
0.0
  0
VERTEX
  5
7432
  8
0
 10
61.9104517738406912
 20
251.5864164786374886
 30
0.0
  0
VERTEX
  5
7433
  8
0
 10
62.9491904059598184
 20
251.8523350608714964
 30
0.0
  0
VERTEX
  5
7434
  8
0
 10
63.9777201951019379
 20
252.1394277917561055
 30
0.0
  0
VERTEX
  5
7435
  8
0
 10
64.9959531231328356
 20
252.4467005191739872
 30
0.0
  0
VERTEX
  5
7436
  8
0
 10
66.0025194072454724
 20
252.7752638050235987
 30
0.0
  0
VERTEX
  5
7437
  8
0
 10
66.9985190916899001
 20
253.1222050505533048
 30
0.0
  0
SEQEND
  5
7438
  8
0
  0
POLYLINE
  5
66F3
  8
0
 66
     1
 10
0.0
 20
0.0
 30
0.0
  0
VERTEX
  5
7439
  8
0
 10
32.0780312990334622
 20
279.753084323984524
 30
0.0
  0
VERTEX
  5
743A
  8
0
 10
32.2323463212815113
 20
279.8372407137816253
 30
0.0
  0
VERTEX
  5
743B
  8
0
 10
32.3886411617073691
 20
279.9169710682654113
 30
0.0
  0
VERTEX
  5
743C
  8
0
 10
32.5464567856593092
 20
279.9918057054682095
 30
0.0
  0
VERTEX
  5
743D
  8
0
 10
32.7049425111654273
 20
280.0616758928238141
 30
0.0
  0
VERTEX
  5
743E
  8
0
 10
32.8628675901868519
 20
280.1260527727083058
 30
0.0
  0
SEQEND
  5
743F
  8
0
  0
POLYLINE
  5
66F4
  8
0
 66
     1
 10
0.0
 20
0.0
 30
0.0
  0
VERTEX
  5
7440
  8
0
 10
32.8628675901777569
 20
253.1735428621483948
 30
0.0
  0
VERTEX
  5
7441
  8
0
 10
32.7313409374038429
 20
253.2268095049552983
 30
0.0
  0
VERTEX
  5
7442
  8
0
 10
32.5992579519700101
 20
253.2839291697760871
 30
0.0
  0
VERTEX
  5
7443
  8
0
 10
32.4674214120618672
 20
253.3445952011201996
 30
0.0
  0
VERTEX
  5
7444
  8
0
 10
32.3363380346419333
 20
253.408665695632294
 30
0.0
  0
VERTEX
  5
7445
  8
0
 10
32.2064721542117169
 20
253.4760645801007115
 30
0.0
  0
VERTEX
  5
7446
  8
0
 10
32.0780312989843992
 20
253.5465113108386106
 30
0.0
  0
SEQEND
  5
7447
  8
0
  0
POLYLINE
  5
66F5
  8
0
 66
     1
 10
0.0
 20
0.0
 30
0.0
  0
VERTEX
  5
7448
  8
0
 10
67.9190068843633838
 20
253.5465113108685955
 30
0.0
  0
VERTEX
  5
7449
  8
0
 10
67.7646918621153418
 20
253.4623549210714089
 30
0.0
  0
VERTEX
  5
744A
  8
0
 10
67.608397021689143
 20
253.3826245665879071
 30
0.0
  0
VERTEX
  5
744B
  8
0
 10
67.4505813977374231
 20
253.3077899293849953
 30
0.0
  0
VERTEX
  5
744C
  8
0
 10
67.2920956722313122
 20
253.2379197420293906
 30
0.0
  0
VERTEX
  5
744D
  8
0
 10
67.1341705932101149
 20
253.1735428621448989
 30
0.0
  0
SEQEND
  5
744E
  8
0
  0
POLYLINE
  5
66F6
  8
0
 66
     1
 10
0.0
 20
0.0
 30
0.0
  0
VERTEX
  5
744F
  8
0
 10
67.1341705932189825
 20
280.1260527727047247
 30
0.0
  0
VERTEX
  5
7450
  8
0
 10
67.2656972459928966
 20
280.0727861298977928
 30
0.0
  0
VERTEX
  5
7451
  8
0
 10
67.3977802314269638
 20
280.0156664650771177
 30
0.0
  0
VERTEX
  5
7452
  8
0
 10
67.529616771334986
 20
279.9550004337330051
 30
0.0
  0
VERTEX
  5
7453
  8
0
 10
67.6607001487549269
 20
279.8909299392208254
 30
0.0
  0
VERTEX
  5
7454
  8
0
 10
67.7905660291851291
 20
279.8235310547523795
 30
0.0
  0
VERTEX
  5
7455
  8
0
 10
67.9190068844137613
 20
279.7530843239363207
 30
0.0
  0
SEQEND
  5
7456
  8
0
  0
POLYLINE
  5
66F7
  8
0
 66
     1
 10
0.0
 20
0.0
 30
0.0
  0
VERTEX
  5
7457
  8
0
 10
31.8788076152898192
 20
253.6638854423744078
 30
0.0
  0
VERTEX
  5
7458
  8
0
 10
31.7592455629608104
 20
253.7393589593689001
 30
0.0
  0
VERTEX
  5
7459
  8
0
 10
31.6414842567207906
 20
253.8172317113447889
 30
0.0
  0
VERTEX
  5
745A
  8
0
 10
31.52594694089521
 20
253.8977234773383032
 30
0.0
  0
VERTEX
  5
745B
  8
0
 10
31.4126331966621208
 20
253.9804293005495879
 30
0.0
  0
VERTEX
  5
745C
  8
0
 10
31.3017316516836708
 20
254.0653085777483966
 30
0.0
  0
VERTEX
  5
745D
  8
0
 10
31.1933272533440196
 20
254.1522053581099954
 30
0.0
  0
VERTEX
  5
745E
  8
0
 10
31.0875077153223209
 20
254.2409829080202996
 30
0.0
  0
VERTEX
  5
745F
  8
0
 10
30.9844823060417411
 20
254.3313866022133993
 30
0.0
  0
VERTEX
  5
7460
  8
0
 10
30.8845997441255804
 20
254.42299920062041
 30
0.0
  0
VERTEX
  5
7461
  8
0
 10
30.7884349074179191
 20
254.5151128451174998
 30
0.0
  0
VERTEX
  5
7462
  8
0
 10
30.6968218662511916
 20
254.6066672691655981
 30
0.0
  0
VERTEX
  5
7463
  8
0
 10
30.6115966576476204
 20
254.6953789807332953
 30
0.0
  0
VERTEX
  5
7464
  8
0
 10
30.5565041588265593
 20
254.7546480998929894
 30
0.0
  0
SEQEND
  5
7465
  8
0
  0
POLYLINE
  5
66F8
  8
0
 66
     1
 10
0.0
 20
0.0
 30
0.0
  0
VERTEX
  5
7466
  8
0
 10
30.5565041588265593
 20
278.5449475349602722
 30
0.0
  0
VERTEX
  5
7467
  8
0
 10
30.6111191950436705
 20
278.6037079692222846
 30
0.0
  0
VERTEX
  5
7468
  8
0
 10
30.6964411134699802
 20
278.6925396263434891
 30
0.0
  0
VERTEX
  5
7469
  8
0
 10
30.7880607252653817
 20
278.7841171734812065
 30
0.0
  0
VERTEX
  5
746A
  8
0
 10
30.8842079553634186
 20
278.87622632700851
 30
0.0
  0
VERTEX
  5
746B
  8
0
 10
30.9841025912664882
 20
278.9678708285017024
 30
0.0
  0
VERTEX
  5
746C
  8
0
 10
31.0871487519613083
 20
279.0583165939625019
 30
0.0
  0
VERTEX
  5
746D
  8
0
 10
31.1930221935646195
 20
279.1471144341899731
 30
0.0
  0
VERTEX
  5
746E
  8
0
 10
31.3014948342348589
 20
279.2340323922886114
 30
0.0
  0
VERTEX
  5
746F
  8
0
 10
31.4124034991062899
 20
279.3190330301346194
 30
0.0
  0
VERTEX
  5
7470
  8
0
 10
31.5256734627554387
 20
279.4019330679237214
 30
0.0
  0
VERTEX
  5
7471
  8
0
 10
31.6414137239403317
 20
279.4822133321014235
 30
0.0
  0
VERTEX
  5
7472
  8
0
 10
31.7594807972731097
 20
279.5597259980750096
 30
0.0
  0
VERTEX
  5
7473
  8
0
 10
31.8788076152191593
 20
279.6357101924169228
 30
0.0
  0
SEQEND
  5
7474
  8
0
  0
POLYLINE
  5
66F9
  8
0
 66
     1
 10
0.0
 20
0.0
 30
0.0
  0
VERTEX
  5
7475
  8
0
 10
68.1182305681066964
 20
279.6357101924788822
 30
0.0
  0
VERTEX
  5
7476
  8
0
 10
68.2377926204356839
 20
279.5602366754845889
 30
0.0
  0
VERTEX
  5
7477
  8
0
 10
68.355553926675384
 20
279.4823639235086716
 30
0.0
  0
VERTEX
  5
7478
  8
0
 10
68.47109124250062
 20
279.4018721575154132
 30
0.0
  0
VERTEX
  5
7479
  8
0
 10
68.5844049867334888
 20
279.3191663343043274
 30
0.0
  0
VERTEX
  5
747A
  8
0
 10
68.695306531712049
 20
279.234287057105405
 30
0.0
  0
VERTEX
  5
747B
  8
0
 10
68.80371093005283
 20
279.1473902767430104
 30
0.0
  0
VERTEX
  5
747C
  8
0
 10
68.9095304680756726
 20
279.0586127268318251
 30
0.0
  0
VERTEX
  5
747D
  8
0
 10
69.0125558773563625
 20
278.9682090326385264
 30
0.0
  0
VERTEX
  5
747E
  8
0
 10
69.1124384392717275
 20
278.8765964342322832
 30
0.0
  0
VERTEX
  5
747F
  8
0
 10
69.2086032759799537
 20
278.7844827897345112
 30
0.0
  0
VERTEX
  5
7480
  8
0
 10
69.3002163171461234
 20
278.6929283656871235
 30
0.0
  0
VERTEX
  5
7481
  8
0
 10
69.3854415257494566
 20
278.6042166541193978
 30
0.0
  0
VERTEX
  5
7482
  8
0
 10
69.4405340245702831
 20
278.5449475349602153
 30
0.0
  0
SEQEND
  5
7483
  8
0
  0
POLYLINE
  5
66FA
  8
0
 66
     1
 10
0.0
 20
0.0
 30
0.0
  0
VERTEX
  5
7484
  8
0
 10
69.4405340245702831
 20
254.7546480998929894
 30
0.0
  0
VERTEX
  5
7485
  8
0
 10
69.3859189883531826
 20
254.6958876656310053
 30
0.0
  0
VERTEX
  5
7486
  8
0
 10
69.3005970699267664
 20
254.6070560085094883
 30
0.0
  0
VERTEX
  5
7487
  8
0
 10
69.2089774581311303
 20
254.515478461371714
 30
0.0
  0
VERTEX
  5
7488
  8
0
 10
69.1128302280335447
 20
254.4233693078448084
 30
0.0
  0
VERTEX
  5
7489
  8
0
 10
69.012935592130475
 20
254.3317248063513887
 30
0.0
  0
VERTEX
  5
748A
  8
0
 10
68.9098894314355448
 20
254.2412790408905039
 30
0.0
  0
VERTEX
  5
748B
  8
0
 10
68.8040159898321235
 20
254.1524812006632033
 30
0.0
  0
VERTEX
  5
748C
  8
0
 10
68.6955433491619942
 20
254.065563242564707
 30
0.0
  0
VERTEX
  5
748D
  8
0
 10
68.5846346842905632
 20
253.980562604718699
 30
0.0
  0
VERTEX
  5
748E
  8
0
 10
68.471364720641418
 20
253.8976625669295117
 30
0.0
  0
VERTEX
  5
748F
  8
0
 10
68.3556244594565214
 20
253.8173823027518097
 30
0.0
  0
VERTEX
  5
7490
  8
0
 10
68.2375573861237399
 20
253.7398696367781952
 30
0.0
  0
VERTEX
  5
7491
  8
0
 10
68.1182305681791149
 20
253.6638854423578948
 30
0.0
  0
SEQEND
  5
7492
  8
0
  0
CIRCLE
  5
6808
  8
0
 10
69.4985190916490296
 20
266.6497978174375021
 30
0.0
 40
1.549958205888841
  0
LINE
  5
6809
  8
1
 10
24.0485190916491014
 20
266.6497978174375021
 30
0.0
 11
75.948519091649132
 21
266.6497978174375021
 31
0.0
  0
LINE
  5
680A
  8
1
 10
49.9985190916490865
 20
247.1496156407675073
 30
0.0
 11
49.9985190916490225
 21
286.1499820425174221
 31
0.0
  0
LINE
  5
6811
  8
1
 10
69.4985190916490296
 20
263.0998396115487026
 30
0.0
 11
69.4985190916490296
 21
270.1997560233263016
 31
0.0
  0
CIRCLE
  5
683A
  8
0
 10
49.9985190916491433
 20
266.6497978174375021
 30
0.0
 40
7.3999999999996362
  0
CIRCLE
  5
683B
  8
0
 10
49.9985190916490865
 20
266.6497978174375021
 30
0.0
 40
6.4500000000000064
  0
CIRCLE
  5
683D
  8
0
 10
49.9985190916490865
 20
266.6497978174375021
 30
0.0
 40
7.5500000000000158
  0
CIRCLE
  5
683F
  8
0
 10
49.9985190916490225
 20
266.6497988416423937
 30
0.0
 40
10.9999999999999893
  0
LINE
  5
6840
  8
0
 10
53.277241633791391
 20
277.1497978174351147
 30
0.0
 11
46.7197965495066114
 21
277.1497978174351147
 31
0.0
  0
LINE
  5
6841
  8
0
 10
42.5446132464746185
 20
274.7392541787634173
 30
0.0
 11
39.2658923443354411
 21
269.0603429924200896
 31
0.0
  0
LINE
  5
6842
  8
0
 10
39.265893097339017
 20
264.2392513382191055
 30
0.0
 11
42.5446107195003194
 21
258.5603458329642876
 31
0.0
  0
LINE
  5
6843
  8
0
 10
46.7198031094778727
 20
256.1497978174398895
 30
0.0
 11
53.2772350738200089
 21
256.1497978174397758
 31
0.0
  0
LINE
  5
6844
  8
0
 10
57.4524274637973917
 20
258.5603458329640034
 30
0.0
 11
60.7311450859591488
 21
264.2392513382195034
 31
0.0
  0
LINE
  5
6845
  8
0
 10
60.7311458389628385
 20
269.0603429924191801
 30
0.0
 11
57.4524249368231494
 21
274.7392541787637015
 31
0.0
  0
LINE
  5
687D
  8
2
 10
55.9500000000780915
 20
177.0999999999883983
 30
0.0
 11
44.0500000000781071
 21
177.0999999999883983
 31
0.0
  0
ARC
  5
687E
  8
2
 10
44.0373176158869271
 20
176.6126823841796067
 30
0.0
 40
0.4874826166606598
 50
88.5092205165366153
 51
181.4907794834693107
  0
ARC
  5
687F
  8
2
 10
55.9772316422913718
 20
176.627231642201707
 30
0.0
 40
0.4735519849625659
 50
356.7033833269035767
 51
93.2966166730910089
  0
LINE
  5
6880
  8
2
 10
43.5500000000781071
 20
176.5999999999883983
 30
0.0
 11
43.5500000000780503
 21
176.4000000000000057
 31
0.0
  0
LINE
  5
6881
  8
2
 10
56.4500000000779707
 20
176.399999999999892
 30
0.0
 11
56.4500000000780915
 21
176.5999999999883983
 31
0.0
  0
LINE
  5
688F
  8
2
 10
38.9999999999895977
 20
176.4000000000000057
 30
0.0
 11
61.0000000000092086
 21
176.4000000000000057
 31
0.0
  0
ARC
  5
6891
  8
2
 10
27.7991069684057415
 20
181.5966671607114051
 30
0.0
 40
0.803333335661407
 50
60.0636933038869998
 51
89.936306699114553
  0
ARC
  5
6894
  8
2
 10
82.4785429093738145
 20
272.1751866672328788
 30
0.0
 40
104.9999999999936051
 50
238.8728844716382866
 51
245.5385212731758884
  0
LINE
  5
6898
  8
2
 10
61.0000000000092086
 20
176.6000000000042007
 30
0.0
 11
61.0000000000092086
 21
176.399999999999892
 31
0.0
  0
LINE
  5
6899
  8
2
 10
38.9999999999896616
 20
176.6000000000045986
 30
0.0
 11
38.9999999999895977
 21
176.4000000000000057
 31
0.0
  0
ARC
  5
689A
  8
2
 10
72.2008930316023907
 20
181.5966671606717
 30
0.0
 40
0.803333335661407
 50
90.0636933007844931
 51
119.9363066960117976
  0
ARC
  5
689B
  8
2
 10
17.5271835949292303
 20
272.1643227651713914
 30
0.0
 40
104.9877400068923947
 50
294.4610890955681839
 51
301.1275051592480736
  0
LINE
  5
69D3
  8
3
 10
55.9499999999994202
 20
182.1500000000008015
 30
0.0
 11
44.0499999999994429
 21
182.1500000000008015
 31
0.0
  0
ARC
  5
69D4
  8
3
 10
44.0373176158082629
 20
181.66268238419201
 30
0.0
 40
0.4874826166606598
 50
88.5092205165366153
 51
181.4907794834691117
  0
ARC
  5
69D5
  8
3
 10
55.9772316422127005
 20
181.6772316422141103
 30
0.0
 40
0.4735519849625659
 50
356.7033833269038041
 51
93.2966166730910089
  0
LINE
  5
69D6
  8
3
 10
43.5499999999994429
 20
181.6500000000008015
 30
0.0
 11
43.5499999999994927
 21
181.3500000000007901
 31
0.0
  0
LINE
  5
69D7
  8
3
 10
56.4499999999993634
 20
181.3500000000007901
 30
0.0
 11
56.4499999999994202
 21
181.6500000000008015
 31
0.0
  0
LINE
  5
69D8
  8
3
 10
57.218014999998779
 20
181.3500000000007901
 30
0.0
 11
42.7819849999995085
 21
181.3500000000007901
 31
0.0
  0
LINE
  5
69D9
  8
3
 10
42.7819849999993878
 20
181.3500000000007901
 30
0.0
 11
42.5999999999992198
 21
180.8500000000016996
 31
0.0
  0
LINE
  5
69DA
  8
3
 10
57.399999999998947
 20
180.8500000000016996
 30
0.0
 11
57.218014999998779
 21
181.3500000000007901
 31
0.0
  0
LINE
  5
69DB
  8
3
 10
57.399999999998947
 20
176.3958333333355029
 30
0.0
 11
57.399999999998947
 21
180.8500000000016996
 31
0.0
  0
LINE
  5
69DC
  8
3
 10
42.5999999999992198
 20
180.8500000000016996
 30
0.0
 11
42.5999999999992198
 21
176.3958333333355029
 31
0.0
  0
LINE
  5
69DD
  8
3
 10
56.1999999999782176
 20
184.1626633025335025
 30
0.0
 11
56.199999999986737
 21
182.5500000000334069
 31
0.0
  0
ARC
  5
69DE
  8
3
 10
69.1992280550653618
 20
184.1629664606751078
 30
0.0
 40
12.9992280586221494
 50
137.1168240446469895
 51
180.001336208731999
  0
ARC
  5
69DF
  8
3
 10
35.4622196036598325
 20
183.9748878413963951
 30
0.0
 40
12.9378043341225002
 50
359.889782754765406
 51
43.7130362185452128
  0
CIRCLE
  5
69E0
  8
3
 10
52.1999999998713022
 20
204.4500000000124089
 30
0.0
 40
2.7499999999999849
  0
ARC
  5
69E1
  8
3
 10
52.1999999998950486
 20
199.9500000000124089
 30
0.0
 40
10.2000000000000401
 50
317.1181602530032251
 51
223.6028189730016038
  0
LINE
  5
69E2
  8
3
 10
48.3999999999888431
 20
182.1499999999923034
 30
0.0
 11
48.3999999999793431
 21
183.9499999999922863
 31
0.0
  0
ARC
  5
69E3
  8
3
 10
55.800009688760781
 20
182.5499903112572042
 30
0.0
 40
0.3999903113433063
 50
269.9986121520311144
 51
0.0013878485917815
  0
LINE
  5
69F8
  8
1
 10
129.4500000000001023
 20
185.4000000000000057
 30
0.0
 11
129.4500000000001023
 21
50.0
 31
0.0
  0
POLYLINE
  5
6A12
  8
0
 66
     1
 10
0.0
 20
0.0
 30
0.0
  0
VERTEX
  5
7493
  8
0
 10
145.9500000000001023
 20
170.2317510873359936
 30
0.0
  0
VERTEX
  5
7494
  8
0
 10
145.9410786640048912
 20
170.262498180283302
 30
0.0
  0
VERTEX
  5
7495
  8
0
 10
145.9264778260877051
 20
170.3111451948265085
 30
0.0
  0
VERTEX
  5
7496
  8
0
 10
145.9088718280796115
 20
170.367590707516996
 30
0.0
  0
VERTEX
  5
7497
  8
0
 10
145.8865399135463861
 20
170.4364190016044915
 30
0.0
  0
VERTEX
  5
7498
  8
0
 10
145.8583267358347086
 20
170.520421164620501
 30
0.0
  0
VERTEX
  5
7499
  8
0
 10
145.8245641185723969
 20
170.6176347986339863
 30
0.0
  0
VERTEX
  5
749A
  8
0
 10
145.7857727024982069
 20
170.7254985238269001
 30
0.0
  0
VERTEX
  5
749B
  8
0
 10
145.7421695278383993
 20
170.8424828176208905
 30
0.0
  0
VERTEX
  5
749C
  8
0
 10
145.6937532798316113
 20
170.9678002878513041
 30
0.0
  0
VERTEX
  5
749D
  8
0
 10
145.5826546206133116
 20
171.2400362185933886
 30
0.0
  0
VERTEX
  5
749E
  8
0
 10
145.4534401708449991
 20
171.5343218519383015
 30
0.0
  0
VERTEX
  5
749F
  8
0
 10
145.3059006115823024
 20
171.842501886285504
 30
0.0
  0
VERTEX
  5
74A0
  8
0
 10
145.1389569479096906
 20
172.1572733681223895
 30
0.0
  0
VERTEX
  5
74A1
  8
0
 10
144.9533111023287972
 20
172.4743236508211055
 30
0.0
  0
VERTEX
  5
74A2
  8
0
 10
144.7500386295409953
 20
172.7900382226206091
 30
0.0
  0
VERTEX
  5
74A3
  8
0
 10
144.5281549988771985
 20
173.0994866807637038
 30
0.0
  0
VERTEX
  5
74A4
  8
0
 10
144.2846165717614895
 20
173.3964233558288015
 30
0.0
  0
VERTEX
  5
74A5
  8
0
 10
144.0174961320985858
 20
173.6758760333246983
 30
0.0
  0
VERTEX
  5
74A6
  8
0
 10
143.7326108162972105
 20
173.9414178224180034
 30
0.0
  0
VERTEX
  5
74A7
  8
0
 10
143.4388392857136125
 20
174.1999999999852946
 30
0.0
  0
SEQEND
  5
74A8
  8
0
  0
POLYLINE
  5
6A13
  8
0
 66
     1
 10
0.0
 20
0.0
 30
0.0
  0
VERTEX
  5
74A9
  8
0
 10
112.9500000000000028
 20
179.2983930612253971
 30
0.0
  0
VERTEX
  5
74AA
  8
0
 10
112.9563739394534991
 20
179.3043564149147073
 30
0.0
  0
VERTEX
  5
74AB
  8
0
 10
113.0030599864306993
 20
179.3513889254028868
 30
0.0
  0
VERTEX
  5
74AC
  8
0
 10
113.0631168365837027
 20
179.4137597574114125
 30
0.0
  0
VERTEX
  5
74AD
  8
0
 10
113.1470697611866996
 20
179.5026019553540095
 30
0.0
  0
VERTEX
  5
74AE
  8
0
 10
113.2555323403537955
 20
179.6182353949498065
 30
0.0
  0
VERTEX
  5
74AF
  8
0
 10
113.3861696031024024
 20
179.7572524063527908
 30
0.0
  0
VERTEX
  5
74B0
  8
0
 10
113.5401176306804985
 20
179.9189765996742096
 30
0.0
  0
VERTEX
  5
74B1
  8
0
 10
113.7178178530461992
 20
180.1026976844912895
 30
0.0
  0
VERTEX
  5
74B2
  8
0
 10
113.9188156436144936
 20
180.3074153778048014
 30
0.0
  0
VERTEX
  5
74B3
  8
0
 10
114.1418754333357981
 20
180.5318323724355025
 30
0.0
  0
VERTEX
  5
74B4
  8
0
 10
114.3856479581242951
 20
180.7746240243648117
 30
0.0
  0
VERTEX
  5
74B5
  8
0
 10
114.6505042346492047
 20
181.0355252934679982
 30
0.0
  0
VERTEX
  5
74B6
  8
0
 10
114.9386220610970071
 20
181.3153840235069936
 30
0.0
  0
VERTEX
  5
74B7
  8
0
 10
115.2512185492626031
 20
181.6143703484331979
 30
0.0
  0
VERTEX
  5
74B8
  8
0
 10
115.9224072331284958
 20
182.2478510859889127
 30
0.0
  0
SEQEND
  5
74B9
  8
0
  0
LINE
  5
6A28
  8
0
 10
246.350000000000108
 20
221.8157654259038054
 30
0.0
 11
248.2500000000001137
 21
221.8157654259038054
 31
0.0
  0
LINE
  5
6A29
  8
0
 10
246.350000000000108
 20
203.3157654259038054
 30
0.0
 11
248.2500000000001137
 21
203.3157654259038054
 31
0.0
  0
LINE
  5
6A2A
  8
0
 10
248.2500000000001137
 20
203.3157654259038054
 30
0.0
 11
248.2500000000001137
 21
249.8157654259038054
 31
0.0
  0
LINE
  5
6A2B
  8
0
 10
246.350000000000108
 20
203.3157654259038054
 30
0.0
 11
246.350000000000108
 21
249.8157654259038054
 31
0.0
  0
LINE
  5
6A2C
  8
0
 10
246.350000000000108
 20
232.6747811882131032
 30
0.0
 11
248.2500000000001137
 21
232.6747811882131032
 31
0.0
  0
LINE
  5
6A2D
  8
0
 10
248.2500000000001137
 20
249.8157654259038054
 30
0.0
 11
246.350000000000108
 21
249.8157654259038054
 31
0.0
  0
LINE
  5
6A2E
  8
0
 10
246.350000000000108
 20
206.4329227134292921
 30
0.0
 11
248.2500000000001137
 21
206.4329227134292921
 31
0.0
  0
ARC
  5
6A2F
  8
0
 10
212.8345612252211083
 20
205.3265276032799989
 30
0.0
 40
0.484603423864764
 50
179.2438694425594861
 51
225.7571464927848979
  0
ARC
  5
6A30
  8
0
 10
219.7512843283373059
 20
222.2144810975665905
 30
0.0
 40
0.3987177401730935
 50
269.8154415691302006
 51
0.1845584308760397
  0
LINE
  5
6A31
  8
0
 10
213.9500000000001023
 20
203.525867477347191
 30
0.0
 11
212.4964528783862932
 21
204.9793630540787888
 31
0.0
  0
ARC
  5
6A32
  8
0
 10
214.4500000000001023
 20
204.0139402104884994
 30
0.0
 40
0.6987238315929973
 50
224.3084022672422861
 51
315.6915977327577139
  0
LINE
  5
6A33
  8
0
 10
212.3500000000001933
 20
205.3329227134292125
 30
0.0
 11
212.3500000000001933
 21
223.6157654259037884
 31
0.0
  0
ARC
  5
6A34
  8
0
 10
216.1500000000000909
 20
239.615765425903902
 30
0.0
 40
10.1999999999999993
 50
317.1181602527256018
 51
223.6028189726993105
  0
CIRCLE
  5
6A35
  8
0
 10
216.1500000000000909
 20
244.1157654259037884
 30
0.0
 40
2.75
  0
ARC
  5
6A36
  8
0
 10
199.4379341470649081
 20
223.6509390847296004
 30
0.0
 40
12.9121137609925398
 50
359.8439213957893799
 51
43.7588975769219601
  0
ARC
  5
6A37
  8
0
 10
231.9698649197970042
 20
224.2918911627317868
 30
0.0
 40
11.8289477194834003
 50
134.8727162171697955
 51
182.245444035557
  0
LINE
  5
6A38
  8
0
 10
220.1500000000002046
 20
223.8284287284110974
 30
0.0
 11
220.1500000000002046
 21
222.2157654259038111
 31
0.0
  0
LINE
  5
6A39
  8
0
 10
217.6500000000002046
 20
221.8157654259038054
 30
0.0
 11
217.6500000000002046
 21
206.4329227134292921
 31
0.0
  0
ARC
  5
6A3A
  8
0
 10
217.1682118385596141
 20
206.4253790152627914
 30
0.0
 40
0.4818472163312415
 50
314.1023744507813262
 51
0.8970472604038056
  0
LINE
  5
6A3B
  8
0
 10
217.50354982217101
 20
206.0793657544855932
 30
0.0
 11
214.9500000000001023
 21
203.525867477347191
 31
0.0
  0
LINE
  5
6A3C
  8
0
 10
217.6500000000002046
 20
221.8157654259038054
 30
0.0
 11
219.7500000000001137
 21
221.8157654259038054
 31
0.0
  0
LINE
  5
6A3D
  8
1
 10
216.1500000000000909
 20
252.8155635386088136
 30
0.0
 11
216.1500000000000057
 21
200.6966166956538018
 31
0.0
  0
LINE
  5
6A3E
  8
1
 10
211.4000000000002046
 20
244.1157654259037884
 30
0.0
 11
220.9000000000000909
 21
244.1157654259037884
 31
0.0
  0
LINE
  5
6A3F
  8
0
 10
246.350000000000108
 20
155.3157654259038054
 30
0.0
 11
248.2500000000001137
 21
155.3157654259038054
 31
0.0
  0
LINE
  5
6A40
  8
0
 10
246.350000000000108
 20
136.8157654259038054
 30
0.0
 11
248.2500000000001137
 21
136.8157654259038054
 31
0.0
  0
LINE
  5
6A41
  8
0
 10
248.2500000000001137
 20
136.8157654259038054
 30
0.0
 11
248.2500000000001137
 21
183.3157654259038054
 31
0.0
  0
LINE
  5
6A42
  8
0
 10
246.350000000000108
 20
136.8157654259038054
 30
0.0
 11
246.350000000000108
 21
183.3157654259038054
 31
0.0
  0
LINE
  5
6A43
  8
0
 10
246.350000000000108
 20
166.1747811882129895
 30
0.0
 11
248.2500000000001137
 21
166.1747811882129895
 31
0.0
  0
LINE
  5
6A44
  8
0
 10
248.2500000000001137
 20
183.3157654259038054
 30
0.0
 11
246.350000000000108
 21
183.3157654259038054
 31
0.0
  0
LINE
  5
6A45
  8
0
 10
246.350000000000108
 20
139.9329227134292069
 30
0.0
 11
248.2500000000001137
 21
139.9329227134292069
 31
0.0
  0
ARC
  5
6A46
  8
0
 10
212.8345612252211083
 20
138.8265276032799989
 30
0.0
 40
0.484603423864764
 50
179.2438694425592871
 51
225.7571464927848979
  0
ARC
  5
6A47
  8
0
 10
219.7512843283373059
 20
155.7144810975665052
 30
0.0
 40
0.3987177401730935
 50
269.8154415691302006
 51
0.1845584308762433
  0
LINE
  5
6A48
  8
0
 10
213.9500000000001023
 20
137.025867477347191
 30
0.0
 11
212.4964528783862932
 21
138.4793630540787888
 31
0.0
  0
ARC
  5
6A49
  8
0
 10
214.4500000000001023
 20
137.5139402104884994
 30
0.0
 40
0.6987238315929973
 50
224.3084022672422861
 51
315.6915977327616929
  0
LINE
  5
6A4A
  8
0
 10
212.3500000000001933
 20
138.8329227134292125
 30
0.0
 11
212.3500000000001933
 21
157.1157654259037884
 31
0.0
  0
ARC
  5
6A4B
  8
0
 10
216.1500000000000909
 20
173.1157654259037884
 30
0.0
 40
10.1999999999999993
 50
317.1181602527256018
 51
223.6028189726993105
  0
CIRCLE
  5
6A4C
  8
0
 10
216.1500000000000909
 20
177.6157654259037884
 30
0.0
 40
2.75
  0
ARC
  5
6A4D
  8
0
 10
199.4379341470649081
 20
157.1509390847296004
 30
0.0
 40
12.9121137609925398
 50
359.8439213957889251
 51
43.7588975769218322
  0
ARC
  5
6A4E
  8
0
 10
231.9698649197970042
 20
157.7918911627317868
 30
0.0
 40
11.8289477194834003
 50
134.8727162171697955
 51
182.2454440355573979
  0
LINE
  5
6A4F
  8
0
 10
220.1500000000002046
 20
157.3284287284110974
 30
0.0
 11
220.1500000000002046
 21
155.7157654259038111
 31
0.0
  0
LINE
  5
6A50
  8
0
 10
217.6500000000002046
 20
155.3157654259038054
 30
0.0
 11
217.6500000000002046
 21
139.9329227134292069
 31
0.0
  0
ARC
  5
6A51
  8
0
 10
217.1682118385596141
 20
139.9253790152627914
 30
0.0
 40
0.4818472163312415
 50
314.1023744507813262
 51
0.8970472604033982
  0
LINE
  5
6A52
  8
0
 10
217.50354982217101
 20
139.5793657544855932
 30
0.0
 11
214.9500000000001023
 21
137.025867477347191
 31
0.0
  0
LINE
  5
6A53
  8
0
 10
217.6500000000002046
 20
155.3157654259038054
 30
0.0
 11
219.7500000000001137
 21
155.3157654259038054
 31
0.0
  0
LINE
  5
6A54
  8
1
 10
216.1500000000000909
 20
186.3155635386088136
 30
0.0
 11
216.1500000000000057
 21
134.1966166956538018
 31
0.0
  0
LINE
  5
6A55
  8
1
 10
211.4000000000002046
 20
177.6157654259037884
 30
0.0
 11
220.9000000000000909
 21
177.6157654259037884
 31
0.0
  0
LINE
  5
6C5E
  8
0
 10
34.3375488687041184
 20
174.1999999999999886
 30
0.0
 11
28.9999999999498392
 21
174.1999999999999886
 31
0.0
  0
LINE
  5
6C5F
  8
0
 10
71.0000000000499654
 20
174.1999999999999034
 30
0.0
 11
65.6624511313287087
 21
174.1999999999999034
 31
0.0
  0
LINE
  5
6C61
  8
0
 10
115.4611607143024941
 20
174.1999999999999034
 30
0.0
 11
143.4388392856969858
 21
174.1999999999999034
 31
0.0
  0
LINE
  5
71EC
  8
0
 10
55.7113248654051674
 20
53.0000000000000071
 30
0.0
 11
44.2886751345948184
 21
53.0
 31
0.0
  0
LINE
  5
71ED
  8
0
 10
44.0
 20
58.399999999999828
 30
0.0
 11
44.0
 21
53.5000000000000071
 31
0.0
  0
LINE
  5
71EE
  8
0
 10
55.9999999999999432
 20
53.5000000000000071
 30
0.0
 11
56.0
 21
58.3999999999999204
 31
0.0
  0
ARC
  5
71EF
  8
0
 10
54.9999999999999432
 20
60.6500000000000199
 30
0.0
 40
2.249999999999996
 50
294.2445058254770061
 51
65.7554941745192423
  0
ARC
  5
71F0
  8
0
 10
61.5720895873013205
 20
60.649999999999828
 30
0.0
 40
6.0092164521602198
 50
158.0112301569427018
 51
201.9887698430570993
  0
LINE
  5
71F1
  8
1
 10
54.0628731351411034
 20
60.6499999999997996
 30
0.0
 11
58.7499999999999432
 21
60.6499999999998209
 31
0.0
  0
ARC
  5
71F2
  8
0
 10
45.0000000000000568
 20
60.6500000000000199
 30
0.0
 40
2.249999999999996
 50
114.2445058254807009
 51
245.755494174522795
  0
ARC
  5
71F3
  8
0
 10
38.4279104126986795
 20
60.649999999999828
 30
0.0
 40
6.0092164521602198
 50
338.0112301569428155
 51
21.9887698430572485
  0
LINE
  5
71F4
  8
1
 10
45.9371268648588895
 20
60.6499999999998209
 30
0.0
 11
41.2500000000000568
 21
60.6499999999998209
 31
0.0
  0
LINE
  5
71F5
  8
0
 10
44.0
 20
132.8999999999996078
 30
0.0
 11
44.0
 21
62.9000000000001194
 31
0.0
  0
LINE
  5
71F6
  8
0
 10
56.0000000000000426
 20
62.9000000000002117
 30
0.0
 11
55.9999999999999432
 21
132.8999999999996078
 31
0.0
  0
LINE
  5
71F7
  8
0
 10
55.7113248654051674
 20
53.0000000000000071
 30
0.0
 11
55.9999999999999432
 21
53.5000000000000071
 31
0.0
  0
LINE
  5
71F8
  8
0
 10
44.0
 20
53.5000000000000071
 30
0.0
 11
44.2886751345948184
 21
53.0
 31
0.0
  0
LINE
  5
71F9
  8
0
 10
56.0
 20
53.5000000000000071
 30
0.0
 11
44.0
 21
53.5000000000000071
 31
0.0
  0
LINE
  5
71FA
  8
0
 10
135.1613248654051063
 20
53.0
 30
0.0
 11
123.7386751345947999
 21
53.0
 31
0.0
  0
LINE
  5
71FB
  8
0
 10
123.4500000000000028
 20
132.8999999999996078
 30
0.0
 11
123.4500000000000028
 21
53.5
 31
0.0
  0
LINE
  5
71FC
  8
0
 10
135.4499999999999886
 20
53.5000000000000071
 30
0.0
 11
135.4499999999999886
 21
132.8999999999996078
 31
0.0
  0
CIRCLE
  5
71FD
  8
0
 10
129.4499999999999886
 20
60.649999999999828
 30
0.0
 40
2.2500000000002842
  0
LINE
  5
71FE
  8
1
 10
125.1999999999997044
 20
60.6499999999998209
 30
0.0
 11
133.7000000000003013
 21
60.6499999999997996
 31
0.0
  0
LINE
  5
71FF
  8
0
 10
135.1613248654051063
 20
53.0
 30
0.0
 11
135.4499999999999886
 21
53.5000000000000071
 31
0.0
  0
LINE
  5
7200
  8
0
 10
123.4500000000000028
 20
53.5000000000000071
 30
0.0
 11
123.7386751345947999
 21
53.0
 31
0.0
  0
LINE
  5
7201
  8
0
 10
135.4499999999999886
 20
53.5000000000000071
 30
0.0
 11
123.4500000000000028
 21
53.5000000000000071
 31
0.0
  0
ENDSEC
  0
EOF
