  0
SECTION
  2
HEADER
  9
$ACADVER
  1
AC1009
  9
$INSBASE
 10
0.0
 20
0.0
 30
0.0
  9
$EXTMIN
 10
0.0
 20
-2.960436562073669
 30
0.0
  9
$EXTMAX
 10
248.2500000000001137
 20
245.1499820425173937
 30
0.0
  9
$LIMMIN
 10
0.0
 20
0.0
  9
$LIMMAX
 10
187.5
 20
135.0
  9
$ORTHOMODE
 70
     1
  9
$REGENMODE
 70
     1
  9
$FILLMODE
 70
     1
  9
$QTEXTMODE
 70
     0
  9
$MIRRTEXT
 70
     0
  9
$DRAGMODE
 70
     2
  9
$LTSCALE
 40
5.0
  9
$OSMODE
 70
    37
  9
$ATTMODE
 70
     1
  9
$TEXTSIZE
 40
4.0
  9
$TRACEWID
 40
0.05
  9
$TEXTSTYLE
  7
STANDARD
  9
$CLAYER
  8
0
  9
$CELTYPE
  6
BYLAYER
  9
$CECOLOR
 62
   256
  9
$DIMSCALE
 40
0.5
  9
$DIMASZ
 40
3.0
  9
$DIMEXO
 40
2.0
  9
$DIMDLI
 40
0.38
  9
$DIMRND
 40
0.0
  9
$DIMDLE
 40
0.0
  9
$DIMEXE
 40
2.0
  9
$DIMTP
 40
0.0
  9
$DIMTM
 40
0.0
  9
$DIMTXT
 40
3.0
  9
$DIMCEN
 40
0.0
  9
$DIMTSZ
 40
0.0
  9
$DIMTOL
 70
     0
  9
$DIMLIM
 70
     0
  9
$DIMTIH
 70
     0
  9
$DIMTOH
 70
     0
  9
$DIMSE1
 70
     0
  9
$DIMSE2
 70
     0
  9
$DIMTAD
 70
     1
  9
$DIMZIN
 70
     0
  9
$DIMBLK
  1

  9
$DIMASO
 70
     0
  9
$DIMSHO
 70
     0
  9
$DIMPOST
  1

  9
$DIMAPOST
  1

  9
$DIMALT
 70
     0
  9
$DIMALTD
 70
     2
  9
$DIMALTF
 40
25.3999999999999986
  9
$DIMLFAC
 40
1.0
  9
$DIMTOFL
 70
     0
  9
$DIMTVP
 40
1.6000000000000001
  9
$DIMTIX
 70
     1
  9
$DIMSOXD
 70
     0
  9
$DIMSAH
 70
     0
  9
$DIMBLK1
  1

  9
$DIMBLK2
  1

  9
$DIMSTYLE
  2
STANDARD
  9
$DIMCLRD
 70
     0
  9
$DIMCLRE
 70
     0
  9
$DIMCLRT
 70
     0
  9
$DIMTFAC
 40
1.0
  9
$DIMGAP
 40
0.09
  9
$LUNITS
 70
     2
  9
$LUPREC
 70
     1
  9
$SKETCHINC
 40
0.1
  9
$FILLETRAD
 40
1.0
  9
$AUNITS
 70
     0
  9
$AUPREC
 70
     0
  9
$MENU
  1
E:\r13\win\SUPPORT\ACAD
  9
$ELEVATION
 40
0.0
  9
$PELEVATION
 40
0.0
  9
$THICKNESS
 40
0.0
  9
$LIMCHECK
 70
     0
  9
$BLIPMODE
 70
     0
  9
$CHAMFERA
 40
0.0
  9
$CHAMFERB
 40
0.0
  9
$SKPOLY
 70
     0
  9
$TDCREATE
 40
2449840.6143865738995373
  9
$TDUPDATE
 40
2460864.3915046290494502
  9
$TDINDWG
 40
0.7386731828999999
  9
$TDUSRTIMER
 40
0.7386731828999999
  9
$USRTIMER
 70
     1
  9
$ANGBASE
 50
0.0
  9
$ANGDIR
 70
     0
  9
$PDMODE
 70
     0
  9
$PDSIZE
 40
0.0
  9
$PLINEWID
 40
0.0
  9
$COORDS
 70
     1
  9
$SPLFRAME
 70
     0
  9
$SPLINETYPE
 70
     6
  9
$SPLINESEGS
 70
     8
  9
$ATTDIA
 70
     1
  9
$ATTREQ
 70
     1
  9
$HANDLING
 70
     1
  9
$HANDSEED
  5
7222
  9
$SURFTAB1
 70
     6
  9
$SURFTAB2
 70
     6
  9
$SURFTYPE
 70
     6
  9
$SURFU
 70
     6
  9
$SURFV
 70
     6
  9
$UCSNAME
  2

  9
$UCSORG
 10
0.0
 20
0.0
 30
0.0
  9
$UCSXDIR
 10
1.0
 20
0.0
 30
0.0
  9
$UCSYDIR
 10
0.0
 20
1.0
 30
0.0
  9
$PUCSNAME
  2

  9
$PUCSORG
 10
0.0
 20
0.0
 30
0.0
  9
$PUCSXDIR
 10
1.0
 20
0.0
 30
0.0
  9
$PUCSYDIR
 10
0.0
 20
1.0
 30
0.0
  9
$USERI1
 70
     0
  9
$USERI2
 70
     1
  9
$USERI3
 70
     1
  9
$USERI4
 70
     0
  9
$USERI5
 70
     0
  9
$USERR1
 40
0.0
  9
$USERR2
 40
0.0
  9
$USERR3
 40
0.0
  9
$USERR4
 40
0.0
  9
$USERR5
 40
0.0
  9
$WORLDVIEW
 70
     1
  9
$SHADEDGE
 70
     3
  9
$SHADEDIF
 70
    70
  9
$TILEMODE
 70
     1
  9
$MAXACTVP
 70
    16
  9
$PLIMCHECK
 70
     0
  9
$PEXTMIN
 10
1.0000000000000000E+20
 20
1.0000000000000000E+20
 30
1.0000000000000000E+20
  9
$PEXTMAX
 10
-1.0000000000000000E+20
 20
-1.0000000000000000E+20
 30
-1.0000000000000000E+20
  9
$PLIMMIN
 10
0.0
 20
0.0
  9
$PLIMMAX
 10
12.0
 20
9.0
  9
$UNITMODE
 70
     0
  9
$VISRETAIN
 70
     0
  9
$PLINEGEN
 70
     0
  9
$PSLTSCALE
 70
     0
  0
ENDSEC
  0
SECTION
  2
TABLES
  0
TABLE
  2
VPORT
 70
     1
  0
VPORT
  2
*ACTIVE
 70
     0
 10
0.0
 20
0.0
 11
1.0
 21
1.0
 12
539.4919168591223979
 22
229.7225883932983095
 13
0.0
 23
0.0
 14
5.0
 24
5.0
 15
5.0
 25
5.0
 16
0.0
 26
0.0
 36
1.0
 17
0.0
 27
0.0
 37
0.0
 40
459.5407489687967768
 41
2.3485221674876842
 42
50.0
 43
0.0
 44
0.0
 50
0.0
 51
0.0
 71
     0
 72
   100
 73
     1
 74
     0
 75
     0
 76
     0
 77
     0
 78
     0
  0
ENDTAB
  0
TABLE
  2
LTYPE
 70
     4
  0
LTYPE
  2
CONTINUOUS
 70
     0
  3
Solid Line
 72
    65
 73
     0
 40
0.0
  0
LTYPE
  2
CENTER
 70
     0
  3
____ _ ____ _ ____ _ ____ _ ____ _ ____ _ ____
 72
    65
 73
     4
 40
2.0
 49
1.25
 49
-0.25
 49
0.25
 49
-0.25
  0
LTYPE
  2
PHANTOM2
 70
     0
  3
___ _ _ ___ _ _ ___ _ _ ___ _ _
 72
    65
 73
     6
 40
1.25
 49
0.625
 49
-0.125
 49
0.125
 49
-0.125
 49
0.125
 49
-0.125
  0
LTYPE
  2
HIDDEN
 70
     0
  3
_ _ _ _ _ _ _ _ _ _ _ _ _ _ _ _ _ _ _ _ _ _ _
 72
    65
 73
     2
 40
0.375
 49
0.25
 49
-0.125
  0
ENDTAB
  0
TABLE
  2
LAYER
 70
     5
  0
LAYER
  2
0
 70
     0
 62
     7
  6
CONTINUOUS
  0
LAYER
  2
1
 70
     0
 62
     1
  6
CENTER
  0
LAYER
  2
3
 70
     0
 62
     3
  6
CONTINUOUS
  0
LAYER
  2
DEFPOINTS
 70
     0
 62
     7
  6
CONTINUOUS
  0
LAYER
  2
2
 70
     0
 62
     2
  6
HIDDEN
  0
ENDTAB
  0
TABLE
  2
STYLE
 70
     2
  0
STYLE
  2
STANDARD
 70
     0
 40
0.0
 41
1.0
 50
0.0
 71
     0
 42
4.0
  3
TXT
  4
BIGFONT
  0
STYLE
  2
STANDARD1
 70
     0
 40
0.0
 41
1.0
 50
0.0
 71
     0
 42
3.0
  3
txt
  4

  0
ENDTAB
  0
TABLE
  2
VIEW
 70
     1
  0
VIEW
  2
ALL
 70
     0
 40
179.6615229999999883
 10
141.9039180000000044
 20
89.8307609999999954
 41
0.0
 11
0.0
 21
0.0
 31
1.0
 12
0.0
 22
0.0
 32
0.0
 42
0.0
 43
0.0
 44
0.0
 50
0.0
 71
     0
  0
ENDTAB
  0
TABLE
  2
UCS
 70
     0
  0
ENDTAB
  0
TABLE
  2
APPID
 70
    13
  0
APPID
  2
ACAD
 70
     0
  0
APPID
  2
DCO15
 70
     0
  0
APPID
  2
ACAD_EXEMPT_FROM_CAD_STANDARDS
 70
     0
  0
APPID
  2
ACAD_MLEADERVER
 70
     0
  0
APPID
  2
ACAD_NAV_VCDISPLAY
 70
     0
  0
APPID
  2
ACAD_DSTYLE_DIMJAG
 70
     0
  0
APPID
  2
ACAD_DSTYLE_DIMTALN
 70
     0
  0
APPID
  2
ACAD_PSEXT
 70
     0
  0
APPID
  2
ACAD_DSTYLE_DIMBREAK
 70
     0
  0
APPID
  2
ACAECLAYERSTANDARD
 70
     0
  0
APPID
  2
ACCMTRANSPARENCY
 70
     0
  0
APPID
  2
GRADIENTCOLOR1ACI
 70
     0
  0
APPID
  2
GRADIENTCOLOR2ACI
 70
     0
  0
ENDTAB
  0
TABLE
  2
DIMSTYLE
 70
     1
  0
DIMSTYLE
  2
STANDARD
 70
     0
  3

  4

  5

  6

  7

 40
1.0
 41
0.18
 42
0.0625
 43
0.38
 44
0.18
 45
0.0
 46
0.0
 47
0.0
 48
0.0
140
0.18
141
0.09
142
0.0
143
25.3999999999999986
144
1.0
145
0.0
146
1.0
147
0.09
 71
     0
 72
     0
 73
     1
 74
     1
 75
     0
 76
     0
 77
     0
 78
     0
170
     0
171
     2
172
     0
173
     0
174
     0
175
     0
176
     0
177
     0
178
     0
  0
ENDTAB
  0
ENDSEC
  0
SECTION
  2
BLOCKS
  0
BLOCK
  8
0
  2
$MODEL_SPACE
 70
     0
 10
0.0
 20
0.0
 30
0.0
  3
$MODEL_SPACE
  1

  0
ENDBLK
  5
1BD
  8
0
  0
BLOCK
 67
     1
  8
0
  2
$PAPER_SPACE
 70
     0
 10
0.0
 20
0.0
 30
0.0
  3
$PAPER_SPACE
  1

  0
ENDBLK
  5
1BB
 67
     1
  8
0
  0
ENDSEC
  0
SECTION
  2
ENTITIES
  0
TEXT
  5
189A
  8
0
 62
     3
 10
0.0
 20
0.0
 30
0.0
 40
10.0
  1
BLPLK10030
  7
STANDARD1
  0
ARC
  5
5604
  8
0
 10
103.755376004163395
 20
123.2958776824907972
 30
0.0
 40
10.9442086741419207
 50
2.6401456806686858
 51
32.845513459684291
  0
ARC
  5
5605
  8
0
 10
155.1315155703711071
 20
123.3000719140547972
 30
0.0
 40
10.9309215523534107
 50
147.1356902493245968
 51
177.3786506103224099
  0
LINE
  5
5606
  8
0
 10
145.9500000000001023
 20
129.2317510873359936
 30
0.0
 11
145.9500000000001023
 21
138.2983930612253971
 31
0.0
  0
LINE
  5
5607
  8
0
 10
112.9500000000000028
 20
138.2983930612253971
 30
0.0
 11
112.9500000000000028
 21
129.2317510873359936
 31
0.0
  0
LINE
  5
5608
  8
0
 10
114.6879678373999951
 20
123.7999999999998977
 30
0.0
 11
116.296237264200002
 21
103.8110910609999991
 31
0.0
  0
LINE
  5
5609
  8
0
 10
142.6037627358001032
 20
103.8110910609999991
 30
0.0
 11
144.21203216260011
 21
123.7999999999998977
 31
0.0
  0
ARC
  5
560A
  8
0
 10
116.6322705242151017
 20
103.8531566951572955
 30
0.0
 40
0.338655975015094
 50
187.1353370080030913
 51
224.764662966565993
  0
ARC
  5
560B
  8
0
 10
142.2988064013754865
 20
103.8380330225883057
 30
0.0
 40
0.306144141214389
 50
313.1487989389376025
 51
354.9512010864170861
  0
LINE
  5
560C
  8
0
 10
116.3918230267000951
 20
103.6146763597999012
 30
0.0
 11
118.2500000000000995
 21
101.9000000000000057
 31
0.0
  0
LINE
  5
560D
  8
0
 10
140.6500000000000909
 20
101.9000000000000057
 30
0.0
 11
142.5081769732998964
 21
103.6146763597999012
 31
0.0
  0
LINE
  5
560E
  8
0
 10
119.4500000000000028
 20
92.4000000000000057
 30
0.0
 11
119.7386751346000011
 21
91.9000000000000057
 31
0.0
  0
LINE
  5
560F
  8
0
 10
139.161324865400104
 20
91.9000000000000057
 30
0.0
 11
139.4500000000001023
 21
92.4000000000000057
 31
0.0
  0
LINE
  5
5610
  8
0
 10
139.4500000000001023
 20
92.4000000000000057
 30
0.0
 11
139.4500000000001023
 21
101.9000000000000057
 31
0.0
  0
LINE
  5
5611
  8
0
 10
119.4500000000000028
 20
101.9000000000000057
 30
0.0
 11
119.4500000000000028
 21
92.4000000000000057
 31
0.0
  0
LINE
  5
5623
  8
0
 10
116.8199721998999934
 20
133.6542868777000024
 30
0.0
 11
142.0800278000999981
 21
133.6542868777000024
 31
0.0
  0
LINE
  5
5638
  8
0
 10
142.5532865065999886
 20
141.4000000000000057
 30
0.0
 11
116.3467134934000029
 21
141.4000000000000057
 31
0.0
  0
LINE
  5
563B
  8
0
 10
118.2500000000000995
 20
101.9000000000000057
 30
0.0
 11
140.6500000000000909
 21
101.9000000000000057
 31
0.0
  0
LINE
  5
563C
  8
0
 10
139.161324865400104
 20
91.9000000000000057
 30
0.0
 11
119.7386751346000011
 21
91.9000000000000057
 31
0.0
  0
LINE
  5
563D
  8
0
 10
139.4500000000001023
 20
92.4000000000000057
 30
0.0
 11
119.4500000000000028
 21
92.4000000000000057
 31
0.0
  0
LINE
  5
564A
  8
0
 10
116.296237264200002
 20
103.8110910609999991
 30
0.0
 11
142.6037627358001032
 21
103.8110910609999991
 31
0.0
  0
POLYLINE
  5
62DA
  8
0
 66
     1
 10
0.0
 20
0.0
 30
0.0
  0
VERTEX
  5
7028
  8
0
 10
115.461160714284901
 20
133.1999999999852946
 30
0.0
  0
VERTEX
  5
7029
  8
0
 10
115.1595002214542944
 20
132.9493479428325884
 30
0.0
  0
VERTEX
  5
702A
  8
0
 10
114.8770956245545989
 20
132.6812802934315982
 30
0.0
  0
VERTEX
  5
702B
  8
0
 10
114.3737830647586975
 20
132.0974785125160906
 30
0.0
  0
VERTEX
  5
702C
  8
0
 10
113.9459985543463034
 20
131.4747680529808065
 30
0.0
  0
VERTEX
  5
702D
  8
0
 10
113.5939860917863058
 20
130.8422692690116946
 30
0.0
  0
VERTEX
  5
702E
  8
0
 10
113.3170328611302011
 20
130.239663908287298
 30
0.0
  0
VERTEX
  5
702F
  8
0
 10
113.2061425028746982
 20
129.9682363582236064
 30
0.0
  0
VERTEX
  5
7030
  8
0
 10
113.1138485969563021
 20
129.7258897594244047
 30
0.0
  0
VERTEX
  5
7031
  8
0
 10
113.0406748679168061
 20
129.5191648373979092
 30
0.0
  0
VERTEX
  5
7032
  8
0
 10
112.9893043703475968
 20
129.3638553452416886
 30
0.0
  0
VERTEX
  5
7033
  8
0
 10
112.9622371452969958
 20
129.2762793676930073
 30
0.0
  0
VERTEX
  5
7034
  8
0
 10
112.9500000000000028
 20
129.2317510873359936
 30
0.0
  0
SEQEND
  5
7035
  8
0
  0
POLYLINE
  5
62DC
  8
0
 66
     1
 10
0.0
 20
0.0
 30
0.0
  0
VERTEX
  5
7036
  8
0
 10
115.9224072331284958
 20
141.2478510859889127
 30
0.0
  0
VERTEX
  5
7037
  8
0
 10
115.9737450447174041
 20
141.2928203230268025
 30
0.0
  0
SEQEND
  5
7038
  8
0
  0
POLYLINE
  5
62DD
  8
0
 66
     1
 10
0.0
 20
0.0
 30
0.0
  0
VERTEX
  5
7039
  8
0
 10
142.926254955277301
 20
141.2928203230297015
 30
0.0
  0
VERTEX
  5
703A
  8
0
 10
142.977592766869094
 20
141.2478510859893959
 30
0.0
  0
SEQEND
  5
703B
  8
0
  0
POLYLINE
  5
62DE
  8
0
 66
     1
 10
0.0
 20
0.0
 30
0.0
  0
VERTEX
  5
703C
  8
0
 10
142.977592766869094
 20
141.2478510859893959
 30
0.0
  0
VERTEX
  5
703D
  8
0
 10
143.6534595505414131
 20
140.6110842302367985
 30
0.0
  0
VERTEX
  5
703E
  8
0
 10
144.2475957059259883
 20
140.0375777091745135
 30
0.0
  0
VERTEX
  5
703F
  8
0
 10
144.7582968157132939
 20
139.5321942804662001
 30
0.0
  0
VERTEX
  5
7040
  8
0
 10
145.1816282827952023
 20
139.1032413991559054
 30
0.0
  0
VERTEX
  5
7041
  8
0
 10
145.5121802022511019
 20
138.7578369592154957
 30
0.0
  0
VERTEX
  5
7042
  8
0
 10
145.7539212614327084
 20
138.501159746145504
 30
0.0
  0
VERTEX
  5
7043
  8
0
 10
145.8944496483962041
 20
138.35339103079599
 30
0.0
  0
VERTEX
  5
7044
  8
0
 10
145.9500000000001023
 20
138.2983930612253971
 30
0.0
  0
SEQEND
  5
7045
  8
0
  0
POLYLINE
  5
62DF
  8
0
 66
     1
 10
0.0
 20
0.0
 30
0.0
  0
VERTEX
  5
7046
  8
0
 10
142.926254955277301
 20
141.2928203230297015
 30
0.0
  0
VERTEX
  5
7047
  8
0
 10
142.8729883124703974
 20
141.3292258200341109
 30
0.0
  0
VERTEX
  5
7048
  8
0
 10
142.8158686476498076
 20
141.3567560321473024
 30
0.0
  0
VERTEX
  5
7049
  8
0
 10
142.7552026163054961
 20
141.3767795938240113
 30
0.0
  0
VERTEX
  5
704A
  8
0
 10
142.6911321217934017
 20
141.3901449720094092
 30
0.0
  0
VERTEX
  5
704B
  8
0
 10
142.6237332373250979
 20
141.3975805749551
 30
0.0
  0
VERTEX
  5
704C
  8
0
 10
142.5532865065999886
 20
141.4000000000000057
 30
0.0
  0
SEQEND
  5
704D
  8
0
  0
POLYLINE
  5
62E0
  8
0
 66
     1
 10
0.0
 20
0.0
 30
0.0
  0
VERTEX
  5
704E
  8
0
 10
116.3467134934000029
 20
141.4000000000000057
 30
0.0
  0
VERTEX
  5
704F
  8
0
 10
116.2625571036441983
 20
141.3964892029316047
 30
0.0
  0
VERTEX
  5
7050
  8
0
 10
116.1828267491604976
 20
141.3855682339138866
 30
0.0
  0
VERTEX
  5
7051
  8
0
 10
116.1079921119575999
 20
141.3655949839202037
 30
0.0
  0
VERTEX
  5
7052
  8
0
 10
116.0381219246020947
 20
141.3354379464240935
 30
0.0
  0
VERTEX
  5
7053
  8
0
 10
115.973745044717603
 20
141.2928203230268878
 30
0.0
  0
SEQEND
  5
7054
  8
0
  0
POLYLINE
  5
62E1
  8
0
 66
     1
 10
0.0
 20
0.0
 30
0.0
  0
VERTEX
  5
7055
  8
0
 10
142.977592766869094
 20
133.4176494928327941
 30
0.0
  0
VERTEX
  5
7056
  8
0
 10
143.4388392857136125
 20
133.1999999999852946
 30
0.0
  0
SEQEND
  5
7057
  8
0
  0
POLYLINE
  5
62E2
  8
0
 66
     1
 10
0.0
 20
0.0
 30
0.0
  0
VERTEX
  5
7058
  8
0
 10
142.0800278000999981
 20
133.6542868777000024
 30
0.0
  0
VERTEX
  5
7059
  8
0
 10
142.2192066912492123
 20
133.6309808124470919
 30
0.0
  0
VERTEX
  5
705A
  8
0
 10
142.3509796516368908
 20
133.605827894517688
 30
0.0
  0
VERTEX
  5
705B
  8
0
 10
142.4752054515105044
 20
133.5788626187915042
 30
0.0
  0
VERTEX
  5
705C
  8
0
 10
142.5916980190499999
 20
133.5501041869395067
 30
0.0
  0
VERTEX
  5
705D
  8
0
 10
142.70031197219879
 20
133.5195789521594918
 30
0.0
  0
VERTEX
  5
705E
  8
0
 10
142.8009190729719933
 20
133.4873131534706943
 30
0.0
  0
VERTEX
  5
705F
  8
0
 10
142.8933668260860941
 20
133.4533254454412941
 30
0.0
  0
VERTEX
  5
7060
  8
0
 10
142.977592766869094
 20
133.4176494928327941
 30
0.0
  0
SEQEND
  5
7061
  8
0
  0
POLYLINE
  5
62E3
  8
0
 66
     1
 10
0.0
 20
0.0
 30
0.0
  0
VERTEX
  5
7062
  8
0
 10
115.9224072331283963
 20
133.4176494928321119
 30
0.0
  0
VERTEX
  5
7063
  8
0
 10
116.0066331739121068
 20
133.4533254454412088
 30
0.0
  0
VERTEX
  5
7064
  8
0
 10
116.0990809270274013
 20
133.4873131534710922
 30
0.0
  0
VERTEX
  5
7065
  8
0
 10
116.1996880278018978
 20
133.5195789521602876
 30
0.0
  0
VERTEX
  5
7066
  8
0
 10
116.3083019809522938
 20
133.5501041869405014
 30
0.0
  0
VERTEX
  5
7067
  8
0
 10
116.424794548493594
 20
133.5788626187928116
 30
0.0
  0
VERTEX
  5
7068
  8
0
 10
116.5490203483689982
 20
133.6058278945191944
 30
0.0
  0
VERTEX
  5
7069
  8
0
 10
116.6807933087588935
 20
133.6309808124489109
 30
0.0
  0
VERTEX
  5
706A
  8
0
 10
116.8199721998999934
 20
133.6542868777000024
 30
0.0
  0
SEQEND
  5
706B
  8
0
  0
POLYLINE
  5
62E4
  8
0
 66
     1
 10
0.0
 20
0.0
 30
0.0
  0
VERTEX
  5
706C
  8
0
 10
115.461160714284901
 20
133.1999999999852946
 30
0.0
  0
VERTEX
  5
706D
  8
0
 10
115.9224072331283963
 20
133.4176494928321119
 30
0.0
  0
SEQEND
  5
706E
  8
0
  0
ARC
  5
6454
  8
0
 10
24.2555963130066097
 20
123.2817490448943971
 30
0.0
 40
10.9945926870045394
 50
2.701746237870243
 51
64.4358396054091003
  0
LINE
  5
6455
  8
0
 10
64.7620321625500424
 20
123.7999999999998977
 30
0.0
 11
63.1537627358499591
 21
103.8110910609999991
 31
0.0
  0
LINE
  5
6456
  8
0
 10
36.8462372641500266
 20
103.8110910609999991
 30
0.0
 11
35.2379678374415519
 21
123.7999999999482981
 31
0.0
  0
LINE
  5
6458
  8
0
 10
28.9999999999500311
 20
133.1999999999999034
 30
0.0
 11
27.4857829779500094
 21
133.6542868777000024
 31
0.0
  0
ARC
  5
6459
  8
0
 10
62.8560483008274602
 20
103.8345087321361007
 30
0.0
 40
0.2986340103575264
 50
312.5975205611638899
 51
355.5024794171001759
  0
ARC
  5
645A
  8
0
 10
37.1393877877612226
 20
103.8322876919083058
 30
0.0
 40
0.2939158496157983
 50
184.1356487431174003
 51
227.764351278603101
  0
LINE
  5
645B
  8
0
 10
63.0581769732499993
 20
103.6146763597999012
 30
0.0
 11
61.1999999999499593
 21
101.9000000000000057
 31
0.0
  0
LINE
  5
645C
  8
0
 10
38.7999999999499892
 20
101.9000000000000057
 30
0.0
 11
36.9418230267500007
 21
103.6146763597999012
 31
0.0
  0
ARC
  5
645D
  8
0
 10
27.6878859282788312
 20
140.9202573614713003
 30
0.0
 40
0.4801413157195168
 50
87.6649625990067136
 51
180.3350374081786072
  0
ARC
  5
645E
  8
0
 10
72.2978097426011459
 20
140.9054447950510962
 30
0.0
 40
0.494583154857749
 50
1.3908696800612681
 51
90.609130312737733
  0
ARC
  5
645F
  8
0
 10
72.3705131627295231
 20
134.1332163319493986
 30
0.0
 40
0.5000242207445728
 50
286.7019906006012206
 51
357.9980094004604894
  0
ARC
  5
6460
  8
0
 10
27.6290343566815295
 20
134.1328672455213962
 30
0.0
 40
0.4995599323130446
 50
181.9637903893654141
 51
253.3362096095800098
  0
LINE
  5
6461
  8
0
 10
27.0499999999499892
 20
136.4000000000000057
 30
0.0
 11
27.2077528213499704
 21
140.9174497482999016
 31
0.0
  0
LINE
  5
6462
  8
0
 10
72.7922471786499727
 20
140.9174497482999016
 30
0.0
 11
72.9499999999499664
 21
136.4000000000000057
 31
0.0
  0
LINE
  5
6463
  8
0
 10
72.9499999999499664
 20
136.4000000000000057
 30
0.0
 11
72.87023217564996
 21
134.1157483768000134
 31
0.0
  0
LINE
  5
6464
  8
0
 10
27.12976782435004
 20
134.1157483768000134
 30
0.0
 11
27.0499999999499892
 21
136.4000000000000057
 31
0.0
  0
LINE
  5
6465
  8
0
 10
39.9999999999500275
 20
92.4000000000000057
 30
0.0
 11
39.9999999999500275
 21
101.9000000000000057
 31
0.0
  0
LINE
  5
6466
  8
0
 10
59.9999999999500275
 20
101.9000000000000057
 30
0.0
 11
59.9999999999500275
 21
92.4000000000000057
 31
0.0
  0
LINE
  5
6467
  8
0
 10
59.9999999999500275
 20
92.4000000000000057
 30
0.0
 11
59.7113248654499671
 21
91.9000000000000057
 31
0.0
  0
LINE
  5
6468
  8
0
 10
40.2886751345500329
 20
91.9000000000000057
 30
0.0
 11
39.9999999999500275
 21
92.4000000000000057
 31
0.0
  0
LINE
  5
647B
  8
0
 10
67.9204877926500217
 20
141.4000000000000057
 30
0.0
 11
72.2925517651499945
 21
141.4000000000000057
 31
0.0
  0
LINE
  5
647D
  8
0
 10
61.1999999999499593
 20
101.9000000000000057
 30
0.0
 11
38.7999999999499892
 21
101.9000000000000057
 31
0.0
  0
LINE
  5
647F
  8
0
 10
32.0795122073499783
 20
141.4000000000000057
 30
0.0
 11
27.7074482348500091
 21
141.4000000000000057
 31
0.0
  0
LINE
  5
6483
  8
0
 10
39.9999999999500275
 20
92.4000000000000057
 30
0.0
 11
59.9999999999500275
 21
92.4000000000000057
 31
0.0
  0
LINE
  5
6484
  8
0
 10
40.2886751345500329
 20
91.9000000000000057
 30
0.0
 11
59.7113248654499671
 21
91.9000000000000057
 31
0.0
  0
LINE
  5
648D
  8
0
 10
63.1537627358499591
 20
103.8110910609999991
 30
0.0
 11
36.8462372641500266
 21
103.8110910609999991
 31
0.0
  0
LINE
  5
648F
  8
0
 10
72.5142170220499906
 20
133.6542868777000024
 30
0.0
 11
68.6379281542500053
 21
133.6542868777000024
 31
0.0
  0
LINE
  5
6490
  8
0
 10
31.3620718457499912
 20
133.6542868777000024
 30
0.0
 11
27.4857829779500094
 21
133.6542868777000024
 31
0.0
  0
POLYLINE
  5
649E
  8
0
 66
     1
 10
0.0
 20
0.0
 30
0.0
  0
VERTEX
  5
706F
  8
0
 10
32.0795122073499783
 20
141.4000000000000057
 30
0.0
  0
VERTEX
  5
7070
  8
0
 10
32.2338272295824595
 20
141.3964892029316047
 30
0.0
  0
VERTEX
  5
7071
  8
0
 10
32.3901220700083172
 20
141.3855682339138866
 30
0.0
  0
VERTEX
  5
7072
  8
0
 10
32.5479376939602503
 20
141.3655949839202037
 30
0.0
  0
VERTEX
  5
7073
  8
0
 10
32.7064234194663825
 20
141.3354379464240935
 30
0.0
  0
VERTEX
  5
7074
  8
0
 10
32.8643484984878
 20
141.2928203230268025
 30
0.0
  0
SEQEND
  5
7075
  8
0
  0
POLYLINE
  5
649F
  8
0
 66
     1
 10
0.0
 20
0.0
 30
0.0
  0
VERTEX
  5
7076
  8
0
 10
67.1356515015199307
 20
141.2928203230297015
 30
0.0
  0
VERTEX
  5
7077
  8
0
 10
67.2671781542938447
 20
141.3292258200341109
 30
0.0
  0
VERTEX
  5
7078
  8
0
 10
67.399261139727912
 20
141.3567560321473024
 30
0.0
  0
VERTEX
  5
7079
  8
0
 10
67.5310976796359341
 20
141.3767795938240113
 30
0.0
  0
VERTEX
  5
707A
  8
0
 10
67.662181057055875
 20
141.3901449720094092
 30
0.0
  0
VERTEX
  5
707B
  8
0
 10
67.792046937486063
 20
141.3975805749551
 30
0.0
  0
VERTEX
  5
707C
  8
0
 10
67.9204877926500217
 20
141.4000000000000057
 30
0.0
  0
SEQEND
  5
707D
  8
0
  0
POLYLINE
  5
64A4
  8
0
 66
     1
 10
0.0
 20
0.0
 30
0.0
  0
VERTEX
  5
707E
  8
0
 10
32.9999999999998295
 20
133.4176494928321119
 30
0.0
  0
VERTEX
  5
707F
  8
0
 10
32.7821867523222821
 20
133.4533254454412088
 30
0.0
  0
VERTEX
  5
7080
  8
0
 10
32.5674612474008995
 20
133.4873131534710922
 30
0.0
  0
VERTEX
  5
7081
  8
0
 10
32.3561637660854515
 20
133.5195789521602876
 30
0.0
  0
VERTEX
  5
7082
  8
0
 10
32.1486061852405669
 20
133.5501041869405014
 30
0.0
  0
VERTEX
  5
7083
  8
0
 10
31.9451076228405704
 20
133.5788626187928116
 30
0.0
  0
VERTEX
  5
7084
  8
0
 10
31.7459857341244209
 20
133.6058278945191944
 30
0.0
  0
VERTEX
  5
7085
  8
0
 10
31.5515312070534186
 20
133.6309808124489109
 30
0.0
  0
VERTEX
  5
7086
  8
0
 10
31.3620718457499912
 20
133.6542868777000024
 30
0.0
  0
SEQEND
  5
7087
  8
0
  0
POLYLINE
  5
64A6
  8
0
 66
     1
 10
0.0
 20
0.0
 30
0.0
  0
VERTEX
  5
7088
  8
0
 10
68.6379281542500053
 20
133.6542868777000024
 30
0.0
  0
VERTEX
  5
7089
  8
0
 10
68.4484687929319193
 20
133.6309808124470919
 30
0.0
  0
VERTEX
  5
708A
  8
0
 10
68.2540142658625086
 20
133.6058278945176028
 30
0.0
  0
VERTEX
  5
708B
  8
0
 10
68.0548923771481782
 20
133.5788626187913053
 30
0.0
  0
VERTEX
  5
708C
  8
0
 10
67.8513938147497555
 20
133.5501041869393077
 30
0.0
  0
VERTEX
  5
708D
  8
0
 10
67.6438362339069386
 20
133.5195789521594065
 30
0.0
  0
VERTEX
  5
708E
  8
0
 10
67.4325387525934161
 20
133.4873131534702964
 30
0.0
  0
VERTEX
  5
708F
  8
0
 10
67.2178132476740871
 20
133.4533254454408961
 30
0.0
  0
VERTEX
  5
7090
  8
0
 10
66.9999999999986926
 20
133.4176494928321119
 30
0.0
  0
SEQEND
  5
7091
  8
0
  0
POLYLINE
  5
64A8
  8
0
 66
     1
 10
0.0
 20
0.0
 30
0.0
  0
VERTEX
  5
7092
  8
0
 10
66.9999999999986926
 20
133.4176494928321119
 30
0.0
  0
VERTEX
  5
7093
  8
0
 10
65.6624511312385835
 20
133.1999999999852946
 30
0.0
  0
SEQEND
  5
7094
  8
0
  0
POLYLINE
  5
64A9
  8
0
 66
     1
 10
0.0
 20
0.0
 30
0.0
  0
VERTEX
  5
7095
  8
0
 10
34.3375488687601731
 20
133.1999999999852946
 30
0.0
  0
VERTEX
  5
7096
  8
0
 10
35.2889616713770806
 20
132.9500839944990105
 30
0.0
  0
VERTEX
  5
7097
  8
0
 10
36.2415960557248695
 20
132.681125796047894
 30
0.0
  0
VERTEX
  5
7098
  8
0
 10
37.1952196591807365
 20
132.3960200258107136
 30
0.0
  0
VERTEX
  5
7099
  8
0
 10
38.1499242174291382
 20
132.0977625850183017
 30
0.0
  0
VERTEX
  5
709A
  8
0
 10
40.0643987981450707
 20
131.4752403726390071
 30
0.0
  0
VERTEX
  5
709B
  8
0
 10
41.991038556358987
 20
130.8428913172575108
 30
0.0
  0
VERTEX
  5
709C
  8
0
 10
42.9618350047783721
 20
130.5344386139499022
 30
0.0
  0
VERTEX
  5
709D
  8
0
 10
43.9397252433579411
 20
130.2403631188549014
 30
0.0
  0
VERTEX
  5
709E
  8
0
 10
44.4318188298929471
 20
130.1010624266720868
 30
0.0
  0
VERTEX
  5
709F
  8
0
 10
44.9262718017725433
 20
129.9681707781838043
 30
0.0
  0
VERTEX
  5
70A0
  8
0
 10
45.4232377590513394
 20
129.842671942430286
 30
0.0
  0
VERTEX
  5
70A1
  8
0
 10
45.9227391165573522
 20
129.7256928537979093
 30
0.0
  0
VERTEX
  5
70A2
  8
0
 10
46.4247725583727018
 20
129.618388527206406
 30
0.0
  0
VERTEX
  5
70A3
  8
0
 10
46.9293347685783715
 20
129.5219139775759061
 30
0.0
  0
VERTEX
  5
70A4
  8
0
 10
47.4364224312562897
 20
129.4374242198263971
 30
0.0
  0
VERTEX
  5
70A5
  8
0
 10
47.9459857797533502
 20
129.3660578015824001
 30
0.0
  0
VERTEX
  5
70A6
  8
0
 10
48.4576452118635004
 20
129.3088363401427046
 30
0.0
  0
VERTEX
  5
70A7
  8
0
 10
48.9708784011690383
 20
129.2667308555055001
 30
0.0
  0
VERTEX
  5
70A8
  8
0
 10
49.4851624505394625
 20
129.2407121653452009
 30
0.0
  0
VERTEX
  5
70A9
  8
0
 10
49.9999744628437881
 20
129.2317510873359936
 30
0.0
  0
VERTEX
  5
70AA
  8
0
 10
50.5147907757231565
 20
129.2404977061436
 30
0.0
  0
VERTEX
  5
70AB
  8
0
 10
51.0290846654532402
 20
129.2663189834995023
 30
0.0
  0
VERTEX
  5
70AC
  8
0
 10
51.5423286428534198
 20
129.308261052669792
 30
0.0
  0
VERTEX
  5
70AD
  8
0
 10
52.053995218743303
 20
129.3653700469203045
 30
0.0
  0
VERTEX
  5
70AE
  8
0
 10
52.5635576075861195
 20
129.4366918033481966
 30
0.0
  0
VERTEX
  5
70AF
  8
0
 10
53.0706374719591665
 20
129.5212096760965039
 30
0.0
  0
VERTEX
  5
70B0
  8
0
 10
53.5751873267974474
 20
129.6177677610039041
 30
0.0
  0
VERTEX
  5
70B1
  8
0
 10
54.0772043985626212
 20
129.7251913344834122
 30
0.0
  0
VERTEX
  5
70B2
  8
0
 10
54.5766859137162825
 20
129.8423056729479867
 30
0.0
  0
VERTEX
  5
70B3
  8
0
 10
55.0736290987204598
 20
129.967936052810586
 30
0.0
  0
VERTEX
  5
70B4
  8
0
 10
55.5680588521589129
 20
130.1009396773864069
 30
0.0
  0
VERTEX
  5
70B5
  8
0
 10
56.060132995685592
 20
130.2403271109027116
 30
0.0
  0
VERTEX
  5
70B6
  8
0
 10
57.0380051978527902
 20
130.5344796377025034
 30
0.0
  0
VERTEX
  5
70B7
  8
0
 10
58.0088272326252579
 20
130.8428461426096874
 30
0.0
  0
VERTEX
  5
70B8
  8
0
 10
59.9354950161056692
 20
131.4751034458068091
 30
0.0
  0
VERTEX
  5
70B9
  8
0
 10
61.8499851345905469
 20
132.0976722927603078
 30
0.0
  0
VERTEX
  5
70BA
  8
0
 10
62.804700999321021
 20
132.3959247408745057
 30
0.0
  0
VERTEX
  5
70BB
  8
0
 10
63.7583540146041017
 20
132.6811710762785026
 30
0.0
  0
VERTEX
  5
70BC
  8
0
 10
64.7109897381356518
 20
132.949833855555795
 30
0.0
  0
VERTEX
  5
70BD
  8
0
 10
65.6624511312385835
 20
133.1999999999852946
 30
0.0
  0
SEQEND
  5
70BE
  8
0
  0
POLYLINE
  5
64AA
  8
0
 66
     1
 10
0.0
 20
0.0
 30
0.0
  0
VERTEX
  5
70BF
  8
0
 10
34.3375488687601731
 20
133.1999999999852946
 30
0.0
  0
VERTEX
  5
70C0
  8
0
 10
32.9999999999998295
 20
133.4176494928321119
 30
0.0
  0
SEQEND
  5
70C1
  8
0
  0
POLYLINE
  5
64AB
  8
0
 66
     1
 10
0.0
 20
0.0
 30
0.0
  0
VERTEX
  5
70C2
  8
0
 10
67.1356515015199307
 20
141.2928203230297015
 30
0.0
  0
VERTEX
  5
70C3
  8
0
 10
66.9999999999983515
 20
141.2478510859884011
 30
0.0
  0
SEQEND
  5
70C4
  8
0
  0
POLYLINE
  5
64AC
  8
0
 66
     1
 10
0.0
 20
0.0
 30
0.0
  0
VERTEX
  5
70C5
  8
0
 10
66.9999999999983515
 20
141.2478510859884011
 30
0.0
  0
VERTEX
  5
70C6
  8
0
 10
66.0043871499745478
 20
140.92216851236401
 30
0.0
  0
VERTEX
  5
70C7
  8
0
 10
64.9973599938568327
 20
140.6114641032008024
 30
0.0
  0
VERTEX
  5
70C8
  8
0
 10
63.979384705962218
 20
140.3162870288635133
 30
0.0
  0
VERTEX
  5
70C9
  8
0
 10
62.9508328258853496
 20
140.0374409740639976
 30
0.0
  0
VERTEX
  5
70CA
  8
0
 10
61.9121512297709273
 20
139.7757750341264114
 30
0.0
  0
VERTEX
  5
70CB
  8
0
 10
60.863840613644193
 20
139.5322029439614937
 30
0.0
  0
VERTEX
  5
70CC
  8
0
 10
59.8064537502528424
 20
139.3076902706224018
 30
0.0
  0
VERTEX
  5
70CD
  8
0
 10
58.7405992454959502
 20
139.1032286442587917
 30
0.0
  0
VERTEX
  5
70CE
  8
0
 10
57.6665767247710122
 20
138.9193869847900089
 30
0.0
  0
VERTEX
  5
70CF
  8
0
 10
56.5851348114103416
 20
138.7571932581338103
 30
0.0
  0
VERTEX
  5
70D0
  8
0
 10
55.4972834139718429
 20
138.6179662119326963
 30
0.0
  0
VERTEX
  5
70D1
  8
0
 10
54.4040324410134986
 20
138.5030245938289113
 30
0.0
  0
VERTEX
  5
70D2
  8
0
 10
53.3064094156764483
 20
138.413493268058204
 30
0.0
  0
VERTEX
  5
70D3
  8
0
 10
52.2055250286462567
 20
138.3495816751826908
 30
0.0
  0
VERTEX
  5
70D4
  8
0
 10
51.1025144928376491
 20
138.3112293400226065
 30
0.0
  0
VERTEX
  5
70D5
  8
0
 10
49.9985130246744234
 20
138.2983757487729122
 30
0.0
  0
VERTEX
  5
70D6
  8
0
 10
48.894647332804368
 20
138.3110096663575916
 30
0.0
  0
VERTEX
  5
70D7
  8
0
 10
47.7920089874687122
 20
138.3493233863289902
 30
0.0
  0
VERTEX
  5
70D8
  8
0
 10
46.6916795495515586
 20
138.4135527285928049
 30
0.0
  0
VERTEX
  5
70D9
  8
0
 10
45.5946968858100306
 20
138.5035141970872985
 30
0.0
  0
VERTEX
  5
70DA
  8
0
 10
44.5020375521758567
 20
138.618435918779312
 30
0.0
  0
VERTEX
  5
70DB
  8
0
 10
43.4146724305434688
 20
138.7574697862667108
 30
0.0
  0
VERTEX
  5
70DC
  8
0
 10
42.3335627524986009
 20
138.9194812477649918
 30
0.0
  0
VERTEX
  5
70DD
  8
0
 10
41.259664688648229
 20
139.1031855639170942
 30
0.0
  0
VERTEX
  5
70DE
  8
0
 10
40.1938062241878811
 20
139.3074988710390869
 30
0.0
  0
VERTEX
  5
70DF
  8
0
 10
39.1364046081598076
 20
139.5319444409088021
 30
0.0
  0
VERTEX
  5
70E0
  8
0
 10
38.0880661883305223
 20
139.7755292803387022
 30
0.0
  0
VERTEX
  5
70E1
  8
0
 10
37.0493278208111292
 20
140.0372143492249961
 30
0.0
  0
VERTEX
  5
70E2
  8
0
 10
36.0207980485097892
 20
140.3162083609203137
 30
0.0
  0
VERTEX
  5
70E3
  8
0
 10
35.0025662812071801
 20
140.6111971431253949
 30
0.0
  0
VERTEX
  5
70E4
  8
0
 10
32.9999999999998295
 20
141.2478510859886001
 30
0.0
  0
SEQEND
  5
70E5
  8
0
  0
POLYLINE
  5
64AD
  8
0
 66
     1
 10
0.0
 20
0.0
 30
0.0
  0
VERTEX
  5
70E6
  8
0
 10
32.9999999999998295
 20
141.2478510859886001
 30
0.0
  0
VERTEX
  5
70E7
  8
0
 10
32.8643484984878
 20
141.2928203230268025
 30
0.0
  0
SEQEND
  5
70E8
  8
0
  0
ARC
  5
6675
  8
0
 10
75.7399039669299441
 20
123.2847351203108985
 30
0.0
 40
10.9899575635959597
 50
115.5497156847703053
 51
177.312698471590096
  0
LINE
  5
6677
  8
0
 10
71.0000000000499654
 20
133.1999999999999034
 30
0.0
 11
72.5142170220499906
 21
133.6542868777000024
 31
0.0
  0
LINE
  5
6698
  8
1
 10
50.0
 20
144.4000000000000057
 30
0.0
 11
50.0
 21
50.0
 31
0.0
  0
ARC
  5
66BA
  8
0
 10
64.8159303175951891
 20
233.2583495143576897
 30
0.0
 40
6.310403696050888
 50
58.4454263742335911
 51
60.5450030228196496
  0
ARC
  5
66BB
  8
0
 10
66.2060712977733488
 20
215.6817057059068929
 30
0.0
 40
3.5726169985720611
 50
298.6502976074007165
 51
302.3592729782769766
  0
ARC
  5
66BD
  8
0
 10
34.9173662731190007
 20
233.7060083909427135
 30
0.0
 40
5.7909238096313231
 50
119.3608128042948948
 51
121.6487578152472935
  0
ARC
  5
66BF
  8
0
 10
35.6136227465880779
 20
218.7753704650174029
 30
0.0
 40
7.1623385319995814
 50
238.5703065456933132
 51
240.4201228183077035
  0
ARC
  5
66C4
  8
0
 10
49.9985190916490865
 20
225.6497978174375021
 30
0.0
 40
22.9500000000000384
 50
332.502368830002581
 51
27.49763117009865
  0
ARC
  5
66C5
  8
0
 10
49.9985190916490865
 20
225.6497978174375021
 30
0.0
 40
22.9499999999999886
 50
152.5023688300024958
 51
207.4976311700986003
  0
LINE
  5
66C8
  8
0
 10
48.298519091649041
 20
226.6497978174375021
 30
0.0
 11
53.798519091649041
 21
226.6497978174375021
 31
0.0
  0
ARC
  5
66C9
  8
0
 10
51.0985190916489884
 20
226.5997978174374907
 30
0.0
 40
2.6457513110645912
 50
1.082852917497567
 51
178.9171470824992127
  0
LINE
  5
66CB
  8
0
 10
48.2985190916490978
 20
226.6497978174375021
 30
0.0
 11
48.2985190916489771
 21
224.6497978174375021
 31
0.0
  0
LINE
  5
66CC
  8
0
 10
48.298519091649041
 20
224.6497978174375021
 30
0.0
 11
53.798519091649041
 21
224.6497978174375021
 31
0.0
  0
LINE
  5
66CD
  8
0
 10
53.7985190916490907
 20
226.6497978174375021
 30
0.0
 11
53.7985190916489273
 21
224.6497978174375021
 31
0.0
  0
POLYLINE
  5
66E8
  8
0
 66
     1
 10
0.0
 20
0.0
 30
0.0
  0
VERTEX
  5
70E9
  8
0
 10
29.6411823610768614
 20
236.2460868488907124
 30
0.0
  0
VERTEX
  5
70EA
  8
0
 10
29.7107334408697206
 20
236.3742663082879858
 30
0.0
  0
VERTEX
  5
70EB
  8
0
 10
29.7703384456140192
 20
236.4787078646805014
 30
0.0
  0
VERTEX
  5
70EC
  8
0
 10
29.8214982186923407
 20
236.5647608728721991
 30
0.0
  0
VERTEX
  5
70ED
  8
0
 10
29.8667031785322514
 20
236.6382595973597063
 30
0.0
  0
VERTEX
  5
70EE
  8
0
 10
29.9076300187147091
 20
236.7028857326839955
 30
0.0
  0
VERTEX
  5
70EF
  8
0
 10
29.9453487507332703
 20
236.7609257472321076
 30
0.0
  0
VERTEX
  5
70F0
  8
0
 10
29.9805666766240009
 20
236.8138677826885043
 30
0.0
  0
VERTEX
  5
70F1
  8
0
 10
30.0137730849555808
 20
236.8627308658141999
 30
0.0
  0
VERTEX
  5
70F2
  8
0
 10
30.0453198339818108
 20
236.9082424377583038
 30
0.0
  0
VERTEX
  5
70F3
  8
0
 10
30.0754688783805513
 20
236.9509410673605885
 30
0.0
  0
VERTEX
  5
70F4
  8
0
 10
30.1044209269787189
 20
236.991237594484403
 30
0.0
  0
VERTEX
  5
70F5
  8
0
 10
30.1323334556774398
 20
237.0294532091353119
 30
0.0
  0
VERTEX
  5
70F6
  8
0
 10
30.1593325445097697
 20
237.0658442971306101
 30
0.0
  0
VERTEX
  5
70F7
  8
0
 10
30.1855208645840811
 20
237.1006191108521932
 30
0.0
  0
VERTEX
  5
70F8
  8
0
 10
30.210983264482941
 20
237.133949375209113
 30
0.0
  0
VERTEX
  5
70F9
  8
0
 10
30.2357908043745702
 20
237.1659786343386997
 30
0.0
  0
VERTEX
  5
70FA
  8
0
 10
30.2600037102269006
 20
237.1968283425891002
 30
0.0
  0
VERTEX
  5
70FB
  8
0
 10
30.2836735718991612
 20
237.2266023826084052
 30
0.0
  0
VERTEX
  5
70FC
  8
0
 10
30.3068448384775593
 20
237.2553901355755954
 30
0.0
  0
VERTEX
  5
70FD
  8
0
 10
30.3295561123585493
 20
237.2832691322657013
 30
0.0
  0
VERTEX
  5
70FE
  8
0
 10
30.3518413766336188
 20
237.3103075509486928
 30
0.0
  0
VERTEX
  5
70FF
  8
0
 10
30.3737306339203315
 20
237.336565522530293
 30
0.0
  0
VERTEX
  5
7100
  8
0
 10
30.3952501252645106
 20
237.3620955996755129
 30
0.0
  0
VERTEX
  5
7101
  8
0
 10
30.4164238504396316
 20
237.3869457854158895
 30
0.0
  0
VERTEX
  5
7102
  8
0
 10
30.4372735793443816
 20
237.4111595757954092
 30
0.0
  0
VERTEX
  5
7103
  8
0
 10
30.4578160083472085
 20
237.4347704332598141
 30
0.0
  0
VERTEX
  5
7104
  8
0
 10
30.4780696852227493
 20
237.4578153324287086
 30
0.0
  0
VERTEX
  5
7105
  8
0
 10
30.4980599721498002
 20
237.4803444343243086
 30
0.0
  0
VERTEX
  5
7106
  8
0
 10
30.5177839799532684
 20
237.5023527296987993
 30
0.0
  0
VERTEX
  5
7107
  8
0
 10
30.5372283326097396
 20
237.5238146921383873
 30
0.0
  0
VERTEX
  5
7108
  8
0
 10
30.5565041588265593
 20
237.5449475349603006
 30
0.0
  0
SEQEND
  5
7109
  8
0
  0
POLYLINE
  5
66E9
  8
0
 66
     1
 10
0.0
 20
0.0
 30
0.0
  0
VERTEX
  5
710A
  8
0
 10
30.5565041588265593
 20
213.7546480998929894
 30
0.0
  0
VERTEX
  5
710B
  8
0
 10
30.5211444623366788
 20
213.7935979156868029
 30
0.0
  0
VERTEX
  5
710C
  8
0
 10
30.4851826973402886
 20
213.8337248294724873
 30
0.0
  0
VERTEX
  5
710D
  8
0
 10
30.4482164256569412
 20
213.875817058416601
 30
0.0
  0
VERTEX
  5
710E
  8
0
 10
30.4102464547593208
 20
213.9198773692139071
 30
0.0
  0
VERTEX
  5
710F
  8
0
 10
30.3712030299038815
 20
213.9660472884368119
 30
0.0
  0
VERTEX
  5
7110
  8
0
 10
30.3309145835372718
 20
214.0146683127397012
 30
0.0
  0
VERTEX
  5
7111
  8
0
 10
30.2892109177952307
 20
214.0660815867306042
 30
0.0
  0
VERTEX
  5
7112
  8
0
 10
30.2458794692005313
 20
214.1207140260679012
 30
0.0
  0
VERTEX
  5
7113
  8
0
 10
30.2006399007558493
 20
214.1791293918678036
 30
0.0
  0
VERTEX
  5
7114
  8
0
 10
30.153124172066331
 20
214.2420700158413069
 30
0.0
  0
VERTEX
  5
7115
  8
0
 10
30.1028270540086815
 20
214.3105582898012926
 30
0.0
  0
VERTEX
  5
7116
  8
0
 10
30.0490266100923691
 20
214.3860614593052105
 30
0.0
  0
VERTEX
  5
7117
  8
0
 10
29.9906303517201387
 20
214.4708125732902033
 30
0.0
  0
VERTEX
  5
7118
  8
0
 10
29.9258528615847617
 20
214.5684923545838956
 30
0.0
  0
VERTEX
  5
7119
  8
0
 10
29.8514532032535307
 20
214.6858759709579942
 30
0.0
  0
VERTEX
  5
711A
  8
0
 10
29.7606643212724293
 20
214.8375354035354974
 30
0.0
  0
VERTEX
  5
711B
  8
0
 10
29.6411823610957299
 20
215.0535087859481109
 30
0.0
  0
SEQEND
  5
711C
  8
0
  0
POLYLINE
  5
66EA
  8
0
 66
     1
 10
0.0
 20
0.0
 30
0.0
  0
VERTEX
  5
711D
  8
0
 10
70.3558558222213151
 20
215.0535087859842918
 30
0.0
  0
VERTEX
  5
711E
  8
0
 10
70.2863047425287277
 20
214.9253293265680043
 30
0.0
  0
VERTEX
  5
711F
  8
0
 10
70.2266997377839033
 20
214.8208877701748065
 30
0.0
  0
VERTEX
  5
7120
  8
0
 10
70.1755399647055356
 20
214.7348347619827109
 30
0.0
  0
VERTEX
  5
7121
  8
0
 10
70.1303350048654579
 20
214.6613360374950901
 30
0.0
  0
VERTEX
  5
7122
  8
0
 10
70.0894081646828226
 20
214.596709902170403
 30
0.0
  0
VERTEX
  5
7123
  8
0
 10
70.0516894326644319
 20
214.5386698876222056
 30
0.0
  0
VERTEX
  5
7124
  8
0
 10
70.0164715067734136
 20
214.4857278521654962
 30
0.0
  0
VERTEX
  5
7125
  8
0
 10
69.9832650984417342
 20
214.4368647690398006
 30
0.0
  0
VERTEX
  5
7126
  8
0
 10
69.9517183494155006
 20
214.3913531970956967
 30
0.0
  0
VERTEX
  5
7127
  8
0
 10
69.921569305016817
 20
214.3486545674932984
 30
0.0
  0
VERTEX
  5
7128
  8
0
 10
69.8926172564186459
 20
214.3083580403693986
 30
0.0
  0
VERTEX
  5
7129
  8
0
 10
69.8647047277197544
 20
214.2701424257184044
 30
0.0
  0
VERTEX
  5
712A
  8
0
 10
69.837705638887428
 20
214.2337513377231062
 30
0.0
  0
VERTEX
  5
712B
  8
0
 10
69.8115173188129461
 20
214.1989765240016084
 30
0.0
  0
VERTEX
  5
712C
  8
0
 10
69.7860549189142603
 20
214.1656462596446033
 30
0.0
  0
VERTEX
  5
712D
  8
0
 10
69.7612473790225067
 20
214.1336170005147892
 30
0.0
  0
VERTEX
  5
712E
  8
0
 10
69.7370344731702971
 20
214.1027672922643035
 30
0.0
  0
VERTEX
  5
712F
  8
0
 10
69.7133646114979797
 20
214.0729932522449133
 30
0.0
  0
VERTEX
  5
7130
  8
0
 10
69.6901933449194644
 20
214.0442054992778083
 30
0.0
  0
VERTEX
  5
7131
  8
0
 10
69.6674820710383642
 20
214.0163265025877024
 30
0.0
  0
VERTEX
  5
7132
  8
0
 10
69.645196806763181
 20
213.9892880839047962
 30
0.0
  0
VERTEX
  5
7133
  8
0
 10
69.6233075494765643
 20
213.9630301123231106
 30
0.0
  0
VERTEX
  5
7134
  8
0
 10
69.6017880581323425
 20
213.9375000351778056
 30
0.0
  0
VERTEX
  5
7135
  8
0
 10
69.5806143329572251
 20
213.9126498494372868
 30
0.0
  0
VERTEX
  5
7136
  8
0
 10
69.5597646040525319
 20
213.8884360590577955
 30
0.0
  0
VERTEX
  5
7137
  8
0
 10
69.5392221750496446
 20
213.8648252015933906
 30
0.0
  0
VERTEX
  5
7138
  8
0
 10
69.5189684981741607
 20
213.8417803024244961
 30
0.0
  0
VERTEX
  5
7139
  8
0
 10
69.498978211247163
 20
213.8192512005288961
 30
0.0
  0
VERTEX
  5
713A
  8
0
 10
69.4792542034437446
 20
213.7972429051544054
 30
0.0
  0
VERTEX
  5
713B
  8
0
 10
69.45980985078711
 20
213.7757809427147038
 30
0.0
  0
VERTEX
  5
713C
  8
0
 10
69.4405340245702831
 20
213.7546480998929894
 30
0.0
  0
SEQEND
  5
713D
  8
0
  0
POLYLINE
  5
66EB
  8
0
 66
     1
 10
0.0
 20
0.0
 30
0.0
  0
VERTEX
  5
713E
  8
0
 10
69.4405340245702831
 20
237.5449475349601869
 30
0.0
  0
VERTEX
  5
713F
  8
0
 10
69.4758937210602312
 20
237.5059977191662028
 30
0.0
  0
VERTEX
  5
7140
  8
0
 10
69.5118554860565041
 20
237.4658708053804901
 30
0.0
  0
VERTEX
  5
7141
  8
0
 10
69.5488217577399155
 20
237.4237785764364048
 30
0.0
  0
VERTEX
  5
7142
  8
0
 10
69.5867917286375928
 20
237.3797182656390987
 30
0.0
  0
VERTEX
  5
7143
  8
0
 10
69.6258351534930284
 20
237.3335483464161939
 30
0.0
  0
VERTEX
  5
7144
  8
0
 10
69.666123599859759
 20
237.2849273221133046
 30
0.0
  0
VERTEX
  5
7145
  8
0
 10
69.7078272656017361
 20
237.2335140481224016
 30
0.0
  0
VERTEX
  5
7146
  8
0
 10
69.7511587141966061
 20
237.1788816087849909
 30
0.0
  0
VERTEX
  5
7147
  8
0
 10
69.7963982826413485
 20
237.1204662429850885
 30
0.0
  0
VERTEX
  5
7148
  8
0
 10
69.8439140113306962
 20
237.0575256190113862
 30
0.0
  0
VERTEX
  5
7149
  8
0
 10
69.8942111293885091
 20
236.9890373450512868
 30
0.0
  0
VERTEX
  5
714A
  8
0
 10
69.9480115733047683
 20
236.9135341755473121
 30
0.0
  0
VERTEX
  5
714B
  8
0
 10
70.0064078316769951
 20
236.8287830615622056
 30
0.0
  0
VERTEX
  5
714C
  8
0
 10
70.0711853218124929
 20
236.7311032802685133
 30
0.0
  0
VERTEX
  5
714D
  8
0
 10
70.1455849801438944
 20
236.6137196638943863
 30
0.0
  0
VERTEX
  5
714E
  8
0
 10
70.2363738621249354
 20
236.4620602313165136
 30
0.0
  0
VERTEX
  5
714F
  8
0
 10
70.3558558222024857
 20
236.2460868489268933
 30
0.0
  0
SEQEND
  5
7150
  8
0
  0
POLYLINE
  5
66EC
  8
0
 66
     1
 10
0.0
 20
0.0
 30
0.0
  0
VERTEX
  5
7151
  8
0
 10
66.9985190916899001
 20
212.1222050505533048
 30
0.0
  0
VERTEX
  5
7152
  8
0
 10
67.1341705932101149
 20
212.1735428621448989
 30
0.0
  0
SEQEND
  5
7153
  8
0
  0
POLYLINE
  5
66ED
  8
0
 66
     1
 10
0.0
 20
0.0
 30
0.0
  0
VERTEX
  5
7154
  8
0
 10
32.9985190916990021
 20
239.1773905842973136
 30
0.0
  0
VERTEX
  5
7155
  8
0
 10
32.8628675901868519
 20
239.1260527727083058
 30
0.0
  0
SEQEND
  5
7156
  8
0
  0
POLYLINE
  5
66EE
  8
0
 66
     1
 10
0.0
 20
0.0
 30
0.0
  0
VERTEX
  5
7157
  8
0
 10
32.8628675901777569
 20
212.1735428621483948
 30
0.0
  0
VERTEX
  5
7158
  8
0
 10
32.9985190916962665
 20
212.122205050556687
 30
0.0
  0
SEQEND
  5
7159
  8
0
  0
POLYLINE
  5
66EF
  8
0
 66
     1
 10
0.0
 20
0.0
 30
0.0
  0
VERTEX
  5
715A
  8
0
 10
67.1341705932189825
 20
239.1260527727046963
 30
0.0
  0
VERTEX
  5
715B
  8
0
 10
66.9985190916974034
 20
239.1773905842975978
 30
0.0
  0
SEQEND
  5
715C
  8
0
  0
POLYLINE
  5
66F1
  8
0
 66
     1
 10
0.0
 20
0.0
 30
0.0
  0
VERTEX
  5
715D
  8
0
 10
66.9985190916974034
 20
239.1773905842975978
 30
0.0
  0
VERTEX
  5
715E
  8
0
 10
66.0029062416735997
 20
239.5249328435677114
 30
0.0
  0
VERTEX
  5
715F
  8
0
 10
64.9958790855558846
 20
239.8527519896088904
 30
0.0
  0
VERTEX
  5
7160
  8
0
 10
63.9779037976612699
 20
240.1604767479288114
 30
0.0
  0
VERTEX
  5
7161
  8
0
 10
62.9493519175844014
 20
240.4475648552520965
 30
0.0
  0
VERTEX
  5
7162
  8
0
 10
61.9106703214699792
 20
240.7135763061963871
 30
0.0
  0
VERTEX
  5
7163
  8
0
 10
60.8623597053432377
 20
240.9581271342592004
 30
0.0
  0
VERTEX
  5
7164
  8
0
 10
59.8049728419518871
 20
241.180865362343809
 30
0.0
  0
VERTEX
  5
7165
  8
0
 10
58.7391183371950092
 20
241.381444107784489
 30
0.0
  0
VERTEX
  5
7166
  8
0
 10
57.6650958164700569
 20
241.5587774057482875
 30
0.0
  0
VERTEX
  5
7167
  8
0
 10
56.5836539031093935
 20
241.7126730109195023
 30
0.0
  0
VERTEX
  5
7168
  8
0
 10
55.4958025056708877
 20
241.8434720750202018
 30
0.0
  0
VERTEX
  5
7169
  8
0
 10
54.4025515327125504
 20
241.9515157497721987
 30
0.0
  0
VERTEX
  5
716A
  8
0
 10
53.3049285073755073
 20
242.0369643727622986
 30
0.0
  0
VERTEX
  5
716B
  8
0
 10
52.2040441203453227
 20
242.0991245646793004
 30
0.0
  0
VERTEX
  5
716C
  8
0
 10
51.101033584536701
 20
242.1370512249206115
 30
0.0
  0
VERTEX
  5
716D
  8
0
 10
49.9970321163734681
 20
242.1497992168615099
 30
0.0
  0
VERTEX
  5
716E
  8
0
 10
48.8931664245034199
 20
242.1367657730370979
 30
0.0
  0
VERTEX
  5
716F
  8
0
 10
47.7905280791677569
 20
242.0987621625507131
 30
0.0
  0
VERTEX
  5
7170
  8
0
 10
46.6901986412506105
 20
242.0369548718944088
 30
0.0
  0
VERTEX
  5
7171
  8
0
 10
45.5932159775090824
 20
241.9520547402100021
 30
0.0
  0
VERTEX
  5
7172
  8
0
 10
44.5005566438749085
 20
241.8441332495870029
 30
0.0
  0
VERTEX
  5
7173
  8
0
 10
43.4131915222425278
 20
241.7131946111751972
 30
0.0
  0
VERTEX
  5
7174
  8
0
 10
42.3320818441976527
 20
241.5590703115250051
 30
0.0
  0
VERTEX
  5
7175
  8
0
 10
41.2581837803472808
 20
241.3815012771244142
 30
0.0
  0
VERTEX
  5
7176
  8
0
 10
40.1923253158869329
 20
241.1806204013062995
 30
0.0
  0
VERTEX
  5
7177
  8
0
 10
39.1349236998588594
 20
240.9577374362528985
 30
0.0
  0
VERTEX
  5
7178
  8
0
 10
38.086585280029567
 20
240.7131767400591116
 30
0.0
  0
VERTEX
  5
7179
  8
0
 10
37.047846912510181
 20
240.4472585171295975
 30
0.0
  0
VERTEX
  5
717A
  8
0
 10
36.019317140208841
 20
240.1601667225494054
 30
0.0
  0
VERTEX
  5
717B
  8
0
 10
35.0010853729062319
 20
239.8528930725036901
 30
0.0
  0
VERTEX
  5
717C
  8
0
 10
33.994516907858717
 20
239.5243342053672109
 30
0.0
  0
VERTEX
  5
717D
  8
0
 10
32.9985190916990021
 20
239.1773905842973136
 30
0.0
  0
SEQEND
  5
717E
  8
0
  0
POLYLINE
  5
66F2
  8
0
 66
     1
 10
0.0
 20
0.0
 30
0.0
  0
VERTEX
  5
717F
  8
0
 10
32.9985190916962665
 20
212.122205050556687
 30
0.0
  0
VERTEX
  5
7180
  8
0
 10
33.9941323498580914
 20
211.7746630582138039
 30
0.0
  0
VERTEX
  5
7181
  8
0
 10
35.0011595224174172
 20
211.4468435571511122
 30
0.0
  0
VERTEX
  5
7182
  8
0
 10
36.0191350309062273
 20
211.1391187881802978
 30
0.0
  0
VERTEX
  5
7183
  8
0
 10
37.0476871432013013
 20
210.8520306943341041
 30
0.0
  0
VERTEX
  5
7184
  8
0
 10
38.0863689691618674
 20
210.5860192496980119
 30
0.0
  0
VERTEX
  5
7185
  8
0
 10
39.1346798170540069
 20
210.3414684187144132
 30
0.0
  0
VERTEX
  5
7186
  8
0
 10
40.1920669527186121
 20
210.118730245670605
 30
0.0
  0
VERTEX
  5
7187
  8
0
 10
41.2579222648487303
 20
209.9181525924639971
 30
0.0
  0
VERTEX
  5
7188
  8
0
 10
42.3319474527003194
 20
209.7408242656458981
 30
0.0
  0
VERTEX
  5
7189
  8
0
 10
43.4133902256169222
 20
209.5869292145659983
 30
0.0
  0
VERTEX
  5
718A
  8
0
 10
44.5012411438768822
 20
209.4561260081349019
 30
0.0
  0
VERTEX
  5
718B
  8
0
 10
45.5944907677582023
 20
209.3480732152630992
 30
0.0
  0
VERTEX
  5
718C
  8
0
 10
46.6921115891854015
 20
209.2626154955326001
 30
0.0
  0
VERTEX
  5
718D
  8
0
 10
47.7929930281582074
 20
209.20045308785771
 30
0.0
  0
VERTEX
  5
718E
  8
0
 10
48.8960006455104121
 20
209.1625319629046089
 30
0.0
  0
VERTEX
  5
718F
  8
0
 10
50.0
 20
209.1497981127170931
 30
0.0
  0
VERTEX
  5
7190
  8
0
 10
51.1038651700962419
 20
209.162843083375094
 30
0.0
  0
VERTEX
  5
7191
  8
0
 10
52.206504176263131
 20
209.2008463304809993
 30
0.0
  0
VERTEX
  5
7192
  8
0
 10
53.3068345121716902
 20
209.2626462296196053
 30
0.0
  0
VERTEX
  5
7193
  8
0
 10
54.4038183604035268
 20
209.3475414785278872
 30
0.0
  0
VERTEX
  5
7194
  8
0
 10
55.4964790050993315
 20
209.4554601570513057
 30
0.0
  0
VERTEX
  5
7195
  8
0
 10
56.5838452370144225
 20
209.5863960876953058
 30
0.0
  0
VERTEX
  5
7196
  8
0
 10
57.664955393273317
 20
209.7405196263439962
 30
0.0
  0
VERTEX
  5
7197
  8
0
 10
58.738852712245027
 20
209.918091713972899
 30
0.0
  0
VERTEX
  5
7198
  8
0
 10
59.8047108574825188
 20
210.1189741037553063
 30
0.0
  0
VERTEX
  5
7199
  8
0
 10
60.8621130588261323
 20
210.3418556440117868
 30
0.0
  0
VERTEX
  5
719A
  8
0
 10
61.9104517738406912
 20
210.5864164786376023
 30
0.0
  0
VERTEX
  5
719B
  8
0
 10
62.9491904059598184
 20
210.8523350608714964
 30
0.0
  0
VERTEX
  5
719C
  8
0
 10
63.9777201951019379
 20
211.1394277917561055
 30
0.0
  0
VERTEX
  5
719D
  8
0
 10
64.9959531231328356
 20
211.4467005191741009
 30
0.0
  0
VERTEX
  5
719E
  8
0
 10
66.0025194072454724
 20
211.7752638050235987
 30
0.0
  0
VERTEX
  5
719F
  8
0
 10
66.9985190916899001
 20
212.1222050505533048
 30
0.0
  0
SEQEND
  5
71A0
  8
0
  0
POLYLINE
  5
66F3
  8
0
 66
     1
 10
0.0
 20
0.0
 30
0.0
  0
VERTEX
  5
71A1
  8
0
 10
32.0780312990334622
 20
238.7530843239844103
 30
0.0
  0
VERTEX
  5
71A2
  8
0
 10
32.2323463212815113
 20
238.8372407137815969
 30
0.0
  0
VERTEX
  5
71A3
  8
0
 10
32.3886411617073691
 20
238.9169710682652976
 30
0.0
  0
VERTEX
  5
71A4
  8
0
 10
32.5464567856593092
 20
238.9918057054682095
 30
0.0
  0
VERTEX
  5
71A5
  8
0
 10
32.7049425111654273
 20
239.0616758928238141
 30
0.0
  0
VERTEX
  5
71A6
  8
0
 10
32.8628675901868519
 20
239.1260527727083058
 30
0.0
  0
SEQEND
  5
71A7
  8
0
  0
POLYLINE
  5
66F4
  8
0
 66
     1
 10
0.0
 20
0.0
 30
0.0
  0
VERTEX
  5
71A8
  8
0
 10
32.8628675901777569
 20
212.1735428621483948
 30
0.0
  0
VERTEX
  5
71A9
  8
0
 10
32.7313409374038429
 20
212.2268095049552983
 30
0.0
  0
VERTEX
  5
71AA
  8
0
 10
32.5992579519700101
 20
212.2839291697760018
 30
0.0
  0
VERTEX
  5
71AB
  8
0
 10
32.4674214120618672
 20
212.3445952011201996
 30
0.0
  0
VERTEX
  5
71AC
  8
0
 10
32.3363380346419333
 20
212.4086656956324077
 30
0.0
  0
VERTEX
  5
71AD
  8
0
 10
32.2064721542117169
 20
212.4760645801007115
 30
0.0
  0
VERTEX
  5
71AE
  8
0
 10
32.0780312989843992
 20
212.5465113108386106
 30
0.0
  0
SEQEND
  5
71AF
  8
0
  0
POLYLINE
  5
66F5
  8
0
 66
     1
 10
0.0
 20
0.0
 30
0.0
  0
VERTEX
  5
71B0
  8
0
 10
67.9190068843633838
 20
212.5465113108685955
 30
0.0
  0
VERTEX
  5
71B1
  8
0
 10
67.7646918621153418
 20
212.4623549210714089
 30
0.0
  0
VERTEX
  5
71B2
  8
0
 10
67.608397021689143
 20
212.3826245665879071
 30
0.0
  0
VERTEX
  5
71B3
  8
0
 10
67.4505813977374231
 20
212.3077899293849953
 30
0.0
  0
VERTEX
  5
71B4
  8
0
 10
67.2920956722313122
 20
212.2379197420293053
 30
0.0
  0
VERTEX
  5
71B5
  8
0
 10
67.1341705932101149
 20
212.1735428621448989
 30
0.0
  0
SEQEND
  5
71B6
  8
0
  0
POLYLINE
  5
66F6
  8
0
 66
     1
 10
0.0
 20
0.0
 30
0.0
  0
VERTEX
  5
71B7
  8
0
 10
67.1341705932189825
 20
239.1260527727046963
 30
0.0
  0
VERTEX
  5
71B8
  8
0
 10
67.2656972459928966
 20
239.0727861298977928
 30
0.0
  0
VERTEX
  5
71B9
  8
0
 10
67.3977802314269638
 20
239.0156664650770892
 30
0.0
  0
VERTEX
  5
71BA
  8
0
 10
67.529616771334986
 20
238.9550004337330904
 30
0.0
  0
VERTEX
  5
71BB
  8
0
 10
67.6607001487549269
 20
238.890929939220797
 30
0.0
  0
VERTEX
  5
71BC
  8
0
 10
67.7905660291851291
 20
238.823531054752408
 30
0.0
  0
VERTEX
  5
71BD
  8
0
 10
67.9190068844137613
 20
238.7530843239362923
 30
0.0
  0
SEQEND
  5
71BE
  8
0
  0
POLYLINE
  5
66F7
  8
0
 66
     1
 10
0.0
 20
0.0
 30
0.0
  0
VERTEX
  5
71BF
  8
0
 10
31.8788076152898192
 20
212.6638854423744078
 30
0.0
  0
VERTEX
  5
71C0
  8
0
 10
31.7592455629608104
 20
212.7393589593689001
 30
0.0
  0
VERTEX
  5
71C1
  8
0
 10
31.6414842567207906
 20
212.8172317113447889
 30
0.0
  0
VERTEX
  5
71C2
  8
0
 10
31.52594694089521
 20
212.8977234773383032
 30
0.0
  0
VERTEX
  5
71C3
  8
0
 10
31.4126331966621208
 20
212.9804293005495879
 30
0.0
  0
VERTEX
  5
71C4
  8
0
 10
31.3017316516836708
 20
213.0653085777483966
 30
0.0
  0
VERTEX
  5
71C5
  8
0
 10
31.1933272533440196
 20
213.1522053581099954
 30
0.0
  0
VERTEX
  5
71C6
  8
0
 10
31.0875077153223209
 20
213.2409829080202996
 30
0.0
  0
VERTEX
  5
71C7
  8
0
 10
30.9844823060417411
 20
213.3313866022133993
 30
0.0
  0
VERTEX
  5
71C8
  8
0
 10
30.8845997441255804
 20
213.42299920062041
 30
0.0
  0
VERTEX
  5
71C9
  8
0
 10
30.7884349074179191
 20
213.5151128451174998
 30
0.0
  0
VERTEX
  5
71CA
  8
0
 10
30.6968218662511916
 20
213.6066672691655981
 30
0.0
  0
VERTEX
  5
71CB
  8
0
 10
30.6115966576476204
 20
213.6953789807332953
 30
0.0
  0
VERTEX
  5
71CC
  8
0
 10
30.5565041588265593
 20
213.7546480998929894
 30
0.0
  0
SEQEND
  5
71CD
  8
0
  0
POLYLINE
  5
66F8
  8
0
 66
     1
 10
0.0
 20
0.0
 30
0.0
  0
VERTEX
  5
71CE
  8
0
 10
30.5565041588265593
 20
237.5449475349603006
 30
0.0
  0
VERTEX
  5
71CF
  8
0
 10
30.6111191950436705
 20
237.6037079692223131
 30
0.0
  0
VERTEX
  5
71D0
  8
0
 10
30.6964411134699802
 20
237.6925396263434891
 30
0.0
  0
VERTEX
  5
71D1
  8
0
 10
30.7880607252653817
 20
237.7841171734812065
 30
0.0
  0
VERTEX
  5
71D2
  8
0
 10
30.8842079553634186
 20
237.8762263270083963
 30
0.0
  0
VERTEX
  5
71D3
  8
0
 10
30.9841025912664882
 20
237.9678708285017024
 30
0.0
  0
VERTEX
  5
71D4
  8
0
 10
31.0871487519613083
 20
238.0583165939625019
 30
0.0
  0
VERTEX
  5
71D5
  8
0
 10
31.1930221935646195
 20
238.1471144341900015
 30
0.0
  0
VERTEX
  5
71D6
  8
0
 10
31.3014948342348589
 20
238.2340323922884977
 30
0.0
  0
VERTEX
  5
71D7
  8
0
 10
31.4124034991062899
 20
238.3190330301345909
 30
0.0
  0
VERTEX
  5
71D8
  8
0
 10
31.5256734627554387
 20
238.401933067923693
 30
0.0
  0
VERTEX
  5
71D9
  8
0
 10
31.6414137239403317
 20
238.4822133321013951
 30
0.0
  0
VERTEX
  5
71DA
  8
0
 10
31.7594807972731097
 20
238.5597259980750096
 30
0.0
  0
VERTEX
  5
71DB
  8
0
 10
31.8788076152191593
 20
238.6357101924168944
 30
0.0
  0
SEQEND
  5
71DC
  8
0
  0
POLYLINE
  5
66F9
  8
0
 66
     1
 10
0.0
 20
0.0
 30
0.0
  0
VERTEX
  5
71DD
  8
0
 10
68.1182305681066964
 20
238.6357101924789106
 30
0.0
  0
VERTEX
  5
71DE
  8
0
 10
68.2377926204356839
 20
238.5602366754845889
 30
0.0
  0
VERTEX
  5
71DF
  8
0
 10
68.355553926675384
 20
238.4823639235087001
 30
0.0
  0
VERTEX
  5
71E0
  8
0
 10
68.47109124250062
 20
238.4018721575154132
 30
0.0
  0
VERTEX
  5
71E1
  8
0
 10
68.5844049867334888
 20
238.319166334304299
 30
0.0
  0
VERTEX
  5
71E2
  8
0
 10
68.695306531712049
 20
238.2342870571054902
 30
0.0
  0
VERTEX
  5
71E3
  8
0
 10
68.80371093005283
 20
238.1473902767428967
 30
0.0
  0
VERTEX
  5
71E4
  8
0
 10
68.9095304680756726
 20
238.0586127268317966
 30
0.0
  0
VERTEX
  5
71E5
  8
0
 10
69.0125558773563625
 20
237.968209032638498
 30
0.0
  0
VERTEX
  5
71E6
  8
0
 10
69.1124384392717275
 20
237.8765964342323116
 30
0.0
  0
VERTEX
  5
71E7
  8
0
 10
69.2086032759799537
 20
237.7844827897345112
 30
0.0
  0
VERTEX
  5
71E8
  8
0
 10
69.3002163171461234
 20
237.692928365687095
 30
0.0
  0
VERTEX
  5
71E9
  8
0
 10
69.3854415257494566
 20
237.6042166541193978
 30
0.0
  0
VERTEX
  5
71EA
  8
0
 10
69.4405340245702831
 20
237.5449475349601869
 30
0.0
  0
SEQEND
  5
71EB
  8
0
  0
POLYLINE
  5
66FA
  8
0
 66
     1
 10
0.0
 20
0.0
 30
0.0
  0
VERTEX
  5
71EC
  8
0
 10
69.4405340245702831
 20
213.7546480998929894
 30
0.0
  0
VERTEX
  5
71ED
  8
0
 10
69.3859189883531826
 20
213.6958876656310053
 30
0.0
  0
VERTEX
  5
71EE
  8
0
 10
69.3005970699267664
 20
213.6070560085094883
 30
0.0
  0
VERTEX
  5
71EF
  8
0
 10
69.2089774581311303
 20
213.515478461371714
 30
0.0
  0
VERTEX
  5
71F0
  8
0
 10
69.1128302280335447
 20
213.4233693078448084
 30
0.0
  0
VERTEX
  5
71F1
  8
0
 10
69.012935592130475
 20
213.3317248063513887
 30
0.0
  0
VERTEX
  5
71F2
  8
0
 10
68.9098894314355448
 20
213.2412790408905039
 30
0.0
  0
VERTEX
  5
71F3
  8
0
 10
68.8040159898321235
 20
213.1524812006630896
 30
0.0
  0
VERTEX
  5
71F4
  8
0
 10
68.6955433491619942
 20
213.065563242564707
 30
0.0
  0
VERTEX
  5
71F5
  8
0
 10
68.5846346842905632
 20
212.980562604718699
 30
0.0
  0
VERTEX
  5
71F6
  8
0
 10
68.471364720641418
 20
212.8976625669295117
 30
0.0
  0
VERTEX
  5
71F7
  8
0
 10
68.3556244594565214
 20
212.8173823027518097
 30
0.0
  0
VERTEX
  5
71F8
  8
0
 10
68.2375573861237399
 20
212.7398696367781952
 30
0.0
  0
VERTEX
  5
71F9
  8
0
 10
68.1182305681791149
 20
212.6638854423580085
 30
0.0
  0
SEQEND
  5
71FA
  8
0
  0
CIRCLE
  5
6808
  8
0
 10
69.4985190916490296
 20
225.6497978174375021
 30
0.0
 40
1.549958205888841
  0
LINE
  5
6809
  8
1
 10
24.0485190916491014
 20
225.6497978174375021
 30
0.0
 11
75.948519091649132
 21
225.6497978174375021
 31
0.0
  0
LINE
  5
680A
  8
1
 10
49.9985190916490865
 20
206.1496156407675073
 30
0.0
 11
49.9985190916490225
 21
245.1499820425173937
 31
0.0
  0
LINE
  5
6811
  8
1
 10
69.4985190916490296
 20
222.0998396115485889
 30
0.0
 11
69.4985190916490296
 21
229.1997560233263016
 31
0.0
  0
CIRCLE
  5
683A
  8
0
 10
49.9985190916491433
 20
225.6497978174375021
 30
0.0
 40
7.3999999999996362
  0
CIRCLE
  5
683B
  8
0
 10
49.9985190916490865
 20
225.6497978174375021
 30
0.0
 40
6.4500000000000064
  0
CIRCLE
  5
683D
  8
0
 10
49.9985190916490865
 20
225.6497978174375021
 30
0.0
 40
7.5500000000000158
  0
CIRCLE
  5
683F
  8
0
 10
49.9985190916490225
 20
225.6497988416425073
 30
0.0
 40
10.9999999999999893
  0
LINE
  5
6840
  8
0
 10
53.277241633791391
 20
236.1497978174350862
 30
0.0
 11
46.7197965495066114
 21
236.1497978174350862
 31
0.0
  0
LINE
  5
6841
  8
0
 10
42.5446132464746185
 20
233.7392541787633888
 30
0.0
 11
39.2658923443354411
 21
228.0603429924202032
 31
0.0
  0
LINE
  5
6842
  8
0
 10
39.265893097339017
 20
223.2392513382191908
 30
0.0
 11
42.5446107195003194
 21
217.5603458329642876
 31
0.0
  0
LINE
  5
6843
  8
0
 10
46.7198031094778727
 20
215.1497978174398895
 30
0.0
 11
53.2772350738200089
 21
215.1497978174398042
 31
0.0
  0
LINE
  5
6844
  8
0
 10
57.4524274637973917
 20
217.5603458329640034
 30
0.0
 11
60.7311450859591488
 21
223.2392513382195034
 31
0.0
  0
LINE
  5
6845
  8
0
 10
60.7311458389628385
 20
228.0603429924192085
 30
0.0
 11
57.4524249368231494
 21
233.7392541787637015
 31
0.0
  0
LINE
  5
687D
  8
2
 10
55.9500000000780915
 20
136.0999999999883983
 30
0.0
 11
44.0500000000781071
 21
136.0999999999883983
 31
0.0
  0
ARC
  5
687E
  8
2
 10
44.0373176158869271
 20
135.6126823841796067
 30
0.0
 40
0.4874826166606598
 50
88.5092205165366153
 51
181.490779483469197
  0
ARC
  5
687F
  8
2
 10
55.9772316422913718
 20
135.627231642201707
 30
0.0
 40
0.4735519849625659
 50
356.7033833269035767
 51
93.2966166730910089
  0
LINE
  5
6880
  8
2
 10
43.5500000000781071
 20
135.5999999999883983
 30
0.0
 11
43.5500000000780503
 21
135.4000000000000057
 31
0.0
  0
LINE
  5
6881
  8
2
 10
56.4500000000779707
 20
135.399999999999892
 30
0.0
 11
56.4500000000780915
 21
135.5999999999883983
 31
0.0
  0
LINE
  5
688F
  8
2
 10
38.9999999999895977
 20
135.4000000000000057
 30
0.0
 11
61.0000000000092086
 21
135.4000000000000057
 31
0.0
  0
ARC
  5
6891
  8
2
 10
27.7991069684057415
 20
140.5966671607114051
 30
0.0
 40
0.803333335661407
 50
60.0636933038869714
 51
89.936306699114553
  0
ARC
  5
6894
  8
2
 10
82.4785429093738145
 20
231.1751866672329072
 30
0.0
 40
104.9999999999936051
 50
238.8728844716382866
 51
245.5385212731758884
  0
LINE
  5
6898
  8
2
 10
61.0000000000092086
 20
135.6000000000042007
 30
0.0
 11
61.0000000000092086
 21
135.399999999999892
 31
0.0
  0
LINE
  5
6899
  8
2
 10
38.9999999999896616
 20
135.6000000000045986
 30
0.0
 11
38.9999999999895977
 21
135.4000000000000057
 31
0.0
  0
ARC
  5
689A
  8
2
 10
72.2008930316023907
 20
140.5966671606717
 30
0.0
 40
0.803333335661407
 50
90.0636933007844931
 51
119.9363066960117976
  0
ARC
  5
689B
  8
2
 10
17.5271835949292303
 20
231.1643227651713914
 30
0.0
 40
104.9877400068923947
 50
294.4610890955681839
 51
301.1275051592480736
  0
LINE
  5
69D3
  8
3
 10
55.9499999999994202
 20
141.1500000000008015
 30
0.0
 11
44.0499999999994429
 21
141.1500000000008015
 31
0.0
  0
ARC
  5
69D4
  8
3
 10
44.0373176158082629
 20
140.66268238419201
 30
0.0
 40
0.4874826166606598
 50
88.5092205165366153
 51
181.490779483468998
  0
ARC
  5
69D5
  8
3
 10
55.9772316422127005
 20
140.6772316422141103
 30
0.0
 40
0.4735519849625659
 50
356.7033833269038041
 51
93.2966166730910089
  0
LINE
  5
69D6
  8
3
 10
43.5499999999994429
 20
140.6500000000008015
 30
0.0
 11
43.5499999999994927
 21
140.3500000000007901
 31
0.0
  0
LINE
  5
69D7
  8
3
 10
56.4499999999993634
 20
140.3500000000007901
 30
0.0
 11
56.4499999999994202
 21
140.6500000000008015
 31
0.0
  0
LINE
  5
69D8
  8
3
 10
57.218014999998779
 20
140.3500000000007901
 30
0.0
 11
42.7819849999995085
 21
140.3500000000007901
 31
0.0
  0
LINE
  5
69D9
  8
3
 10
42.7819849999993878
 20
140.3500000000007901
 30
0.0
 11
42.5999999999992198
 21
139.8500000000016996
 31
0.0
  0
LINE
  5
69DA
  8
3
 10
57.399999999998947
 20
139.8500000000016996
 30
0.0
 11
57.218014999998779
 21
140.3500000000007901
 31
0.0
  0
LINE
  5
69DB
  8
3
 10
57.399999999998947
 20
135.3958333333355029
 30
0.0
 11
57.399999999998947
 21
139.8500000000016996
 31
0.0
  0
LINE
  5
69DC
  8
3
 10
42.5999999999992198
 20
139.8500000000016996
 30
0.0
 11
42.5999999999992198
 21
135.3958333333355029
 31
0.0
  0
LINE
  5
69DD
  8
3
 10
56.1999999999782176
 20
143.1626633025333888
 30
0.0
 11
56.199999999986737
 21
141.5500000000334069
 31
0.0
  0
ARC
  5
69DE
  8
3
 10
69.1992280550653618
 20
143.1629664606751078
 30
0.0
 40
12.9992280586221494
 50
137.1168240446469895
 51
180.001336208732198
  0
ARC
  5
69DF
  8
3
 10
35.4622196036598325
 20
142.9748878413963951
 30
0.0
 40
12.9378043341225002
 50
359.889782754765406
 51
43.7130362185451915
  0
CIRCLE
  5
69E0
  8
3
 10
52.1999999998713022
 20
163.4500000000124089
 30
0.0
 40
2.7499999999999849
  0
ARC
  5
69E1
  8
3
 10
52.1999999998950486
 20
158.9500000000124089
 30
0.0
 40
10.2000000000000401
 50
317.1181602530032251
 51
223.6028189730016038
  0
LINE
  5
69E2
  8
3
 10
48.3999999999888431
 20
141.1499999999923034
 30
0.0
 11
48.3999999999793431
 21
142.9499999999922863
 31
0.0
  0
ARC
  5
69E3
  8
3
 10
55.800009688760781
 20
141.5499903112570905
 30
0.0
 40
0.3999903113433063
 50
269.9986121520311144
 51
0.0013878485917815
  0
LINE
  5
69F8
  8
1
 10
129.4500000000001023
 20
144.4000000000000057
 30
0.0
 11
129.4500000000001023
 21
50.0
 31
0.0
  0
POLYLINE
  5
6A12
  8
0
 66
     1
 10
0.0
 20
0.0
 30
0.0
  0
VERTEX
  5
71FB
  8
0
 10
145.9500000000001023
 20
129.2317510873359936
 30
0.0
  0
VERTEX
  5
71FC
  8
0
 10
145.9410786640048912
 20
129.262498180283302
 30
0.0
  0
VERTEX
  5
71FD
  8
0
 10
145.9264778260877051
 20
129.3111451948265085
 30
0.0
  0
VERTEX
  5
71FE
  8
0
 10
145.9088718280796115
 20
129.367590707516996
 30
0.0
  0
VERTEX
  5
71FF
  8
0
 10
145.8865399135463861
 20
129.4364190016044915
 30
0.0
  0
VERTEX
  5
7200
  8
0
 10
145.8583267358347086
 20
129.520421164620501
 30
0.0
  0
VERTEX
  5
7201
  8
0
 10
145.8245641185723969
 20
129.6176347986339863
 30
0.0
  0
VERTEX
  5
7202
  8
0
 10
145.7857727024982069
 20
129.7254985238269001
 30
0.0
  0
VERTEX
  5
7203
  8
0
 10
145.7421695278383993
 20
129.8424828176208905
 30
0.0
  0
VERTEX
  5
7204
  8
0
 10
145.6937532798316113
 20
129.9678002878513041
 30
0.0
  0
VERTEX
  5
7205
  8
0
 10
145.5826546206133116
 20
130.2400362185935023
 30
0.0
  0
VERTEX
  5
7206
  8
0
 10
145.4534401708449991
 20
130.5343218519383015
 30
0.0
  0
VERTEX
  5
7207
  8
0
 10
145.3059006115823024
 20
130.842501886285504
 30
0.0
  0
VERTEX
  5
7208
  8
0
 10
145.1389569479096906
 20
131.1572733681223895
 30
0.0
  0
VERTEX
  5
7209
  8
0
 10
144.9533111023287972
 20
131.4743236508211055
 30
0.0
  0
VERTEX
  5
720A
  8
0
 10
144.7500386295409953
 20
131.7900382226206091
 30
0.0
  0
VERTEX
  5
720B
  8
0
 10
144.5281549988771985
 20
132.0994866807637038
 30
0.0
  0
VERTEX
  5
720C
  8
0
 10
144.2846165717614895
 20
132.3964233558288015
 30
0.0
  0
VERTEX
  5
720D
  8
0
 10
144.0174961320985858
 20
132.6758760333246983
 30
0.0
  0
VERTEX
  5
720E
  8
0
 10
143.7326108162972105
 20
132.9414178224180034
 30
0.0
  0
VERTEX
  5
720F
  8
0
 10
143.4388392857136125
 20
133.1999999999852946
 30
0.0
  0
SEQEND
  5
7210
  8
0
  0
POLYLINE
  5
6A13
  8
0
 66
     1
 10
0.0
 20
0.0
 30
0.0
  0
VERTEX
  5
7211
  8
0
 10
112.9500000000000028
 20
138.2983930612253971
 30
0.0
  0
VERTEX
  5
7212
  8
0
 10
112.9563739394534991
 20
138.3043564149145936
 30
0.0
  0
VERTEX
  5
7213
  8
0
 10
113.0030599864306993
 20
138.3513889254028868
 30
0.0
  0
VERTEX
  5
7214
  8
0
 10
113.0631168365837027
 20
138.4137597574114125
 30
0.0
  0
VERTEX
  5
7215
  8
0
 10
113.1470697611866996
 20
138.5026019553540095
 30
0.0
  0
VERTEX
  5
7216
  8
0
 10
113.2555323403537955
 20
138.6182353949496928
 30
0.0
  0
VERTEX
  5
7217
  8
0
 10
113.3861696031024024
 20
138.7572524063527908
 30
0.0
  0
VERTEX
  5
7218
  8
0
 10
113.5401176306804985
 20
138.9189765996742096
 30
0.0
  0
VERTEX
  5
7219
  8
0
 10
113.7178178530461992
 20
139.1026976844912895
 30
0.0
  0
VERTEX
  5
721A
  8
0
 10
113.9188156436144936
 20
139.3074153778048014
 30
0.0
  0
VERTEX
  5
721B
  8
0
 10
114.1418754333357981
 20
139.5318323724355025
 30
0.0
  0
VERTEX
  5
721C
  8
0
 10
114.3856479581242951
 20
139.7746240243648117
 30
0.0
  0
VERTEX
  5
721D
  8
0
 10
114.6505042346492047
 20
140.0355252934679982
 30
0.0
  0
VERTEX
  5
721E
  8
0
 10
114.9386220610970071
 20
140.3153840235069936
 30
0.0
  0
VERTEX
  5
721F
  8
0
 10
115.2512185492626031
 20
140.6143703484331979
 30
0.0
  0
VERTEX
  5
7220
  8
0
 10
115.9224072331284958
 20
141.2478510859889127
 30
0.0
  0
SEQEND
  5
7221
  8
0
  0
LINE
  5
6A28
  8
0
 10
246.350000000000108
 20
180.8157654259038054
 30
0.0
 11
248.2500000000001137
 21
180.8157654259038054
 31
0.0
  0
LINE
  5
6A29
  8
0
 10
246.350000000000108
 20
162.3157654259038054
 30
0.0
 11
248.2500000000001137
 21
162.3157654259038054
 31
0.0
  0
LINE
  5
6A2A
  8
0
 10
248.2500000000001137
 20
162.3157654259038054
 30
0.0
 11
248.2500000000001137
 21
208.8157654259038054
 31
0.0
  0
LINE
  5
6A2B
  8
0
 10
246.350000000000108
 20
162.3157654259038054
 30
0.0
 11
246.350000000000108
 21
208.8157654259038054
 31
0.0
  0
LINE
  5
6A2C
  8
0
 10
246.350000000000108
 20
191.6747811882131032
 30
0.0
 11
248.2500000000001137
 21
191.6747811882131032
 31
0.0
  0
LINE
  5
6A2D
  8
0
 10
248.2500000000001137
 20
208.8157654259038054
 30
0.0
 11
246.350000000000108
 21
208.8157654259038054
 31
0.0
  0
LINE
  5
6A2E
  8
0
 10
246.350000000000108
 20
165.4329227134292069
 30
0.0
 11
248.2500000000001137
 21
165.4329227134292069
 31
0.0
  0
ARC
  5
6A2F
  8
0
 10
212.8345612252211083
 20
164.3265276032799989
 30
0.0
 40
0.484603423864764
 50
179.2438694425594861
 51
225.7571464927848979
  0
ARC
  5
6A30
  8
0
 10
219.7512843283373059
 20
181.2144810975665052
 30
0.0
 40
0.3987177401730935
 50
269.8154415691302006
 51
0.1845584308760397
  0
LINE
  5
6A31
  8
0
 10
213.9500000000001023
 20
162.525867477347191
 30
0.0
 11
212.4964528783862932
 21
163.9793630540787888
 31
0.0
  0
ARC
  5
6A32
  8
0
 10
214.4500000000001023
 20
163.0139402104884141
 30
0.0
 40
0.6987238315929973
 50
224.3084022672423998
 51
315.6915977327577139
  0
LINE
  5
6A33
  8
0
 10
212.3500000000001933
 20
164.3329227134292125
 30
0.0
 11
212.3500000000001933
 21
182.6157654259037884
 31
0.0
  0
ARC
  5
6A34
  8
0
 10
216.1500000000000909
 20
198.6157654259037884
 30
0.0
 40
10.1999999999999993
 50
317.1181602527256018
 51
223.6028189726993105
  0
CIRCLE
  5
6A35
  8
0
 10
216.1500000000000909
 20
203.1157654259037884
 30
0.0
 40
2.75
  0
ARC
  5
6A36
  8
0
 10
199.4379341470649081
 20
182.6509390847296004
 30
0.0
 40
12.9121137609925398
 50
359.8439213957893799
 51
43.7588975769219815
  0
ARC
  5
6A37
  8
0
 10
231.9698649197970042
 20
183.2918911627317868
 30
0.0
 40
11.8289477194834003
 50
134.8727162171697955
 51
182.245444035557
  0
LINE
  5
6A38
  8
0
 10
220.1500000000002046
 20
182.8284287284110974
 30
0.0
 11
220.1500000000002046
 21
181.2157654259038111
 31
0.0
  0
LINE
  5
6A39
  8
0
 10
217.6500000000002046
 20
180.8157654259038054
 30
0.0
 11
217.6500000000002046
 21
165.4329227134292069
 31
0.0
  0
ARC
  5
6A3A
  8
0
 10
217.1682118385596141
 20
165.4253790152627914
 30
0.0
 40
0.4818472163312415
 50
314.1023744507813262
 51
0.8970472604038056
  0
LINE
  5
6A3B
  8
0
 10
217.50354982217101
 20
165.0793657544855932
 30
0.0
 11
214.9500000000001023
 21
162.525867477347191
 31
0.0
  0
LINE
  5
6A3C
  8
0
 10
217.6500000000002046
 20
180.8157654259038054
 30
0.0
 11
219.7500000000001137
 21
180.8157654259038054
 31
0.0
  0
LINE
  5
6A3D
  8
1
 10
216.1500000000000909
 20
211.8155635386088136
 30
0.0
 11
216.1500000000000057
 21
159.6966166956538018
 31
0.0
  0
LINE
  5
6A3E
  8
1
 10
211.4000000000002046
 20
203.1157654259037884
 30
0.0
 11
220.9000000000000909
 21
203.1157654259037884
 31
0.0
  0
LINE
  5
6A3F
  8
0
 10
246.350000000000108
 20
114.3157654259038054
 30
0.0
 11
248.2500000000001137
 21
114.3157654259038054
 31
0.0
  0
LINE
  5
6A40
  8
0
 10
246.350000000000108
 20
95.8157654259038338
 30
0.0
 11
248.2500000000001137
 21
95.8157654259038338
 31
0.0
  0
LINE
  5
6A41
  8
0
 10
248.2500000000001137
 20
95.8157654259038338
 30
0.0
 11
248.2500000000001137
 21
142.3157654259038054
 31
0.0
  0
LINE
  5
6A42
  8
0
 10
246.350000000000108
 20
95.8157654259038338
 30
0.0
 11
246.350000000000108
 21
142.3157654259038054
 31
0.0
  0
LINE
  5
6A43
  8
0
 10
246.350000000000108
 20
125.1747811882131032
 30
0.0
 11
248.2500000000001137
 21
125.1747811882131032
 31
0.0
  0
LINE
  5
6A44
  8
0
 10
248.2500000000001137
 20
142.3157654259038054
 30
0.0
 11
246.350000000000108
 21
142.3157654259038054
 31
0.0
  0
LINE
  5
6A45
  8
0
 10
246.350000000000108
 20
98.9329227134292637
 30
0.0
 11
248.2500000000001137
 21
98.9329227134292637
 31
0.0
  0
ARC
  5
6A46
  8
0
 10
212.8345612252211083
 20
97.8265276032800557
 30
0.0
 40
0.484603423864764
 50
179.2438694425592871
 51
225.7571464927848979
  0
ARC
  5
6A47
  8
0
 10
219.7512843283373059
 20
114.7144810975665052
 30
0.0
 40
0.3987177401730935
 50
269.8154415691302006
 51
0.1845584308762433
  0
LINE
  5
6A48
  8
0
 10
213.9500000000001023
 20
96.025867477347191
 30
0.0
 11
212.4964528783862932
 21
97.4793630540787888
 31
0.0
  0
ARC
  5
6A49
  8
0
 10
214.4500000000001023
 20
96.5139402104884709
 30
0.0
 40
0.6987238315929973
 50
224.3084022672423998
 51
315.6915977327616929
  0
LINE
  5
6A4A
  8
0
 10
212.3500000000001933
 20
97.8329227134292267
 30
0.0
 11
212.3500000000001933
 21
116.1157654259038026
 31
0.0
  0
ARC
  5
6A4B
  8
0
 10
216.1500000000000909
 20
132.1157654259037884
 30
0.0
 40
10.1999999999999993
 50
317.1181602527256018
 51
223.6028189726993105
  0
CIRCLE
  5
6A4C
  8
0
 10
216.1500000000000909
 20
136.6157654259037884
 30
0.0
 40
2.75
  0
ARC
  5
6A4D
  8
0
 10
199.4379341470649081
 20
116.1509390847296004
 30
0.0
 40
12.9121137609925398
 50
359.8439213957889251
 51
43.7588975769218322
  0
ARC
  5
6A4E
  8
0
 10
231.9698649197970042
 20
116.791891162731801
 30
0.0
 40
11.8289477194834003
 50
134.8727162171697955
 51
182.2454440355573979
  0
LINE
  5
6A4F
  8
0
 10
220.1500000000002046
 20
116.3284287284110974
 30
0.0
 11
220.1500000000002046
 21
114.7157654259037969
 31
0.0
  0
LINE
  5
6A50
  8
0
 10
217.6500000000002046
 20
114.3157654259038054
 30
0.0
 11
217.6500000000002046
 21
98.9329227134292637
 31
0.0
  0
ARC
  5
6A51
  8
0
 10
217.1682118385596141
 20
98.9253790152628483
 30
0.0
 40
0.4818472163312415
 50
314.1023744507813262
 51
0.8970472604033982
  0
LINE
  5
6A52
  8
0
 10
217.50354982217101
 20
98.5793657544856217
 30
0.0
 11
214.9500000000001023
 21
96.025867477347191
 31
0.0
  0
LINE
  5
6A53
  8
0
 10
217.6500000000002046
 20
114.3157654259038054
 30
0.0
 11
219.7500000000001137
 21
114.3157654259038054
 31
0.0
  0
LINE
  5
6A54
  8
1
 10
216.1500000000000909
 20
145.3155635386088136
 30
0.0
 11
216.1500000000000057
 21
93.1966166956538018
 31
0.0
  0
LINE
  5
6A55
  8
1
 10
211.4000000000002046
 20
136.6157654259037884
 30
0.0
 11
220.9000000000000909
 21
136.6157654259037884
 31
0.0
  0
LINE
  5
6C5E
  8
0
 10
34.3375488687041184
 20
133.1999999999999886
 30
0.0
 11
28.9999999999498392
 21
133.1999999999999886
 31
0.0
  0
LINE
  5
6C5F
  8
0
 10
71.0000000000499654
 20
133.1999999999999034
 30
0.0
 11
65.6624511313287087
 21
133.1999999999999034
 31
0.0
  0
LINE
  5
6C61
  8
0
 10
115.4611607143024941
 20
133.1999999999999034
 30
0.0
 11
143.4388392856969858
 21
133.1999999999999034
 31
0.0
  0
ARC
  5
6FA9
  8
0
 10
54.0
 20
59.8999999999995509
 30
0.0
 40
1.9999999999999949
 50
297.0866872152632254
 51
62.9133127847514189
  0
LINE
  5
6FAA
  8
0
 10
54.7113248654051674
 20
53.0
 30
0.0
 11
45.2886751345948184
 21
53.0
 31
0.0
  0
LINE
  5
6FAB
  8
0
 10
45.0
 20
57.8999999999995509
 30
0.0
 11
45.0
 21
53.4999999999999929
 31
0.0
  0
LINE
  5
6FAC
  8
0
 10
54.9999999999999432
 20
53.4999999999999929
 30
0.0
 11
55.0
 21
57.8999999999999488
 31
0.0
  0
ARC
  5
6FAD
  8
0
 10
59.5976063014331316
 20
59.9000000000001691
 30
0.0
 40
5.0137793831578383
 50
156.4905274185067867
 51
203.5094725814992103
  0
LINE
  5
6FAE
  8
1
 10
53.0838269182752924
 20
59.8999999999999986
 30
0.0
 11
57.5
 21
59.9000000000016826
 31
0.0
  0
ARC
  5
6FAF
  8
0
 10
46.0
 20
59.8999999999995509
 30
0.0
 40
1.9999999999999949
 50
117.0866872152486025
 51
242.913312784736803
  0
ARC
  5
6FB0
  8
0
 10
40.4023936985668684
 20
59.9000000000001691
 30
0.0
 40
5.0137793831578383
 50
336.4905274185009034
 51
23.5094725814931991
  0
LINE
  5
6FB1
  8
1
 10
46.9161730817247005
 20
59.8999999999999986
 30
0.0
 11
42.5
 21
59.9000000000016826
 31
0.0
  0
LINE
  5
6FB2
  8
0
 10
45.0
 20
91.8999999999999915
 30
0.0
 11
45.0
 21
61.9000000000004178
 31
0.0
  0
LINE
  5
6FB3
  8
0
 10
54.9999999999999432
 20
61.9000000000003894
 30
0.0
 11
55.0
 21
91.8999999999999915
 31
0.0
  0
LINE
  5
6FB4
  8
0
 10
55.0000000000000568
 20
53.4999999999999929
 30
0.0
 11
45.0000000000000568
 21
53.4999999999999929
 31
0.0
  0
LINE
  5
6FB5
  8
0
 10
54.7113248654051674
 20
52.9999999999999929
 30
0.0
 11
55.0000000000000568
 21
53.4999999999999929
 31
0.0
  0
LINE
  5
6FB6
  8
0
 10
45.0000000000000568
 20
53.4999999999999929
 30
0.0
 11
45.2886751345948184
 21
52.9999999999999929
 31
0.0
  0
LINE
  5
6FB7
  8
1
 10
125.4500000000001023
 20
59.8999999999999986
 30
0.0
 11
133.4500000000001023
 21
59.9000000000000128
 31
0.0
  0
LINE
  5
6FB8
  8
0
 10
124.4500000000001023
 20
91.8999999999999631
 30
0.0
 11
124.4500000000001023
 21
53.5
 31
0.0
  0
LINE
  5
6FB9
  8
0
 10
134.4500000000001023
 20
53.5
 30
0.0
 11
134.4500000000001023
 21
91.8999999999999631
 31
0.0
  0
LINE
  5
6FBA
  8
0
 10
134.4500000000001023
 20
53.5
 30
0.0
 11
124.4500000000001023
 21
53.5
 31
0.0
  0
LINE
  5
6FBB
  8
0
 10
134.1613248654053052
 20
53.0
 30
0.0
 11
124.7386751345948994
 21
53.0
 31
0.0
  0
LINE
  5
6FBC
  8
0
 10
134.1613248654053052
 20
53.0
 30
0.0
 11
134.4500000000001023
 21
53.5
 31
0.0
  0
LINE
  5
6FBD
  8
0
 10
124.4500000000001023
 20
53.5
 30
0.0
 11
124.7386751345948994
 21
53.0
 31
0.0
  0
CIRCLE
  5
6FBE
  8
0
 10
129.4500000000001023
 20
59.9000000000000128
 30
0.0
 40
2.0000000000004472
  0
ENDSEC
  0
EOF
