  0
SECTION
  2
HEADER
  9
$ACADVER
  1
AC1009
  9
$INSBASE
 10
0.0
 20
0.0
 30
0.0
  9
$EXTMIN
 10
0.0
 20
-2.960436562073669
 30
0.0
  9
$EXTMAX
 10
248.2500000000001137
 20
264.0499820425173993
 30
0.0
  9
$LIMMIN
 10
0.0
 20
0.0
  9
$LIMMAX
 10
187.5
 20
135.0
  9
$ORTHOMODE
 70
     1
  9
$REGENMODE
 70
     1
  9
$FILLMODE
 70
     1
  9
$QTEXTMODE
 70
     0
  9
$MIRRTEXT
 70
     0
  9
$DRAGMODE
 70
     2
  9
$LTSCALE
 40
5.0
  9
$OSMODE
 70
    37
  9
$ATTMODE
 70
     1
  9
$TEXTSIZE
 40
4.0
  9
$TRACEWID
 40
0.05
  9
$TEXTSTYLE
  7
STANDARD
  9
$CLAYER
  8
0
  9
$CELTYPE
  6
BYLAYER
  9
$CECOLOR
 62
   256
  9
$DIMSCALE
 40
0.5
  9
$DIMASZ
 40
3.0
  9
$DIMEXO
 40
2.0
  9
$DIMDLI
 40
0.38
  9
$DIMRND
 40
0.0
  9
$DIMDLE
 40
0.0
  9
$DIMEXE
 40
2.0
  9
$DIMTP
 40
0.0
  9
$DIMTM
 40
0.0
  9
$DIMTXT
 40
3.0
  9
$DIMCEN
 40
0.0
  9
$DIMTSZ
 40
0.0
  9
$DIMTOL
 70
     0
  9
$DIMLIM
 70
     0
  9
$DIMTIH
 70
     0
  9
$DIMTOH
 70
     0
  9
$DIMSE1
 70
     0
  9
$DIMSE2
 70
     0
  9
$DIMTAD
 70
     1
  9
$DIMZIN
 70
     0
  9
$DIMBLK
  1

  9
$DIMASO
 70
     0
  9
$DIMSHO
 70
     0
  9
$DIMPOST
  1

  9
$DIMAPOST
  1

  9
$DIMALT
 70
     0
  9
$DIMALTD
 70
     2
  9
$DIMALTF
 40
25.3999999999999986
  9
$DIMLFAC
 40
1.0
  9
$DIMTOFL
 70
     0
  9
$DIMTVP
 40
1.6000000000000001
  9
$DIMTIX
 70
     1
  9
$DIMSOXD
 70
     0
  9
$DIMSAH
 70
     0
  9
$DIMBLK1
  1

  9
$DIMBLK2
  1

  9
$DIMSTYLE
  2
STANDARD
  9
$DIMCLRD
 70
     0
  9
$DIMCLRE
 70
     0
  9
$DIMCLRT
 70
     0
  9
$DIMTFAC
 40
1.0
  9
$DIMGAP
 40
0.09
  9
$LUNITS
 70
     2
  9
$LUPREC
 70
     1
  9
$SKETCHINC
 40
0.1
  9
$FILLETRAD
 40
1.0
  9
$AUNITS
 70
     0
  9
$AUPREC
 70
     0
  9
$MENU
  1
E:\r13\win\SUPPORT\ACAD
  9
$ELEVATION
 40
0.0
  9
$PELEVATION
 40
0.0
  9
$THICKNESS
 40
0.0
  9
$LIMCHECK
 70
     0
  9
$BLIPMODE
 70
     0
  9
$CHAMFERA
 40
0.0
  9
$CHAMFERB
 40
0.0
  9
$SKPOLY
 70
     0
  9
$TDCREATE
 40
2449840.6143865738995373
  9
$TDUPDATE
 40
2460864.3915046290494502
  9
$TDINDWG
 40
0.7364509606
  9
$TDUSRTIMER
 40
0.7364509606
  9
$USRTIMER
 70
     1
  9
$ANGBASE
 50
0.0
  9
$ANGDIR
 70
     0
  9
$PDMODE
 70
     0
  9
$PDSIZE
 40
0.0
  9
$PLINEWID
 40
0.0
  9
$COORDS
 70
     1
  9
$SPLFRAME
 70
     0
  9
$SPLINETYPE
 70
     6
  9
$SPLINESEGS
 70
     8
  9
$ATTDIA
 70
     1
  9
$ATTREQ
 70
     1
  9
$HANDLING
 70
     1
  9
$HANDSEED
  5
7022
  9
$SURFTAB1
 70
     6
  9
$SURFTAB2
 70
     6
  9
$SURFTYPE
 70
     6
  9
$SURFU
 70
     6
  9
$SURFV
 70
     6
  9
$UCSNAME
  2

  9
$UCSORG
 10
0.0
 20
0.0
 30
0.0
  9
$UCSXDIR
 10
1.0
 20
0.0
 30
0.0
  9
$UCSYDIR
 10
0.0
 20
1.0
 30
0.0
  9
$PUCSNAME
  2

  9
$PUCSORG
 10
0.0
 20
0.0
 30
0.0
  9
$PUCSXDIR
 10
1.0
 20
0.0
 30
0.0
  9
$PUCSYDIR
 10
0.0
 20
1.0
 30
0.0
  9
$USERI1
 70
     0
  9
$USERI2
 70
     1
  9
$USERI3
 70
     1
  9
$USERI4
 70
     0
  9
$USERI5
 70
     0
  9
$USERR1
 40
0.0
  9
$USERR2
 40
0.0
  9
$USERR3
 40
0.0
  9
$USERR4
 40
0.0
  9
$USERR5
 40
0.0
  9
$WORLDVIEW
 70
     1
  9
$SHADEDGE
 70
     3
  9
$SHADEDIF
 70
    70
  9
$TILEMODE
 70
     1
  9
$MAXACTVP
 70
    16
  9
$PLIMCHECK
 70
     0
  9
$PEXTMIN
 10
1.0000000000000000E+20
 20
1.0000000000000000E+20
 30
1.0000000000000000E+20
  9
$PEXTMAX
 10
-1.0000000000000000E+20
 20
-1.0000000000000000E+20
 30
-1.0000000000000000E+20
  9
$PLIMMIN
 10
0.0
 20
0.0
  9
$PLIMMAX
 10
12.0
 20
9.0
  9
$UNITMODE
 70
     0
  9
$VISRETAIN
 70
     0
  9
$PLINEGEN
 70
     0
  9
$PSLTSCALE
 70
     0
  0
ENDSEC
  0
SECTION
  2
TABLES
  0
TABLE
  2
VPORT
 70
     1
  0
VPORT
  2
*ACTIVE
 70
     0
 10
0.0
 20
0.0
 11
1.0
 21
1.0
 12
539.4919168591223979
 22
229.7154884581055967
 13
0.0
 23
0.0
 14
5.0
 24
5.0
 15
5.0
 25
5.0
 16
0.0
 26
0.0
 36
1.0
 17
0.0
 27
0.0
 37
0.0
 40
459.4309769162111934
 41
2.3485221674876842
 42
50.0
 43
0.0
 44
0.0
 50
0.0
 51
0.0
 71
     0
 72
   100
 73
     1
 74
     0
 75
     0
 76
     0
 77
     0
 78
     0
  0
ENDTAB
  0
TABLE
  2
LTYPE
 70
     4
  0
LTYPE
  2
CONTINUOUS
 70
     0
  3
Solid Line
 72
    65
 73
     0
 40
0.0
  0
LTYPE
  2
CENTER
 70
     0
  3
____ _ ____ _ ____ _ ____ _ ____ _ ____ _ ____
 72
    65
 73
     4
 40
2.0
 49
1.25
 49
-0.25
 49
0.25
 49
-0.25
  0
LTYPE
  2
PHANTOM2
 70
     0
  3
___ _ _ ___ _ _ ___ _ _ ___ _ _
 72
    65
 73
     6
 40
1.25
 49
0.625
 49
-0.125
 49
0.125
 49
-0.125
 49
0.125
 49
-0.125
  0
LTYPE
  2
HIDDEN
 70
     0
  3
_ _ _ _ _ _ _ _ _ _ _ _ _ _ _ _ _ _ _ _ _ _ _
 72
    65
 73
     2
 40
0.375
 49
0.25
 49
-0.125
  0
ENDTAB
  0
TABLE
  2
LAYER
 70
     5
  0
LAYER
  2
0
 70
     0
 62
     7
  6
CONTINUOUS
  0
LAYER
  2
1
 70
     0
 62
     1
  6
CENTER
  0
LAYER
  2
3
 70
     0
 62
     3
  6
CONTINUOUS
  0
LAYER
  2
DEFPOINTS
 70
     0
 62
     7
  6
CONTINUOUS
  0
LAYER
  2
2
 70
     0
 62
     2
  6
HIDDEN
  0
ENDTAB
  0
TABLE
  2
STYLE
 70
     2
  0
STYLE
  2
STANDARD
 70
     0
 40
0.0
 41
1.0
 50
0.0
 71
     0
 42
4.0
  3
TXT
  4
BIGFONT
  0
STYLE
  2
STANDARD1
 70
     0
 40
0.0
 41
1.0
 50
0.0
 71
     0
 42
3.0
  3
txt
  4

  0
ENDTAB
  0
TABLE
  2
VIEW
 70
     1
  0
VIEW
  2
ALL
 70
     0
 40
179.6615229999999883
 10
141.9039180000000044
 20
89.8307609999999954
 41
0.0
 11
0.0
 21
0.0
 31
1.0
 12
0.0
 22
0.0
 32
0.0
 42
0.0
 43
0.0
 44
0.0
 50
0.0
 71
     0
  0
ENDTAB
  0
TABLE
  2
UCS
 70
     0
  0
ENDTAB
  0
TABLE
  2
APPID
 70
    13
  0
APPID
  2
ACAD
 70
     0
  0
APPID
  2
DCO15
 70
     0
  0
APPID
  2
ACAD_EXEMPT_FROM_CAD_STANDARDS
 70
     0
  0
APPID
  2
ACAD_MLEADERVER
 70
     0
  0
APPID
  2
ACAD_NAV_VCDISPLAY
 70
     0
  0
APPID
  2
ACAD_DSTYLE_DIMJAG
 70
     0
  0
APPID
  2
ACAD_DSTYLE_DIMTALN
 70
     0
  0
APPID
  2
ACAD_PSEXT
 70
     0
  0
APPID
  2
ACAD_DSTYLE_DIMBREAK
 70
     0
  0
APPID
  2
ACAECLAYERSTANDARD
 70
     0
  0
APPID
  2
ACCMTRANSPARENCY
 70
     0
  0
APPID
  2
GRADIENTCOLOR1ACI
 70
     0
  0
APPID
  2
GRADIENTCOLOR2ACI
 70
     0
  0
ENDTAB
  0
TABLE
  2
DIMSTYLE
 70
     1
  0
DIMSTYLE
  2
STANDARD
 70
     0
  3

  4

  5

  6

  7

 40
1.0
 41
0.18
 42
0.0625
 43
0.38
 44
0.18
 45
0.0
 46
0.0
 47
0.0
 48
0.0
140
0.18
141
0.09
142
0.0
143
25.3999999999999986
144
1.0
145
0.0
146
1.0
147
0.09
 71
     0
 72
     0
 73
     1
 74
     1
 75
     0
 76
     0
 77
     0
 78
     0
170
     0
171
     2
172
     0
173
     0
174
     0
175
     0
176
     0
177
     0
178
     0
  0
ENDTAB
  0
ENDSEC
  0
SECTION
  2
BLOCKS
  0
BLOCK
  8
0
  2
$MODEL_SPACE
 70
     0
 10
0.0
 20
0.0
 30
0.0
  3
$MODEL_SPACE
  1

  0
ENDBLK
  5
1BD
  8
0
  0
BLOCK
 67
     1
  8
0
  2
$PAPER_SPACE
 70
     0
 10
0.0
 20
0.0
 30
0.0
  3
$PAPER_SPACE
  1

  0
ENDBLK
  5
1BB
 67
     1
  8
0
  0
ENDSEC
  0
SECTION
  2
ENTITIES
  0
TEXT
  5
189A
  8
0
 62
     3
 10
0.0
 20
0.0
 30
0.0
 40
10.0
  1
BLPLK08050
  7
STANDARD1
  0
ARC
  5
5604
  8
0
 10
103.755376004163395
 20
142.1958776824907886
 30
0.0
 40
10.9442086741419207
 50
2.6401456806686858
 51
32.8455134596842626
  0
ARC
  5
5605
  8
0
 10
155.1315155703711071
 20
142.2000719140546892
 30
0.0
 40
10.9309215523534107
 50
147.1356902493245968
 51
177.3786506103224099
  0
LINE
  5
5606
  8
0
 10
145.9500000000001023
 20
148.1317510873359993
 30
0.0
 11
145.9500000000001023
 21
157.1983930612254028
 31
0.0
  0
LINE
  5
5607
  8
0
 10
112.9500000000000028
 20
157.1983930612254028
 30
0.0
 11
112.9500000000000028
 21
148.1317510873359993
 31
0.0
  0
LINE
  5
5608
  8
0
 10
114.6879678373999951
 20
142.6999999999999886
 30
0.0
 11
116.296237264200002
 21
122.7110910610000047
 31
0.0
  0
LINE
  5
5609
  8
0
 10
142.6037627358001032
 20
122.7110910610000047
 30
0.0
 11
144.21203216260011
 21
142.6999999999999886
 31
0.0
  0
ARC
  5
560A
  8
0
 10
116.6322705242151017
 20
122.7531566951573012
 30
0.0
 40
0.338655975015094
 50
187.1353370080030913
 51
224.764662966565993
  0
ARC
  5
560B
  8
0
 10
142.2988064013754865
 20
122.7380330225882972
 30
0.0
 40
0.306144141214389
 50
313.1487989389377162
 51
354.9512010864170861
  0
LINE
  5
560C
  8
0
 10
116.3918230267000951
 20
122.5146763598000064
 30
0.0
 11
118.2500000000000995
 21
120.7999999999999972
 31
0.0
  0
LINE
  5
560D
  8
0
 10
140.6500000000000909
 20
120.7999999999999972
 30
0.0
 11
142.5081769732998964
 21
122.5146763598000064
 31
0.0
  0
LINE
  5
560E
  8
0
 10
119.4500000000000028
 20
111.2999999999999972
 30
0.0
 11
119.7386751346000011
 21
110.7999999999999972
 31
0.0
  0
LINE
  5
560F
  8
0
 10
139.161324865400104
 20
110.7999999999999972
 30
0.0
 11
139.4500000000001023
 21
111.2999999999999972
 31
0.0
  0
LINE
  5
5610
  8
0
 10
139.4500000000001023
 20
111.2999999999999972
 30
0.0
 11
139.4500000000001023
 21
120.7999999999999972
 31
0.0
  0
LINE
  5
5611
  8
0
 10
119.4500000000000028
 20
120.7999999999999972
 30
0.0
 11
119.4500000000000028
 21
111.2999999999999972
 31
0.0
  0
LINE
  5
5623
  8
0
 10
116.8199721998999934
 20
152.5542868777000081
 30
0.0
 11
142.0800278000999981
 21
152.5542868777000081
 31
0.0
  0
LINE
  5
5638
  8
0
 10
142.5532865065999886
 20
160.3000000000000114
 30
0.0
 11
116.3467134934000029
 21
160.3000000000000114
 31
0.0
  0
LINE
  5
563B
  8
0
 10
118.2500000000000995
 20
120.7999999999999972
 30
0.0
 11
140.6500000000000909
 21
120.7999999999999972
 31
0.0
  0
LINE
  5
563C
  8
0
 10
139.161324865400104
 20
110.7999999999999972
 30
0.0
 11
119.7386751346000011
 21
110.7999999999999972
 31
0.0
  0
LINE
  5
563D
  8
0
 10
139.4500000000001023
 20
111.2999999999999972
 30
0.0
 11
119.4500000000000028
 21
111.2999999999999972
 31
0.0
  0
LINE
  5
564A
  8
0
 10
116.296237264200002
 20
122.7110910610000047
 30
0.0
 11
142.6037627358001032
 21
122.7110910610000047
 31
0.0
  0
POLYLINE
  5
62DA
  8
0
 66
     1
 10
0.0
 20
0.0
 30
0.0
  0
VERTEX
  5
6E28
  8
0
 10
115.461160714284901
 20
152.0999999999853003
 30
0.0
  0
VERTEX
  5
6E29
  8
0
 10
115.1595002214542944
 20
151.8493479428325941
 30
0.0
  0
VERTEX
  5
6E2A
  8
0
 10
114.8770956245545989
 20
151.5812802934316039
 30
0.0
  0
VERTEX
  5
6E2B
  8
0
 10
114.3737830647586975
 20
150.9974785125160963
 30
0.0
  0
VERTEX
  5
6E2C
  8
0
 10
113.9459985543463034
 20
150.3747680529808122
 30
0.0
  0
VERTEX
  5
6E2D
  8
0
 10
113.5939860917863058
 20
149.7422692690117003
 30
0.0
  0
VERTEX
  5
6E2E
  8
0
 10
113.3170328611302011
 20
149.1396639082873037
 30
0.0
  0
VERTEX
  5
6E2F
  8
0
 10
113.2061425028746982
 20
148.8682363582236974
 30
0.0
  0
VERTEX
  5
6E30
  8
0
 10
113.1138485969563021
 20
148.6258897594244104
 30
0.0
  0
VERTEX
  5
6E31
  8
0
 10
113.0406748679168061
 20
148.4191648373978865
 30
0.0
  0
VERTEX
  5
6E32
  8
0
 10
112.9893043703475968
 20
148.2638553452416943
 30
0.0
  0
VERTEX
  5
6E33
  8
0
 10
112.9622371452969958
 20
148.176279367693013
 30
0.0
  0
VERTEX
  5
6E34
  8
0
 10
112.9500000000000028
 20
148.1317510873359993
 30
0.0
  0
SEQEND
  5
6E35
  8
0
  0
POLYLINE
  5
62DC
  8
0
 66
     1
 10
0.0
 20
0.0
 30
0.0
  0
VERTEX
  5
6E36
  8
0
 10
115.9224072331284958
 20
160.14785108598889
 30
0.0
  0
VERTEX
  5
6E37
  8
0
 10
115.9737450447174041
 20
160.1928203230268082
 30
0.0
  0
SEQEND
  5
6E38
  8
0
  0
POLYLINE
  5
62DD
  8
0
 66
     1
 10
0.0
 20
0.0
 30
0.0
  0
VERTEX
  5
6E39
  8
0
 10
142.926254955277301
 20
160.1928203230297072
 30
0.0
  0
VERTEX
  5
6E3A
  8
0
 10
142.977592766869094
 20
160.1478510859894016
 30
0.0
  0
SEQEND
  5
6E3B
  8
0
  0
POLYLINE
  5
62DE
  8
0
 66
     1
 10
0.0
 20
0.0
 30
0.0
  0
VERTEX
  5
6E3C
  8
0
 10
142.977592766869094
 20
160.1478510859894016
 30
0.0
  0
VERTEX
  5
6E3D
  8
0
 10
143.6534595505414131
 20
159.5110842302368042
 30
0.0
  0
VERTEX
  5
6E3E
  8
0
 10
144.2475957059259883
 20
158.9375777091744908
 30
0.0
  0
VERTEX
  5
6E3F
  8
0
 10
144.7582968157132939
 20
158.4321942804662058
 30
0.0
  0
VERTEX
  5
6E40
  8
0
 10
145.1816282827952023
 20
158.0032413991559963
 30
0.0
  0
VERTEX
  5
6E41
  8
0
 10
145.5121802022511019
 20
157.6578369592155013
 30
0.0
  0
VERTEX
  5
6E42
  8
0
 10
145.7539212614327084
 20
157.4011597461455096
 30
0.0
  0
VERTEX
  5
6E43
  8
0
 10
145.8944496483962041
 20
157.2533910307959957
 30
0.0
  0
VERTEX
  5
6E44
  8
0
 10
145.9500000000001023
 20
157.1983930612254028
 30
0.0
  0
SEQEND
  5
6E45
  8
0
  0
POLYLINE
  5
62DF
  8
0
 66
     1
 10
0.0
 20
0.0
 30
0.0
  0
VERTEX
  5
6E46
  8
0
 10
142.926254955277301
 20
160.1928203230297072
 30
0.0
  0
VERTEX
  5
6E47
  8
0
 10
142.8729883124703974
 20
160.2292258200340882
 30
0.0
  0
VERTEX
  5
6E48
  8
0
 10
142.8158686476498076
 20
160.2567560321473081
 30
0.0
  0
VERTEX
  5
6E49
  8
0
 10
142.7552026163054961
 20
160.2767795938239885
 30
0.0
  0
VERTEX
  5
6E4A
  8
0
 10
142.6911321217934017
 20
160.2901449720093865
 30
0.0
  0
VERTEX
  5
6E4B
  8
0
 10
142.6237332373250979
 20
160.2975805749551057
 30
0.0
  0
VERTEX
  5
6E4C
  8
0
 10
142.5532865065999886
 20
160.3000000000000114
 30
0.0
  0
SEQEND
  5
6E4D
  8
0
  0
POLYLINE
  5
62E0
  8
0
 66
     1
 10
0.0
 20
0.0
 30
0.0
  0
VERTEX
  5
6E4E
  8
0
 10
116.3467134934000029
 20
160.3000000000000114
 30
0.0
  0
VERTEX
  5
6E4F
  8
0
 10
116.2625571036441983
 20
160.2964892029316104
 30
0.0
  0
VERTEX
  5
6E50
  8
0
 10
116.1828267491604976
 20
160.2855682339138923
 30
0.0
  0
VERTEX
  5
6E51
  8
0
 10
116.1079921119575999
 20
160.2655949839202947
 30
0.0
  0
VERTEX
  5
6E52
  8
0
 10
116.0381219246020947
 20
160.2354379464240992
 30
0.0
  0
VERTEX
  5
6E53
  8
0
 10
115.973745044717603
 20
160.1928203230268934
 30
0.0
  0
SEQEND
  5
6E54
  8
0
  0
POLYLINE
  5
62E1
  8
0
 66
     1
 10
0.0
 20
0.0
 30
0.0
  0
VERTEX
  5
6E55
  8
0
 10
142.977592766869094
 20
152.3176494928327998
 30
0.0
  0
VERTEX
  5
6E56
  8
0
 10
143.4388392857136125
 20
152.0999999999853003
 30
0.0
  0
SEQEND
  5
6E57
  8
0
  0
POLYLINE
  5
62E2
  8
0
 66
     1
 10
0.0
 20
0.0
 30
0.0
  0
VERTEX
  5
6E58
  8
0
 10
142.0800278000999981
 20
152.5542868777000081
 30
0.0
  0
VERTEX
  5
6E59
  8
0
 10
142.2192066912492123
 20
152.5309808124472113
 30
0.0
  0
VERTEX
  5
6E5A
  8
0
 10
142.3509796516368908
 20
152.5058278945176937
 30
0.0
  0
VERTEX
  5
6E5B
  8
0
 10
142.4752054515105044
 20
152.4788626187915099
 30
0.0
  0
VERTEX
  5
6E5C
  8
0
 10
142.5916980190499999
 20
152.4501041869395124
 30
0.0
  0
VERTEX
  5
6E5D
  8
0
 10
142.70031197219879
 20
152.4195789521594975
 30
0.0
  0
VERTEX
  5
6E5E
  8
0
 10
142.8009190729719933
 20
152.3873131534706999
 30
0.0
  0
VERTEX
  5
6E5F
  8
0
 10
142.8933668260860941
 20
152.3533254454412997
 30
0.0
  0
VERTEX
  5
6E60
  8
0
 10
142.977592766869094
 20
152.3176494928327998
 30
0.0
  0
SEQEND
  5
6E61
  8
0
  0
POLYLINE
  5
62E3
  8
0
 66
     1
 10
0.0
 20
0.0
 30
0.0
  0
VERTEX
  5
6E62
  8
0
 10
115.9224072331283963
 20
152.3176494928320892
 30
0.0
  0
VERTEX
  5
6E63
  8
0
 10
116.0066331739121068
 20
152.353325445441186
 30
0.0
  0
VERTEX
  5
6E64
  8
0
 10
116.0990809270274013
 20
152.3873131534710978
 30
0.0
  0
VERTEX
  5
6E65
  8
0
 10
116.1996880278018978
 20
152.4195789521602933
 30
0.0
  0
VERTEX
  5
6E66
  8
0
 10
116.3083019809522938
 20
152.4501041869405071
 30
0.0
  0
VERTEX
  5
6E67
  8
0
 10
116.424794548493594
 20
152.4788626187927889
 30
0.0
  0
VERTEX
  5
6E68
  8
0
 10
116.5490203483689982
 20
152.5058278945192001
 30
0.0
  0
VERTEX
  5
6E69
  8
0
 10
116.6807933087588935
 20
152.5309808124488882
 30
0.0
  0
VERTEX
  5
6E6A
  8
0
 10
116.8199721998999934
 20
152.5542868777000081
 30
0.0
  0
SEQEND
  5
6E6B
  8
0
  0
POLYLINE
  5
62E4
  8
0
 66
     1
 10
0.0
 20
0.0
 30
0.0
  0
VERTEX
  5
6E6C
  8
0
 10
115.461160714284901
 20
152.0999999999853003
 30
0.0
  0
VERTEX
  5
6E6D
  8
0
 10
115.9224072331283963
 20
152.3176494928320892
 30
0.0
  0
SEQEND
  5
6E6E
  8
0
  0
ARC
  5
6454
  8
0
 10
24.2555963130066097
 20
142.1817490448943886
 30
0.0
 40
10.9945926870045394
 50
2.701746237870243
 51
64.4358396054091003
  0
LINE
  5
6455
  8
0
 10
64.7620321625500424
 20
142.6999999999999886
 30
0.0
 11
63.1537627358499591
 21
122.7110910610000047
 31
0.0
  0
LINE
  5
6456
  8
0
 10
36.8462372641500266
 20
122.7110910610000047
 30
0.0
 11
35.2379678374415519
 21
142.6999999999484032
 31
0.0
  0
LINE
  5
6458
  8
0
 10
28.9999999999500311
 20
152.0999999999999091
 30
0.0
 11
27.4857829779500094
 21
152.5542868777000081
 31
0.0
  0
ARC
  5
6459
  8
0
 10
62.8560483008274602
 20
122.7345087321361063
 30
0.0
 40
0.2986340103575264
 50
312.5975205611638899
 51
355.5024794171001759
  0
ARC
  5
645A
  8
0
 10
37.1393877877612226
 20
122.7322876919082972
 30
0.0
 40
0.2939158496157983
 50
184.135648743117514
 51
227.7643512786031863
  0
LINE
  5
645B
  8
0
 10
63.0581769732499993
 20
122.5146763598000064
 30
0.0
 11
61.1999999999499593
 21
120.7999999999999972
 31
0.0
  0
LINE
  5
645C
  8
0
 10
38.7999999999499892
 20
120.7999999999999972
 30
0.0
 11
36.9418230267500007
 21
122.5146763598000064
 31
0.0
  0
ARC
  5
645D
  8
0
 10
27.6878859282788312
 20
159.820257361471306
 30
0.0
 40
0.4801413157195168
 50
87.6649625990067136
 51
180.3350374081786072
  0
ARC
  5
645E
  8
0
 10
72.2978097426011459
 20
159.8054447950511019
 30
0.0
 40
0.494583154857749
 50
1.3908696800612681
 51
90.609130312737733
  0
ARC
  5
645F
  8
0
 10
72.3705131627295231
 20
153.0332163319494043
 30
0.0
 40
0.5000242207445728
 50
286.7019906006012206
 51
357.9980094004604894
  0
ARC
  5
6460
  8
0
 10
27.6290343566815295
 20
153.0328672455214019
 30
0.0
 40
0.4995599323130446
 50
181.9637903893654141
 51
253.3362096095800098
  0
LINE
  5
6461
  8
0
 10
27.0499999999499892
 20
155.3000000000000114
 30
0.0
 11
27.2077528213499704
 21
159.8174497482999072
 31
0.0
  0
LINE
  5
6462
  8
0
 10
72.7922471786499727
 20
159.8174497482999072
 30
0.0
 11
72.9499999999499664
 21
155.3000000000000114
 31
0.0
  0
LINE
  5
6463
  8
0
 10
72.9499999999499664
 20
155.3000000000000114
 30
0.0
 11
72.87023217564996
 21
153.0157483767999906
 31
0.0
  0
LINE
  5
6464
  8
0
 10
27.12976782435004
 20
153.0157483767999906
 30
0.0
 11
27.0499999999499892
 21
155.3000000000000114
 31
0.0
  0
LINE
  5
6465
  8
0
 10
39.9999999999500275
 20
111.2999999999999972
 30
0.0
 11
39.9999999999500275
 21
120.7999999999999972
 31
0.0
  0
LINE
  5
6466
  8
0
 10
59.9999999999500275
 20
120.7999999999999972
 30
0.0
 11
59.9999999999500275
 21
111.2999999999999972
 31
0.0
  0
LINE
  5
6467
  8
0
 10
59.9999999999500275
 20
111.2999999999999972
 30
0.0
 11
59.7113248654499671
 21
110.7999999999999972
 31
0.0
  0
LINE
  5
6468
  8
0
 10
40.2886751345500329
 20
110.7999999999999972
 30
0.0
 11
39.9999999999500275
 21
111.2999999999999972
 31
0.0
  0
LINE
  5
647B
  8
0
 10
67.9204877926500217
 20
160.3000000000000114
 30
0.0
 11
72.2925517651499945
 21
160.3000000000000114
 31
0.0
  0
LINE
  5
647D
  8
0
 10
61.1999999999499593
 20
120.7999999999999972
 30
0.0
 11
38.7999999999499892
 21
120.7999999999999972
 31
0.0
  0
LINE
  5
647F
  8
0
 10
32.0795122073499783
 20
160.3000000000000114
 30
0.0
 11
27.7074482348500091
 21
160.3000000000000114
 31
0.0
  0
LINE
  5
6483
  8
0
 10
39.9999999999500275
 20
111.2999999999999972
 30
0.0
 11
59.9999999999500275
 21
111.2999999999999972
 31
0.0
  0
LINE
  5
6484
  8
0
 10
40.2886751345500329
 20
110.7999999999999972
 30
0.0
 11
59.7113248654499671
 21
110.7999999999999972
 31
0.0
  0
LINE
  5
648D
  8
0
 10
63.1537627358499591
 20
122.7110910610000047
 30
0.0
 11
36.8462372641500266
 21
122.7110910610000047
 31
0.0
  0
LINE
  5
648F
  8
0
 10
72.5142170220499906
 20
152.5542868777000081
 30
0.0
 11
68.6379281542500053
 21
152.5542868777000081
 31
0.0
  0
LINE
  5
6490
  8
0
 10
31.3620718457499912
 20
152.5542868777000081
 30
0.0
 11
27.4857829779500094
 21
152.5542868777000081
 31
0.0
  0
POLYLINE
  5
649E
  8
0
 66
     1
 10
0.0
 20
0.0
 30
0.0
  0
VERTEX
  5
6E6F
  8
0
 10
32.0795122073499783
 20
160.3000000000000114
 30
0.0
  0
VERTEX
  5
6E70
  8
0
 10
32.2338272295824595
 20
160.2964892029316104
 30
0.0
  0
VERTEX
  5
6E71
  8
0
 10
32.3901220700083172
 20
160.2855682339138923
 30
0.0
  0
VERTEX
  5
6E72
  8
0
 10
32.5479376939602503
 20
160.2655949839202947
 30
0.0
  0
VERTEX
  5
6E73
  8
0
 10
32.7064234194663825
 20
160.2354379464240992
 30
0.0
  0
VERTEX
  5
6E74
  8
0
 10
32.8643484984878
 20
160.1928203230268082
 30
0.0
  0
SEQEND
  5
6E75
  8
0
  0
POLYLINE
  5
649F
  8
0
 66
     1
 10
0.0
 20
0.0
 30
0.0
  0
VERTEX
  5
6E76
  8
0
 10
67.1356515015199307
 20
160.1928203230297072
 30
0.0
  0
VERTEX
  5
6E77
  8
0
 10
67.2671781542938447
 20
160.2292258200340882
 30
0.0
  0
VERTEX
  5
6E78
  8
0
 10
67.399261139727912
 20
160.2567560321473081
 30
0.0
  0
VERTEX
  5
6E79
  8
0
 10
67.5310976796359341
 20
160.2767795938239885
 30
0.0
  0
VERTEX
  5
6E7A
  8
0
 10
67.662181057055875
 20
160.2901449720093865
 30
0.0
  0
VERTEX
  5
6E7B
  8
0
 10
67.792046937486063
 20
160.2975805749551057
 30
0.0
  0
VERTEX
  5
6E7C
  8
0
 10
67.9204877926500217
 20
160.3000000000000114
 30
0.0
  0
SEQEND
  5
6E7D
  8
0
  0
POLYLINE
  5
64A4
  8
0
 66
     1
 10
0.0
 20
0.0
 30
0.0
  0
VERTEX
  5
6E7E
  8
0
 10
32.9999999999998295
 20
152.3176494928320892
 30
0.0
  0
VERTEX
  5
6E7F
  8
0
 10
32.7821867523222821
 20
152.353325445441186
 30
0.0
  0
VERTEX
  5
6E80
  8
0
 10
32.5674612474008995
 20
152.3873131534710978
 30
0.0
  0
VERTEX
  5
6E81
  8
0
 10
32.3561637660854515
 20
152.4195789521602933
 30
0.0
  0
VERTEX
  5
6E82
  8
0
 10
32.1486061852405669
 20
152.4501041869405071
 30
0.0
  0
VERTEX
  5
6E83
  8
0
 10
31.9451076228405704
 20
152.4788626187927889
 30
0.0
  0
VERTEX
  5
6E84
  8
0
 10
31.7459857341244209
 20
152.5058278945192001
 30
0.0
  0
VERTEX
  5
6E85
  8
0
 10
31.5515312070534186
 20
152.5309808124488882
 30
0.0
  0
VERTEX
  5
6E86
  8
0
 10
31.3620718457499912
 20
152.5542868777000081
 30
0.0
  0
SEQEND
  5
6E87
  8
0
  0
POLYLINE
  5
64A6
  8
0
 66
     1
 10
0.0
 20
0.0
 30
0.0
  0
VERTEX
  5
6E88
  8
0
 10
68.6379281542500053
 20
152.5542868777000081
 30
0.0
  0
VERTEX
  5
6E89
  8
0
 10
68.4484687929319193
 20
152.5309808124472113
 30
0.0
  0
VERTEX
  5
6E8A
  8
0
 10
68.2540142658625086
 20
152.5058278945176085
 30
0.0
  0
VERTEX
  5
6E8B
  8
0
 10
68.0548923771481782
 20
152.478862618791311
 30
0.0
  0
VERTEX
  5
6E8C
  8
0
 10
67.8513938147497555
 20
152.4501041869393134
 30
0.0
  0
VERTEX
  5
6E8D
  8
0
 10
67.6438362339069386
 20
152.4195789521594122
 30
0.0
  0
VERTEX
  5
6E8E
  8
0
 10
67.4325387525934161
 20
152.387313153470302
 30
0.0
  0
VERTEX
  5
6E8F
  8
0
 10
67.2178132476740871
 20
152.3533254454409871
 30
0.0
  0
VERTEX
  5
6E90
  8
0
 10
66.9999999999986926
 20
152.3176494928320892
 30
0.0
  0
SEQEND
  5
6E91
  8
0
  0
POLYLINE
  5
64A8
  8
0
 66
     1
 10
0.0
 20
0.0
 30
0.0
  0
VERTEX
  5
6E92
  8
0
 10
66.9999999999986926
 20
152.3176494928320892
 30
0.0
  0
VERTEX
  5
6E93
  8
0
 10
65.6624511312385835
 20
152.0999999999853003
 30
0.0
  0
SEQEND
  5
6E94
  8
0
  0
POLYLINE
  5
64A9
  8
0
 66
     1
 10
0.0
 20
0.0
 30
0.0
  0
VERTEX
  5
6E95
  8
0
 10
34.3375488687601731
 20
152.0999999999853003
 30
0.0
  0
VERTEX
  5
6E96
  8
0
 10
35.2889616713770806
 20
151.8500839944989877
 30
0.0
  0
VERTEX
  5
6E97
  8
0
 10
36.2415960557248695
 20
151.5811257960478997
 30
0.0
  0
VERTEX
  5
6E98
  8
0
 10
37.1952196591807365
 20
151.2960200258106909
 30
0.0
  0
VERTEX
  5
6E99
  8
0
 10
38.1499242174291382
 20
150.9977625850183074
 30
0.0
  0
VERTEX
  5
6E9A
  8
0
 10
40.0643987981450707
 20
150.3752403726390128
 30
0.0
  0
VERTEX
  5
6E9B
  8
0
 10
41.991038556358987
 20
149.742891317257488
 30
0.0
  0
VERTEX
  5
6E9C
  8
0
 10
42.9618350047783721
 20
149.4344386139499079
 30
0.0
  0
VERTEX
  5
6E9D
  8
0
 10
43.9397252433579411
 20
149.140363118854907
 30
0.0
  0
VERTEX
  5
6E9E
  8
0
 10
44.4318188298929471
 20
149.0010624266720924
 30
0.0
  0
VERTEX
  5
6E9F
  8
0
 10
44.9262718017725433
 20
148.8681707781838099
 30
0.0
  0
VERTEX
  5
6EA0
  8
0
 10
45.4232377590513394
 20
148.7426719424304054
 30
0.0
  0
VERTEX
  5
6EA1
  8
0
 10
45.9227391165573522
 20
148.6256928537978865
 30
0.0
  0
VERTEX
  5
6EA2
  8
0
 10
46.4247725583727018
 20
148.5183885272064117
 30
0.0
  0
VERTEX
  5
6EA3
  8
0
 10
46.9293347685783715
 20
148.4219139775759118
 30
0.0
  0
VERTEX
  5
6EA4
  8
0
 10
47.4364224312562897
 20
148.3374242198264028
 30
0.0
  0
VERTEX
  5
6EA5
  8
0
 10
47.9459857797533502
 20
148.2660578015824058
 30
0.0
  0
VERTEX
  5
6EA6
  8
0
 10
48.4576452118635004
 20
148.2088363401427102
 30
0.0
  0
VERTEX
  5
6EA7
  8
0
 10
48.9708784011690383
 20
148.1667308555055058
 30
0.0
  0
VERTEX
  5
6EA8
  8
0
 10
49.4851624505394625
 20
148.1407121653452066
 30
0.0
  0
VERTEX
  5
6EA9
  8
0
 10
49.9999744628437881
 20
148.1317510873359993
 30
0.0
  0
VERTEX
  5
6EAA
  8
0
 10
50.5147907757231565
 20
148.1404977061436057
 30
0.0
  0
VERTEX
  5
6EAB
  8
0
 10
51.0290846654532402
 20
148.166318983499508
 30
0.0
  0
VERTEX
  5
6EAC
  8
0
 10
51.5423286428534198
 20
148.2082610526697977
 30
0.0
  0
VERTEX
  5
6EAD
  8
0
 10
52.053995218743303
 20
148.2653700469203102
 30
0.0
  0
VERTEX
  5
6EAE
  8
0
 10
52.5635576075861195
 20
148.3366918033482023
 30
0.0
  0
VERTEX
  5
6EAF
  8
0
 10
53.0706374719591665
 20
148.4212096760965096
 30
0.0
  0
VERTEX
  5
6EB0
  8
0
 10
53.5751873267974474
 20
148.5177677610039098
 30
0.0
  0
VERTEX
  5
6EB1
  8
0
 10
54.0772043985626212
 20
148.6251913344833895
 30
0.0
  0
VERTEX
  5
6EB2
  8
0
 10
54.5766859137162825
 20
148.7423056729479924
 30
0.0
  0
VERTEX
  5
6EB3
  8
0
 10
55.0736290987204598
 20
148.8679360528105917
 30
0.0
  0
VERTEX
  5
6EB4
  8
0
 10
55.5680588521589129
 20
149.0009396773864125
 30
0.0
  0
VERTEX
  5
6EB5
  8
0
 10
56.060132995685592
 20
149.1403271109026889
 30
0.0
  0
VERTEX
  5
6EB6
  8
0
 10
57.0380051978527902
 20
149.4344796377025091
 30
0.0
  0
VERTEX
  5
6EB7
  8
0
 10
58.0088272326252579
 20
149.7428461426096931
 30
0.0
  0
VERTEX
  5
6EB8
  8
0
 10
59.9354950161056692
 20
150.3751034458067863
 30
0.0
  0
VERTEX
  5
6EB9
  8
0
 10
61.8499851345905469
 20
150.9976722927603134
 30
0.0
  0
VERTEX
  5
6EBA
  8
0
 10
62.804700999321021
 20
151.2959247408745114
 30
0.0
  0
VERTEX
  5
6EBB
  8
0
 10
63.7583540146041017
 20
151.5811710762785083
 30
0.0
  0
VERTEX
  5
6EBC
  8
0
 10
64.7109897381356518
 20
151.8498338555558007
 30
0.0
  0
VERTEX
  5
6EBD
  8
0
 10
65.6624511312385835
 20
152.0999999999853003
 30
0.0
  0
SEQEND
  5
6EBE
  8
0
  0
POLYLINE
  5
64AA
  8
0
 66
     1
 10
0.0
 20
0.0
 30
0.0
  0
VERTEX
  5
6EBF
  8
0
 10
34.3375488687601731
 20
152.0999999999853003
 30
0.0
  0
VERTEX
  5
6EC0
  8
0
 10
32.9999999999998295
 20
152.3176494928320892
 30
0.0
  0
SEQEND
  5
6EC1
  8
0
  0
POLYLINE
  5
64AB
  8
0
 66
     1
 10
0.0
 20
0.0
 30
0.0
  0
VERTEX
  5
6EC2
  8
0
 10
67.1356515015199307
 20
160.1928203230297072
 30
0.0
  0
VERTEX
  5
6EC3
  8
0
 10
66.9999999999983515
 20
160.1478510859884068
 30
0.0
  0
SEQEND
  5
6EC4
  8
0
  0
POLYLINE
  5
64AC
  8
0
 66
     1
 10
0.0
 20
0.0
 30
0.0
  0
VERTEX
  5
6EC5
  8
0
 10
66.9999999999983515
 20
160.1478510859884068
 30
0.0
  0
VERTEX
  5
6EC6
  8
0
 10
66.0043871499745478
 20
159.8221685123639872
 30
0.0
  0
VERTEX
  5
6EC7
  8
0
 10
64.9973599938568327
 20
159.511464103200808
 30
0.0
  0
VERTEX
  5
6EC8
  8
0
 10
63.979384705962218
 20
159.2162870288634906
 30
0.0
  0
VERTEX
  5
6EC9
  8
0
 10
62.9508328258853496
 20
158.9374409740640033
 30
0.0
  0
VERTEX
  5
6ECA
  8
0
 10
61.9121512297709273
 20
158.6757750341263886
 30
0.0
  0
VERTEX
  5
6ECB
  8
0
 10
60.863840613644193
 20
158.4322029439614994
 30
0.0
  0
VERTEX
  5
6ECC
  8
0
 10
59.8064537502528424
 20
158.2076902706224075
 30
0.0
  0
VERTEX
  5
6ECD
  8
0
 10
58.7405992454959502
 20
158.0032286442587974
 30
0.0
  0
VERTEX
  5
6ECE
  8
0
 10
57.6665767247710122
 20
157.8193869847899862
 30
0.0
  0
VERTEX
  5
6ECF
  8
0
 10
56.5851348114103416
 20
157.6571932581337876
 30
0.0
  0
VERTEX
  5
6ED0
  8
0
 10
55.4972834139718429
 20
157.517966211932702
 30
0.0
  0
VERTEX
  5
6ED1
  8
0
 10
54.4040324410134986
 20
157.4030245938288886
 30
0.0
  0
VERTEX
  5
6ED2
  8
0
 10
53.3064094156764483
 20
157.3134932680582097
 30
0.0
  0
VERTEX
  5
6ED3
  8
0
 10
52.2055250286462567
 20
157.2495816751826965
 30
0.0
  0
VERTEX
  5
6ED4
  8
0
 10
51.1025144928376491
 20
157.2112293400226122
 30
0.0
  0
VERTEX
  5
6ED5
  8
0
 10
49.9985130246744234
 20
157.1983757487728894
 30
0.0
  0
VERTEX
  5
6ED6
  8
0
 10
48.894647332804368
 20
157.2110096663575973
 30
0.0
  0
VERTEX
  5
6ED7
  8
0
 10
47.7920089874687122
 20
157.2493233863289959
 30
0.0
  0
VERTEX
  5
6ED8
  8
0
 10
46.6916795495515586
 20
157.3135527285928106
 30
0.0
  0
VERTEX
  5
6ED9
  8
0
 10
45.5946968858100306
 20
157.4035141970873042
 30
0.0
  0
VERTEX
  5
6EDA
  8
0
 10
44.5020375521758567
 20
157.5184359187792893
 30
0.0
  0
VERTEX
  5
6EDB
  8
0
 10
43.4146724305434688
 20
157.6574697862666881
 30
0.0
  0
VERTEX
  5
6EDC
  8
0
 10
42.3335627524986009
 20
157.8194812477649975
 30
0.0
  0
VERTEX
  5
6EDD
  8
0
 10
41.259664688648229
 20
158.0031855639170999
 30
0.0
  0
VERTEX
  5
6EDE
  8
0
 10
40.1938062241878811
 20
158.2074988710390926
 30
0.0
  0
VERTEX
  5
6EDF
  8
0
 10
39.1364046081598076
 20
158.4319444409088078
 30
0.0
  0
VERTEX
  5
6EE0
  8
0
 10
38.0880661883305223
 20
158.6755292803387078
 30
0.0
  0
VERTEX
  5
6EE1
  8
0
 10
37.0493278208111292
 20
158.9372143492250018
 30
0.0
  0
VERTEX
  5
6EE2
  8
0
 10
36.0207980485097892
 20
159.2162083609202909
 30
0.0
  0
VERTEX
  5
6EE3
  8
0
 10
35.0025662812071801
 20
159.5111971431254005
 30
0.0
  0
VERTEX
  5
6EE4
  8
0
 10
32.9999999999998295
 20
160.1478510859886057
 30
0.0
  0
SEQEND
  5
6EE5
  8
0
  0
POLYLINE
  5
64AD
  8
0
 66
     1
 10
0.0
 20
0.0
 30
0.0
  0
VERTEX
  5
6EE6
  8
0
 10
32.9999999999998295
 20
160.1478510859886057
 30
0.0
  0
VERTEX
  5
6EE7
  8
0
 10
32.8643484984878
 20
160.1928203230268082
 30
0.0
  0
SEQEND
  5
6EE8
  8
0
  0
ARC
  5
6675
  8
0
 10
75.7399039669299441
 20
142.1847351203109042
 30
0.0
 40
10.9899575635959597
 50
115.5497156847703053
 51
177.312698471590096
  0
LINE
  5
6677
  8
0
 10
71.0000000000499654
 20
152.0999999999999091
 30
0.0
 11
72.5142170220499906
 21
152.5542868777000081
 31
0.0
  0
LINE
  5
6690
  8
0
 10
53.9999999999999076
 20
60.7999552463998114
 30
0.0
 11
54.0000000000000497
 21
110.7999999999999972
 31
0.0
  0
LINE
  5
6691
  8
0
 10
54.0
 20
53.4999999999999005
 30
0.0
 11
54.0
 21
57.8001002039000014
 31
0.0
  0
LINE
  5
6692
  8
0
 10
46.0
 20
57.8000447535999911
 30
0.0
 11
46.0
 21
53.4999999999999005
 31
0.0
  0
LINE
  5
6693
  8
0
 10
46.0000000000000497
 20
110.7999999999999972
 30
0.0
 11
45.9999999999999289
 21
60.7999552464002235
 31
0.0
  0
LINE
  5
6694
  8
0
 10
46.0
 20
53.4999999999999005
 30
0.0
 11
46.2886751345999983
 21
53.0
 31
0.0
  0
LINE
  5
6695
  8
0
 10
53.7113248654000017
 20
53.0
 30
0.0
 11
54.0
 21
53.4999999999999005
 31
0.0
  0
LINE
  5
6696
  8
0
 10
54.0
 20
53.4999999999999005
 30
0.0
 11
46.0
 21
53.4999999999999005
 31
0.0
  0
LINE
  5
6697
  8
0
 10
53.7113248654000017
 20
53.0
 30
0.0
 11
46.2886751345999983
 21
53.0
 31
0.0
  0
LINE
  5
6698
  8
1
 10
50.0
 20
163.3000000000000114
 30
0.0
 11
50.0
 21
50.0
 31
0.0
  0
ARC
  5
6699
  8
0
 10
57.714726391533361
 20
59.2999552463998967
 30
0.0
 40
4.0061443014393356
 50
158.0112301569407123
 51
201.9887698430590888
  0
ARC
  5
669A
  8
0
 10
42.285273608466639
 20
59.2999552463998967
 30
0.0
 40
4.0061443014393356
 50
338.011230156940826
 51
21.9887698430592202
  0
ARC
  5
669B
  8
0
 10
53.25
 20
59.2999552463998398
 30
0.0
 40
1.4999999999999929
 50
297.2583934622599031
 51
62.7416065377401182
  0
ARC
  5
669C
  8
0
 10
46.7499999999999929
 20
59.2999552463998398
 30
0.0
 40
1.4999999999999929
 50
117.2583934622599031
 51
242.7416065377402106
  0
LINE
  5
669D
  8
1
 10
52.2085820900940121
 20
59.2999999999999829
 30
0.0
 11
56.25
 21
59.2999999999999829
 31
0.0
  0
LINE
  5
669E
  8
1
 10
47.7914179099059879
 20
59.2999999999999829
 30
0.0
 11
43.75
 21
59.2999999999999829
 31
0.0
  0
ARC
  5
66BA
  8
0
 10
64.8159303175951891
 20
252.1583495143576954
 30
0.0
 40
6.310403696050888
 50
58.4454263742335911
 51
60.5450030228196567
  0
ARC
  5
66BB
  8
0
 10
66.2060712977733488
 20
234.5817057059068986
 30
0.0
 40
3.5726169985720611
 50
298.6502976074007165
 51
302.3592729782769766
  0
ARC
  5
66BD
  8
0
 10
34.9173662731190007
 20
252.6060083909428045
 30
0.0
 40
5.7909238096313231
 50
119.3608128042948948
 51
121.6487578152472935
  0
ARC
  5
66BF
  8
0
 10
35.6136227465880779
 20
237.6753704650174086
 30
0.0
 40
7.1623385319995814
 50
238.5703065456933132
 51
240.4201228183077035
  0
ARC
  5
66C4
  8
0
 10
49.9985190916490865
 20
244.5497978174375078
 30
0.0
 40
22.9500000000000384
 50
332.502368830002581
 51
27.49763117009865
  0
ARC
  5
66C5
  8
0
 10
49.9985190916490865
 20
244.5497978174375078
 30
0.0
 40
22.9499999999999886
 50
152.5023688300024958
 51
207.4976311700986003
  0
LINE
  5
66C8
  8
0
 10
48.298519091649041
 20
245.5497978174375078
 30
0.0
 11
53.798519091649041
 21
245.5497978174375078
 31
0.0
  0
ARC
  5
66C9
  8
0
 10
51.0985190916489884
 20
245.4997978174374964
 30
0.0
 40
2.6457513110645912
 50
1.082852917497567
 51
178.9171470824992127
  0
LINE
  5
66CB
  8
0
 10
48.2985190916490978
 20
245.5497978174375078
 30
0.0
 11
48.2985190916489771
 21
243.5497978174375078
 31
0.0
  0
LINE
  5
66CC
  8
0
 10
48.298519091649041
 20
243.5497978174375078
 30
0.0
 11
53.798519091649041
 21
243.5497978174375078
 31
0.0
  0
LINE
  5
66CD
  8
0
 10
53.7985190916490907
 20
245.5497978174375078
 30
0.0
 11
53.7985190916489273
 21
243.5497978174375078
 31
0.0
  0
POLYLINE
  5
66E8
  8
0
 66
     1
 10
0.0
 20
0.0
 30
0.0
  0
VERTEX
  5
6EE9
  8
0
 10
29.6411823610768614
 20
255.1460868488906897
 30
0.0
  0
VERTEX
  5
6EEA
  8
0
 10
29.7107334408697206
 20
255.2742663082879915
 30
0.0
  0
VERTEX
  5
6EEB
  8
0
 10
29.7703384456140192
 20
255.3787078646805071
 30
0.0
  0
VERTEX
  5
6EEC
  8
0
 10
29.8214982186923407
 20
255.4647608728722048
 30
0.0
  0
VERTEX
  5
6EED
  8
0
 10
29.8667031785322514
 20
255.538259597359712
 30
0.0
  0
VERTEX
  5
6EEE
  8
0
 10
29.9076300187147091
 20
255.6028857326840011
 30
0.0
  0
VERTEX
  5
6EEF
  8
0
 10
29.9453487507332703
 20
255.6609257472321133
 30
0.0
  0
VERTEX
  5
6EF0
  8
0
 10
29.9805666766240009
 20
255.71386778268851
 30
0.0
  0
VERTEX
  5
6EF1
  8
0
 10
30.0137730849555808
 20
255.7627308658142056
 30
0.0
  0
VERTEX
  5
6EF2
  8
0
 10
30.0453198339818108
 20
255.8082424377583095
 30
0.0
  0
VERTEX
  5
6EF3
  8
0
 10
30.0754688783805513
 20
255.8509410673607078
 30
0.0
  0
VERTEX
  5
6EF4
  8
0
 10
30.1044209269787189
 20
255.8912375944844086
 30
0.0
  0
VERTEX
  5
6EF5
  8
0
 10
30.1323334556774398
 20
255.9294532091352892
 30
0.0
  0
VERTEX
  5
6EF6
  8
0
 10
30.1593325445097697
 20
255.9658442971305874
 30
0.0
  0
VERTEX
  5
6EF7
  8
0
 10
30.1855208645840811
 20
256.0006191108521989
 30
0.0
  0
VERTEX
  5
6EF8
  8
0
 10
30.210983264482941
 20
256.0339493752090902
 30
0.0
  0
VERTEX
  5
6EF9
  8
0
 10
30.2357908043745702
 20
256.0659786343387054
 30
0.0
  0
VERTEX
  5
6EFA
  8
0
 10
30.2600037102269006
 20
256.0968283425891059
 30
0.0
  0
VERTEX
  5
6EFB
  8
0
 10
30.2836735718991612
 20
256.1266023826083824
 30
0.0
  0
VERTEX
  5
6EFC
  8
0
 10
30.3068448384775593
 20
256.1553901355757148
 30
0.0
  0
VERTEX
  5
6EFD
  8
0
 10
30.3295561123585493
 20
256.1832691322658206
 30
0.0
  0
VERTEX
  5
6EFE
  8
0
 10
30.3518413766336188
 20
256.2103075509486985
 30
0.0
  0
VERTEX
  5
6EFF
  8
0
 10
30.3737306339203315
 20
256.2365655225303271
 30
0.0
  0
VERTEX
  5
6F00
  8
0
 10
30.3952501252645106
 20
256.2620955996754901
 30
0.0
  0
VERTEX
  5
6F01
  8
0
 10
30.4164238504396316
 20
256.2869457854159236
 30
0.0
  0
VERTEX
  5
6F02
  8
0
 10
30.4372735793443816
 20
256.3111595757953864
 30
0.0
  0
VERTEX
  5
6F03
  8
0
 10
30.4578160083472085
 20
256.3347704332597914
 30
0.0
  0
VERTEX
  5
6F04
  8
0
 10
30.4780696852227493
 20
256.3578153324286859
 30
0.0
  0
VERTEX
  5
6F05
  8
0
 10
30.4980599721498002
 20
256.3803444343241722
 30
0.0
  0
VERTEX
  5
6F06
  8
0
 10
30.5177839799532684
 20
256.402352729698805
 30
0.0
  0
VERTEX
  5
6F07
  8
0
 10
30.5372283326097396
 20
256.4238146921384214
 30
0.0
  0
VERTEX
  5
6F08
  8
0
 10
30.5565041588265593
 20
256.4449475349603063
 30
0.0
  0
SEQEND
  5
6F09
  8
0
  0
POLYLINE
  5
66E9
  8
0
 66
     1
 10
0.0
 20
0.0
 30
0.0
  0
VERTEX
  5
6F0A
  8
0
 10
30.5565041588265593
 20
232.6546480998929951
 30
0.0
  0
VERTEX
  5
6F0B
  8
0
 10
30.5211444623366788
 20
232.6935979156868086
 30
0.0
  0
VERTEX
  5
6F0C
  8
0
 10
30.4851826973402886
 20
232.733724829472493
 30
0.0
  0
VERTEX
  5
6F0D
  8
0
 10
30.4482164256569412
 20
232.7758170584166066
 30
0.0
  0
VERTEX
  5
6F0E
  8
0
 10
30.4102464547593208
 20
232.8198773692139127
 30
0.0
  0
VERTEX
  5
6F0F
  8
0
 10
30.3712030299038815
 20
232.8660472884367891
 30
0.0
  0
VERTEX
  5
6F10
  8
0
 10
30.3309145835372718
 20
232.9146683127397068
 30
0.0
  0
VERTEX
  5
6F11
  8
0
 10
30.2892109177952307
 20
232.9660815867306098
 30
0.0
  0
VERTEX
  5
6F12
  8
0
 10
30.2458794692005313
 20
233.0207140260679068
 30
0.0
  0
VERTEX
  5
6F13
  8
0
 10
30.2006399007558493
 20
233.0791293918678093
 30
0.0
  0
VERTEX
  5
6F14
  8
0
 10
30.153124172066331
 20
233.1420700158413126
 30
0.0
  0
VERTEX
  5
6F15
  8
0
 10
30.1028270540086815
 20
233.2105582898012983
 30
0.0
  0
VERTEX
  5
6F16
  8
0
 10
30.0490266100923691
 20
233.2860614593053015
 30
0.0
  0
VERTEX
  5
6F17
  8
0
 10
29.9906303517201387
 20
233.370812573290209
 30
0.0
  0
VERTEX
  5
6F18
  8
0
 10
29.9258528615847617
 20
233.4684923545839865
 30
0.0
  0
VERTEX
  5
6F19
  8
0
 10
29.8514532032535307
 20
233.5858759709579999
 30
0.0
  0
VERTEX
  5
6F1A
  8
0
 10
29.7606643212724293
 20
233.7375354035355031
 30
0.0
  0
VERTEX
  5
6F1B
  8
0
 10
29.6411823610957299
 20
233.9535087859480882
 30
0.0
  0
SEQEND
  5
6F1C
  8
0
  0
POLYLINE
  5
66EA
  8
0
 66
     1
 10
0.0
 20
0.0
 30
0.0
  0
VERTEX
  5
6F1D
  8
0
 10
70.3558558222213151
 20
233.9535087859842974
 30
0.0
  0
VERTEX
  5
6F1E
  8
0
 10
70.2863047425287277
 20
233.8253293265680099
 30
0.0
  0
VERTEX
  5
6F1F
  8
0
 10
70.2266997377839033
 20
233.7208877701748122
 30
0.0
  0
VERTEX
  5
6F20
  8
0
 10
70.1755399647055356
 20
233.6348347619826882
 30
0.0
  0
VERTEX
  5
6F21
  8
0
 10
70.1303350048654579
 20
233.5613360374950958
 30
0.0
  0
VERTEX
  5
6F22
  8
0
 10
70.0894081646828226
 20
233.4967099021704087
 30
0.0
  0
VERTEX
  5
6F23
  8
0
 10
70.0516894326644319
 20
233.4386698876222113
 30
0.0
  0
VERTEX
  5
6F24
  8
0
 10
70.0164715067734136
 20
233.3857278521655871
 30
0.0
  0
VERTEX
  5
6F25
  8
0
 10
69.9832650984417342
 20
233.3368647690398063
 30
0.0
  0
VERTEX
  5
6F26
  8
0
 10
69.9517183494155006
 20
233.2913531970957024
 30
0.0
  0
VERTEX
  5
6F27
  8
0
 10
69.921569305016817
 20
233.2486545674933041
 30
0.0
  0
VERTEX
  5
6F28
  8
0
 10
69.8926172564186459
 20
233.2083580403694043
 30
0.0
  0
VERTEX
  5
6F29
  8
0
 10
69.8647047277197544
 20
233.1701424257184101
 30
0.0
  0
VERTEX
  5
6F2A
  8
0
 10
69.837705638887428
 20
233.1337513377231119
 30
0.0
  0
VERTEX
  5
6F2B
  8
0
 10
69.8115173188129461
 20
233.0989765240016141
 30
0.0
  0
VERTEX
  5
6F2C
  8
0
 10
69.7860549189142603
 20
233.065646259644609
 30
0.0
  0
VERTEX
  5
6F2D
  8
0
 10
69.7612473790225067
 20
233.0336170005149086
 30
0.0
  0
VERTEX
  5
6F2E
  8
0
 10
69.7370344731702971
 20
233.0027672922643092
 30
0.0
  0
VERTEX
  5
6F2F
  8
0
 10
69.7133646114979797
 20
232.9729932522448905
 30
0.0
  0
VERTEX
  5
6F30
  8
0
 10
69.6901933449194644
 20
232.9442054992778139
 30
0.0
  0
VERTEX
  5
6F31
  8
0
 10
69.6674820710383642
 20
232.9163265025877934
 30
0.0
  0
VERTEX
  5
6F32
  8
0
 10
69.645196806763181
 20
232.8892880839048019
 30
0.0
  0
VERTEX
  5
6F33
  8
0
 10
69.6233075494765643
 20
232.8630301123230879
 30
0.0
  0
VERTEX
  5
6F34
  8
0
 10
69.6017880581323425
 20
232.8375000351778112
 30
0.0
  0
VERTEX
  5
6F35
  8
0
 10
69.5806143329572251
 20
232.8126498494372925
 30
0.0
  0
VERTEX
  5
6F36
  8
0
 10
69.5597646040525319
 20
232.7884360590578012
 30
0.0
  0
VERTEX
  5
6F37
  8
0
 10
69.5392221750496446
 20
232.7648252015933963
 30
0.0
  0
VERTEX
  5
6F38
  8
0
 10
69.5189684981741607
 20
232.7417803024245018
 30
0.0
  0
VERTEX
  5
6F39
  8
0
 10
69.498978211247163
 20
232.7192512005289018
 30
0.0
  0
VERTEX
  5
6F3A
  8
0
 10
69.4792542034437446
 20
232.6972429051544111
 30
0.0
  0
VERTEX
  5
6F3B
  8
0
 10
69.45980985078711
 20
232.6757809427147095
 30
0.0
  0
VERTEX
  5
6F3C
  8
0
 10
69.4405340245702831
 20
232.6546480998929951
 30
0.0
  0
SEQEND
  5
6F3D
  8
0
  0
POLYLINE
  5
66EB
  8
0
 66
     1
 10
0.0
 20
0.0
 30
0.0
  0
VERTEX
  5
6F3E
  8
0
 10
69.4405340245702831
 20
256.4449475349601926
 30
0.0
  0
VERTEX
  5
6F3F
  8
0
 10
69.4758937210602312
 20
256.4059977191661801
 30
0.0
  0
VERTEX
  5
6F40
  8
0
 10
69.5118554860565041
 20
256.3658708053804958
 30
0.0
  0
VERTEX
  5
6F41
  8
0
 10
69.5488217577399155
 20
256.3237785764363252
 30
0.0
  0
VERTEX
  5
6F42
  8
0
 10
69.5867917286375928
 20
256.279718265639076
 30
0.0
  0
VERTEX
  5
6F43
  8
0
 10
69.6258351534930284
 20
256.2335483464161143
 30
0.0
  0
VERTEX
  5
6F44
  8
0
 10
69.666123599859759
 20
256.184927322113424
 30
0.0
  0
VERTEX
  5
6F45
  8
0
 10
69.7078272656017361
 20
256.1335140481223789
 30
0.0
  0
VERTEX
  5
6F46
  8
0
 10
69.7511587141966061
 20
256.078881608785025
 30
0.0
  0
VERTEX
  5
6F47
  8
0
 10
69.7963982826413485
 20
256.0204662429850941
 30
0.0
  0
VERTEX
  5
6F48
  8
0
 10
69.8439140113306962
 20
255.9575256190113919
 30
0.0
  0
VERTEX
  5
6F49
  8
0
 10
69.8942111293885091
 20
255.8890373450512925
 30
0.0
  0
VERTEX
  5
6F4A
  8
0
 10
69.9480115733047683
 20
255.8135341755472894
 30
0.0
  0
VERTEX
  5
6F4B
  8
0
 10
70.0064078316769951
 20
255.7287830615622113
 30
0.0
  0
VERTEX
  5
6F4C
  8
0
 10
70.0711853218124929
 20
255.6311032802684906
 30
0.0
  0
VERTEX
  5
6F4D
  8
0
 10
70.1455849801438944
 20
255.5137196638943919
 30
0.0
  0
VERTEX
  5
6F4E
  8
0
 10
70.2363738621249354
 20
255.3620602313164909
 30
0.0
  0
VERTEX
  5
6F4F
  8
0
 10
70.3558558222024857
 20
255.1460868489268989
 30
0.0
  0
SEQEND
  5
6F50
  8
0
  0
POLYLINE
  5
66EC
  8
0
 66
     1
 10
0.0
 20
0.0
 30
0.0
  0
VERTEX
  5
6F51
  8
0
 10
66.9985190916899001
 20
231.0222050505533105
 30
0.0
  0
VERTEX
  5
6F52
  8
0
 10
67.1341705932101149
 20
231.0735428621449046
 30
0.0
  0
SEQEND
  5
6F53
  8
0
  0
POLYLINE
  5
66ED
  8
0
 66
     1
 10
0.0
 20
0.0
 30
0.0
  0
VERTEX
  5
6F54
  8
0
 10
32.9985190916990021
 20
258.0773905842972908
 30
0.0
  0
VERTEX
  5
6F55
  8
0
 10
32.8628675901868519
 20
258.0260527727082831
 30
0.0
  0
SEQEND
  5
6F56
  8
0
  0
POLYLINE
  5
66EE
  8
0
 66
     1
 10
0.0
 20
0.0
 30
0.0
  0
VERTEX
  5
6F57
  8
0
 10
32.8628675901777569
 20
231.0735428621484004
 30
0.0
  0
VERTEX
  5
6F58
  8
0
 10
32.9985190916962665
 20
231.0222050505566926
 30
0.0
  0
SEQEND
  5
6F59
  8
0
  0
POLYLINE
  5
66EF
  8
0
 66
     1
 10
0.0
 20
0.0
 30
0.0
  0
VERTEX
  5
6F5A
  8
0
 10
67.1341705932189825
 20
258.026052772704702
 30
0.0
  0
VERTEX
  5
6F5B
  8
0
 10
66.9985190916974034
 20
258.0773905842975751
 30
0.0
  0
SEQEND
  5
6F5C
  8
0
  0
POLYLINE
  5
66F1
  8
0
 66
     1
 10
0.0
 20
0.0
 30
0.0
  0
VERTEX
  5
6F5D
  8
0
 10
66.9985190916974034
 20
258.0773905842975751
 30
0.0
  0
VERTEX
  5
6F5E
  8
0
 10
66.0029062416735997
 20
258.4249328435677171
 30
0.0
  0
VERTEX
  5
6F5F
  8
0
 10
64.9958790855558846
 20
258.7527519896088961
 30
0.0
  0
VERTEX
  5
6F60
  8
0
 10
63.9779037976612699
 20
259.0604767479288171
 30
0.0
  0
VERTEX
  5
6F61
  8
0
 10
62.9493519175844014
 20
259.3475648552520738
 30
0.0
  0
VERTEX
  5
6F62
  8
0
 10
61.9106703214699792
 20
259.6135763061964212
 30
0.0
  0
VERTEX
  5
6F63
  8
0
 10
60.8623597053432377
 20
259.8581271342591776
 30
0.0
  0
VERTEX
  5
6F64
  8
0
 10
59.8049728419518871
 20
260.0808653623436726
 30
0.0
  0
VERTEX
  5
6F65
  8
0
 10
58.7391183371950092
 20
260.2814441077845231
 30
0.0
  0
VERTEX
  5
6F66
  8
0
 10
57.6650958164700569
 20
260.4587774057483784
 30
0.0
  0
VERTEX
  5
6F67
  8
0
 10
56.5836539031093935
 20
260.6126730109194796
 30
0.0
  0
VERTEX
  5
6F68
  8
0
 10
55.4958025056708877
 20
260.7434720750201222
 30
0.0
  0
VERTEX
  5
6F69
  8
0
 10
54.4025515327125504
 20
260.8515157497722043
 30
0.0
  0
VERTEX
  5
6F6A
  8
0
 10
53.3049285073755073
 20
260.9369643727623043
 30
0.0
  0
VERTEX
  5
6F6B
  8
0
 10
52.2040441203453227
 20
260.9991245646793914
 30
0.0
  0
VERTEX
  5
6F6C
  8
0
 10
51.101033584536701
 20
261.0370512249206172
 30
0.0
  0
VERTEX
  5
6F6D
  8
0
 10
49.9970321163734681
 20
261.0497992168615156
 30
0.0
  0
VERTEX
  5
6F6E
  8
0
 10
48.8931664245034199
 20
261.0367657730370183
 30
0.0
  0
VERTEX
  5
6F6F
  8
0
 10
47.7905280791677569
 20
260.9987621625506904
 30
0.0
  0
VERTEX
  5
6F70
  8
0
 10
46.6901986412506105
 20
260.9369548718943861
 30
0.0
  0
VERTEX
  5
6F71
  8
0
 10
45.5932159775090824
 20
260.8520547402100078
 30
0.0
  0
VERTEX
  5
6F72
  8
0
 10
44.5005566438749085
 20
260.7441332495869801
 30
0.0
  0
VERTEX
  5
6F73
  8
0
 10
43.4131915222425278
 20
260.6131946111751745
 30
0.0
  0
VERTEX
  5
6F74
  8
0
 10
42.3320818441976527
 20
260.4590703115250108
 30
0.0
  0
VERTEX
  5
6F75
  8
0
 10
41.2581837803472808
 20
260.2815012771242777
 30
0.0
  0
VERTEX
  5
6F76
  8
0
 10
40.1923253158869329
 20
260.0806204013063052
 30
0.0
  0
VERTEX
  5
6F77
  8
0
 10
39.1349236998588594
 20
259.8577374362529895
 30
0.0
  0
VERTEX
  5
6F78
  8
0
 10
38.086585280029567
 20
259.6131767400590888
 30
0.0
  0
VERTEX
  5
6F79
  8
0
 10
37.047846912510181
 20
259.3472585171296032
 30
0.0
  0
VERTEX
  5
6F7A
  8
0
 10
36.019317140208841
 20
259.0601667225494111
 30
0.0
  0
VERTEX
  5
6F7B
  8
0
 10
35.0010853729062319
 20
258.7528930725035821
 30
0.0
  0
VERTEX
  5
6F7C
  8
0
 10
33.994516907858717
 20
258.4243342053671881
 30
0.0
  0
VERTEX
  5
6F7D
  8
0
 10
32.9985190916990021
 20
258.0773905842972908
 30
0.0
  0
SEQEND
  5
6F7E
  8
0
  0
POLYLINE
  5
66F2
  8
0
 66
     1
 10
0.0
 20
0.0
 30
0.0
  0
VERTEX
  5
6F7F
  8
0
 10
32.9985190916962665
 20
231.0222050505566926
 30
0.0
  0
VERTEX
  5
6F80
  8
0
 10
33.9941323498580914
 20
230.6746630582138096
 30
0.0
  0
VERTEX
  5
6F81
  8
0
 10
35.0011595224174172
 20
230.3468435571510895
 30
0.0
  0
VERTEX
  5
6F82
  8
0
 10
36.0191350309062273
 20
230.0391187881803035
 30
0.0
  0
VERTEX
  5
6F83
  8
0
 10
37.0476871432013013
 20
229.7520306943341097
 30
0.0
  0
VERTEX
  5
6F84
  8
0
 10
38.0863689691618674
 20
229.4860192496979892
 30
0.0
  0
VERTEX
  5
6F85
  8
0
 10
39.1346798170540069
 20
229.2414684187143905
 30
0.0
  0
VERTEX
  5
6F86
  8
0
 10
40.1920669527186121
 20
229.0187302456706107
 30
0.0
  0
VERTEX
  5
6F87
  8
0
 10
41.2579222648487303
 20
228.8181525924640027
 30
0.0
  0
VERTEX
  5
6F88
  8
0
 10
42.3319474527003194
 20
228.640824265645989
 30
0.0
  0
VERTEX
  5
6F89
  8
0
 10
43.4133902256169222
 20
228.486929214566004
 30
0.0
  0
VERTEX
  5
6F8A
  8
0
 10
44.5012411438768822
 20
228.3561260081349076
 30
0.0
  0
VERTEX
  5
6F8B
  8
0
 10
45.5944907677582023
 20
228.2480732152631049
 30
0.0
  0
VERTEX
  5
6F8C
  8
0
 10
46.6921115891854015
 20
228.1626154955326058
 30
0.0
  0
VERTEX
  5
6F8D
  8
0
 10
47.7929930281582074
 20
228.1004530878576873
 30
0.0
  0
VERTEX
  5
6F8E
  8
0
 10
48.8960006455104121
 20
228.0625319629045862
 30
0.0
  0
VERTEX
  5
6F8F
  8
0
 10
50.0
 20
228.0497981127170988
 30
0.0
  0
VERTEX
  5
6F90
  8
0
 10
51.1038651700962419
 20
228.0628430833750997
 30
0.0
  0
VERTEX
  5
6F91
  8
0
 10
52.206504176263131
 20
228.100846330481005
 30
0.0
  0
VERTEX
  5
6F92
  8
0
 10
53.3068345121716902
 20
228.1626462296196109
 30
0.0
  0
VERTEX
  5
6F93
  8
0
 10
54.4038183604035268
 20
228.2475414785278929
 30
0.0
  0
VERTEX
  5
6F94
  8
0
 10
55.4964790050993315
 20
228.3554601570513114
 30
0.0
  0
VERTEX
  5
6F95
  8
0
 10
56.5838452370144225
 20
228.4863960876953115
 30
0.0
  0
VERTEX
  5
6F96
  8
0
 10
57.664955393273317
 20
228.6405196263440018
 30
0.0
  0
VERTEX
  5
6F97
  8
0
 10
58.738852712245027
 20
228.81809171397299
 30
0.0
  0
VERTEX
  5
6F98
  8
0
 10
59.8047108574825188
 20
229.0189741037553119
 30
0.0
  0
VERTEX
  5
6F99
  8
0
 10
60.8621130588261323
 20
229.2418556440117925
 30
0.0
  0
VERTEX
  5
6F9A
  8
0
 10
61.9104517738406912
 20
229.486416478637608
 30
0.0
  0
VERTEX
  5
6F9B
  8
0
 10
62.9491904059598184
 20
229.752335060871502
 30
0.0
  0
VERTEX
  5
6F9C
  8
0
 10
63.9777201951019379
 20
230.0394277917561112
 30
0.0
  0
VERTEX
  5
6F9D
  8
0
 10
64.9959531231328356
 20
230.3467005191741066
 30
0.0
  0
VERTEX
  5
6F9E
  8
0
 10
66.0025194072454724
 20
230.6752638050236044
 30
0.0
  0
VERTEX
  5
6F9F
  8
0
 10
66.9985190916899001
 20
231.0222050505533105
 30
0.0
  0
SEQEND
  5
6FA0
  8
0
  0
POLYLINE
  5
66F3
  8
0
 66
     1
 10
0.0
 20
0.0
 30
0.0
  0
VERTEX
  5
6FA1
  8
0
 10
32.0780312990334622
 20
257.6530843239845012
 30
0.0
  0
VERTEX
  5
6FA2
  8
0
 10
32.2323463212815113
 20
257.7372407137816026
 30
0.0
  0
VERTEX
  5
6FA3
  8
0
 10
32.3886411617073691
 20
257.8169710682653886
 30
0.0
  0
VERTEX
  5
6FA4
  8
0
 10
32.5464567856593092
 20
257.8918057054681867
 30
0.0
  0
VERTEX
  5
6FA5
  8
0
 10
32.7049425111654273
 20
257.9616758928237914
 30
0.0
  0
VERTEX
  5
6FA6
  8
0
 10
32.8628675901868519
 20
258.0260527727082831
 30
0.0
  0
SEQEND
  5
6FA7
  8
0
  0
POLYLINE
  5
66F4
  8
0
 66
     1
 10
0.0
 20
0.0
 30
0.0
  0
VERTEX
  5
6FA8
  8
0
 10
32.8628675901777569
 20
231.0735428621484004
 30
0.0
  0
VERTEX
  5
6FA9
  8
0
 10
32.7313409374038429
 20
231.126809504955304
 30
0.0
  0
VERTEX
  5
6FAA
  8
0
 10
32.5992579519700101
 20
231.1839291697760927
 30
0.0
  0
VERTEX
  5
6FAB
  8
0
 10
32.4674214120618672
 20
231.2445952011202053
 30
0.0
  0
VERTEX
  5
6FAC
  8
0
 10
32.3363380346419333
 20
231.3086656956324134
 30
0.0
  0
VERTEX
  5
6FAD
  8
0
 10
32.2064721542117169
 20
231.3760645801008025
 30
0.0
  0
VERTEX
  5
6FAE
  8
0
 10
32.0780312989843992
 20
231.4465113108385879
 30
0.0
  0
SEQEND
  5
6FAF
  8
0
  0
POLYLINE
  5
66F5
  8
0
 66
     1
 10
0.0
 20
0.0
 30
0.0
  0
VERTEX
  5
6FB0
  8
0
 10
67.9190068843633838
 20
231.4465113108686012
 30
0.0
  0
VERTEX
  5
6FB1
  8
0
 10
67.7646918621153418
 20
231.3623549210713861
 30
0.0
  0
VERTEX
  5
6FB2
  8
0
 10
67.608397021689143
 20
231.2826245665879128
 30
0.0
  0
VERTEX
  5
6FB3
  8
0
 10
67.4505813977374231
 20
231.207789929385001
 30
0.0
  0
VERTEX
  5
6FB4
  8
0
 10
67.2920956722313122
 20
231.137919742029311
 30
0.0
  0
VERTEX
  5
6FB5
  8
0
 10
67.1341705932101149
 20
231.0735428621449046
 30
0.0
  0
SEQEND
  5
6FB6
  8
0
  0
POLYLINE
  5
66F6
  8
0
 66
     1
 10
0.0
 20
0.0
 30
0.0
  0
VERTEX
  5
6FB7
  8
0
 10
67.1341705932189825
 20
258.026052772704702
 30
0.0
  0
VERTEX
  5
6FB8
  8
0
 10
67.2656972459928966
 20
257.9727861298978269
 30
0.0
  0
VERTEX
  5
6FB9
  8
0
 10
67.3977802314269638
 20
257.9156664650770949
 30
0.0
  0
VERTEX
  5
6FBA
  8
0
 10
67.529616771334986
 20
257.8550004337329824
 30
0.0
  0
VERTEX
  5
6FBB
  8
0
 10
67.6607001487549269
 20
257.790929939220689
 30
0.0
  0
VERTEX
  5
6FBC
  8
0
 10
67.7905660291851291
 20
257.7235310547524136
 30
0.0
  0
VERTEX
  5
6FBD
  8
0
 10
67.9190068844137613
 20
257.6530843239361843
 30
0.0
  0
SEQEND
  5
6FBE
  8
0
  0
POLYLINE
  5
66F7
  8
0
 66
     1
 10
0.0
 20
0.0
 30
0.0
  0
VERTEX
  5
6FBF
  8
0
 10
31.8788076152898192
 20
231.5638854423744135
 30
0.0
  0
VERTEX
  5
6FC0
  8
0
 10
31.7592455629608104
 20
231.639358959368991
 30
0.0
  0
VERTEX
  5
6FC1
  8
0
 10
31.6414842567207906
 20
231.7172317113447946
 30
0.0
  0
VERTEX
  5
6FC2
  8
0
 10
31.52594694089521
 20
231.7977234773383088
 30
0.0
  0
VERTEX
  5
6FC3
  8
0
 10
31.4126331966621208
 20
231.8804293005495936
 30
0.0
  0
VERTEX
  5
6FC4
  8
0
 10
31.3017316516836708
 20
231.9653085777484023
 30
0.0
  0
VERTEX
  5
6FC5
  8
0
 10
31.1933272533440196
 20
232.052205358110001
 30
0.0
  0
VERTEX
  5
6FC6
  8
0
 10
31.0875077153223209
 20
232.1409829080203053
 30
0.0
  0
VERTEX
  5
6FC7
  8
0
 10
30.9844823060417411
 20
232.231386602213405
 30
0.0
  0
VERTEX
  5
6FC8
  8
0
 10
30.8845997441255804
 20
232.3229992006203872
 30
0.0
  0
VERTEX
  5
6FC9
  8
0
 10
30.7884349074179191
 20
232.4151128451175055
 30
0.0
  0
VERTEX
  5
6FCA
  8
0
 10
30.6968218662511916
 20
232.5066672691656038
 30
0.0
  0
VERTEX
  5
6FCB
  8
0
 10
30.6115966576476204
 20
232.595378980733301
 30
0.0
  0
VERTEX
  5
6FCC
  8
0
 10
30.5565041588265593
 20
232.6546480998929951
 30
0.0
  0
SEQEND
  5
6FCD
  8
0
  0
POLYLINE
  5
66F8
  8
0
 66
     1
 10
0.0
 20
0.0
 30
0.0
  0
VERTEX
  5
6FCE
  8
0
 10
30.5565041588265593
 20
256.4449475349603063
 30
0.0
  0
VERTEX
  5
6FCF
  8
0
 10
30.6111191950436705
 20
256.5037079692223188
 30
0.0
  0
VERTEX
  5
6FD0
  8
0
 10
30.6964411134699802
 20
256.5925396263435232
 30
0.0
  0
VERTEX
  5
6FD1
  8
0
 10
30.7880607252653817
 20
256.6841171734811837
 30
0.0
  0
VERTEX
  5
6FD2
  8
0
 10
30.8842079553634186
 20
256.7762263270083736
 30
0.0
  0
VERTEX
  5
6FD3
  8
0
 10
30.9841025912664882
 20
256.8678708285016796
 30
0.0
  0
VERTEX
  5
6FD4
  8
0
 10
31.0871487519613083
 20
256.9583165939624791
 30
0.0
  0
VERTEX
  5
6FD5
  8
0
 10
31.1930221935646195
 20
257.0471144341900072
 30
0.0
  0
VERTEX
  5
6FD6
  8
0
 10
31.3014948342348589
 20
257.1340323922885887
 30
0.0
  0
VERTEX
  5
6FD7
  8
0
 10
31.4124034991062899
 20
257.2190330301345966
 30
0.0
  0
VERTEX
  5
6FD8
  8
0
 10
31.5256734627554387
 20
257.3019330679238124
 30
0.0
  0
VERTEX
  5
6FD9
  8
0
 10
31.6414137239403317
 20
257.3822133321014007
 30
0.0
  0
VERTEX
  5
6FDA
  8
0
 10
31.7594807972731097
 20
257.4597259980749868
 30
0.0
  0
VERTEX
  5
6FDB
  8
0
 10
31.8788076152191593
 20
257.5357101924169001
 30
0.0
  0
SEQEND
  5
6FDC
  8
0
  0
POLYLINE
  5
66F9
  8
0
 66
     1
 10
0.0
 20
0.0
 30
0.0
  0
VERTEX
  5
6FDD
  8
0
 10
68.1182305681066964
 20
257.5357101924789731
 30
0.0
  0
VERTEX
  5
6FDE
  8
0
 10
68.2377926204356839
 20
257.460236675484623
 30
0.0
  0
VERTEX
  5
6FDF
  8
0
 10
68.355553926675384
 20
257.3823639235087057
 30
0.0
  0
VERTEX
  5
6FE0
  8
0
 10
68.47109124250062
 20
257.3018721575153904
 30
0.0
  0
VERTEX
  5
6FE1
  8
0
 10
68.5844049867334888
 20
257.2191663343043047
 30
0.0
  0
VERTEX
  5
6FE2
  8
0
 10
68.695306531712049
 20
257.1342870571053822
 30
0.0
  0
VERTEX
  5
6FE3
  8
0
 10
68.80371093005283
 20
257.047390276742874
 30
0.0
  0
VERTEX
  5
6FE4
  8
0
 10
68.9095304680756726
 20
256.9586127268318023
 30
0.0
  0
VERTEX
  5
6FE5
  8
0
 10
69.0125558773563625
 20
256.8682090326386174
 30
0.0
  0
VERTEX
  5
6FE6
  8
0
 10
69.1124384392717275
 20
256.7765964342322036
 30
0.0
  0
VERTEX
  5
6FE7
  8
0
 10
69.2086032759799537
 20
256.6844827897344885
 30
0.0
  0
VERTEX
  5
6FE8
  8
0
 10
69.3002163171461234
 20
256.5929283656871007
 30
0.0
  0
VERTEX
  5
6FE9
  8
0
 10
69.3854415257494566
 20
256.5042166541193751
 30
0.0
  0
VERTEX
  5
6FEA
  8
0
 10
69.4405340245702831
 20
256.4449475349601926
 30
0.0
  0
SEQEND
  5
6FEB
  8
0
  0
POLYLINE
  5
66FA
  8
0
 66
     1
 10
0.0
 20
0.0
 30
0.0
  0
VERTEX
  5
6FEC
  8
0
 10
69.4405340245702831
 20
232.6546480998929951
 30
0.0
  0
VERTEX
  5
6FED
  8
0
 10
69.3859189883531826
 20
232.595887665631011
 30
0.0
  0
VERTEX
  5
6FEE
  8
0
 10
69.3005970699267664
 20
232.5070560085094939
 30
0.0
  0
VERTEX
  5
6FEF
  8
0
 10
69.2089774581311303
 20
232.4154784613716913
 30
0.0
  0
VERTEX
  5
6FF0
  8
0
 10
69.1128302280335447
 20
232.3233693078448141
 30
0.0
  0
VERTEX
  5
6FF1
  8
0
 10
69.012935592130475
 20
232.2317248063513944
 30
0.0
  0
VERTEX
  5
6FF2
  8
0
 10
68.9098894314355448
 20
232.1412790408905096
 30
0.0
  0
VERTEX
  5
6FF3
  8
0
 10
68.8040159898321235
 20
232.0524812006630953
 30
0.0
  0
VERTEX
  5
6FF4
  8
0
 10
68.6955433491619942
 20
231.9655632425647127
 30
0.0
  0
VERTEX
  5
6FF5
  8
0
 10
68.5846346842905632
 20
231.8805626047187047
 30
0.0
  0
VERTEX
  5
6FF6
  8
0
 10
68.471364720641418
 20
231.797662566929489
 30
0.0
  0
VERTEX
  5
6FF7
  8
0
 10
68.3556244594565214
 20
231.7173823027517869
 30
0.0
  0
VERTEX
  5
6FF8
  8
0
 10
68.2375573861237399
 20
231.6398696367782009
 30
0.0
  0
VERTEX
  5
6FF9
  8
0
 10
68.1182305681791149
 20
231.5638854423580142
 30
0.0
  0
SEQEND
  5
6FFA
  8
0
  0
CIRCLE
  5
6808
  8
0
 10
69.4985190916490296
 20
244.5497978174375078
 30
0.0
 40
1.549958205888841
  0
LINE
  5
6809
  8
1
 10
24.0485190916491014
 20
244.5497978174375078
 30
0.0
 11
75.948519091649132
 21
244.5497978174375078
 31
0.0
  0
LINE
  5
680A
  8
1
 10
49.9985190916490865
 20
225.049615640767513
 30
0.0
 11
49.9985190916490225
 21
264.0499820425173993
 31
0.0
  0
LINE
  5
6811
  8
1
 10
69.4985190916490296
 20
240.9998396115485946
 30
0.0
 11
69.4985190916490296
 21
248.0997560233263073
 31
0.0
  0
CIRCLE
  5
683A
  8
0
 10
49.9985190916491433
 20
244.5497978174375078
 30
0.0
 40
7.3999999999996362
  0
CIRCLE
  5
683B
  8
0
 10
49.9985190916490865
 20
244.5497978174375078
 30
0.0
 40
6.4500000000000064
  0
CIRCLE
  5
683D
  8
0
 10
49.9985190916490865
 20
244.5497978174375078
 30
0.0
 40
7.5500000000000158
  0
CIRCLE
  5
683F
  8
0
 10
49.9985190916490225
 20
244.549798841642513
 30
0.0
 40
10.9999999999999893
  0
LINE
  5
6840
  8
0
 10
53.277241633791391
 20
255.0497978174350919
 30
0.0
 11
46.7197965495066114
 21
255.0497978174350919
 31
0.0
  0
LINE
  5
6841
  8
0
 10
42.5446132464746185
 20
252.6392541787633945
 30
0.0
 11
39.2658923443354411
 21
246.9603429924202089
 31
0.0
  0
LINE
  5
6842
  8
0
 10
39.265893097339017
 20
242.1392513382191964
 30
0.0
 11
42.5446107195003194
 21
236.4603458329642933
 31
0.0
  0
LINE
  5
6843
  8
0
 10
46.7198031094778727
 20
234.0497978174398952
 30
0.0
 11
53.2772350738200089
 21
234.0497978174398099
 31
0.0
  0
LINE
  5
6844
  8
0
 10
57.4524274637973917
 20
236.4603458329640091
 30
0.0
 11
60.7311450859591488
 21
242.1392513382195091
 31
0.0
  0
LINE
  5
6845
  8
0
 10
60.7311458389628385
 20
246.9603429924192142
 30
0.0
 11
57.4524249368231494
 21
252.6392541787637072
 31
0.0
  0
LINE
  5
687D
  8
2
 10
55.9500000000780915
 20
154.9999999999884039
 30
0.0
 11
44.0500000000781071
 21
154.9999999999884039
 31
0.0
  0
ARC
  5
687E
  8
2
 10
44.0373176158869271
 20
154.5126823841796124
 30
0.0
 40
0.4874826166606598
 50
88.5092205165366153
 51
181.4907794834693107
  0
ARC
  5
687F
  8
2
 10
55.9772316422913718
 20
154.5272316422017127
 30
0.0
 40
0.4735519849625659
 50
356.7033833269035767
 51
93.2966166730910089
  0
LINE
  5
6880
  8
2
 10
43.5500000000781071
 20
154.4999999999884039
 30
0.0
 11
43.5500000000780503
 21
154.3000000000000114
 31
0.0
  0
LINE
  5
6881
  8
2
 10
56.4500000000779707
 20
154.2999999999998977
 30
0.0
 11
56.4500000000780915
 21
154.4999999999884039
 31
0.0
  0
LINE
  5
688F
  8
2
 10
38.9999999999895977
 20
154.3000000000000114
 30
0.0
 11
61.0000000000092086
 21
154.3000000000000114
 31
0.0
  0
ARC
  5
6891
  8
2
 10
27.7991069684057415
 20
159.4966671607114108
 30
0.0
 40
0.803333335661407
 50
60.0636933038869785
 51
89.936306699114553
  0
ARC
  5
6894
  8
2
 10
82.4785429093738145
 20
250.0751866672329129
 30
0.0
 40
104.9999999999936051
 50
238.8728844716382866
 51
245.5385212731758884
  0
LINE
  5
6898
  8
2
 10
61.0000000000092086
 20
154.5000000000042064
 30
0.0
 11
61.0000000000092086
 21
154.2999999999998977
 31
0.0
  0
LINE
  5
6899
  8
2
 10
38.9999999999896616
 20
154.5000000000046043
 30
0.0
 11
38.9999999999895977
 21
154.3000000000000114
 31
0.0
  0
ARC
  5
689A
  8
2
 10
72.2008930316023907
 20
159.4966671606717057
 30
0.0
 40
0.803333335661407
 50
90.0636933007844931
 51
119.9363066960117976
  0
ARC
  5
689B
  8
2
 10
17.5271835949292303
 20
250.0643227651713971
 30
0.0
 40
104.9877400068923947
 50
294.4610890955681839
 51
301.1275051592480736
  0
LINE
  5
69D3
  8
3
 10
55.9499999999994202
 20
160.0500000000008072
 30
0.0
 11
44.0499999999994429
 21
160.0500000000008072
 31
0.0
  0
ARC
  5
69D4
  8
3
 10
44.0373176158082629
 20
159.5626823841919872
 30
0.0
 40
0.4874826166606598
 50
88.5092205165366153
 51
181.4907794834691117
  0
ARC
  5
69D5
  8
3
 10
55.9772316422127005
 20
159.5772316422140875
 30
0.0
 40
0.4735519849625659
 50
356.7033833269038041
 51
93.2966166730910089
  0
LINE
  5
69D6
  8
3
 10
43.5499999999994429
 20
159.5500000000008072
 30
0.0
 11
43.5499999999994927
 21
159.2500000000007958
 31
0.0
  0
LINE
  5
69D7
  8
3
 10
56.4499999999993634
 20
159.2500000000007958
 30
0.0
 11
56.4499999999994202
 21
159.5500000000008072
 31
0.0
  0
LINE
  5
69D8
  8
3
 10
57.218014999998779
 20
159.2500000000007958
 30
0.0
 11
42.7819849999995085
 21
159.2500000000007958
 31
0.0
  0
LINE
  5
69D9
  8
3
 10
42.7819849999993878
 20
159.2500000000007958
 30
0.0
 11
42.5999999999992198
 21
158.7500000000017053
 31
0.0
  0
LINE
  5
69DA
  8
3
 10
57.399999999998947
 20
158.7500000000017053
 30
0.0
 11
57.218014999998779
 21
159.2500000000007958
 31
0.0
  0
LINE
  5
69DB
  8
3
 10
57.399999999998947
 20
154.2958333333355085
 30
0.0
 11
57.399999999998947
 21
158.7500000000017053
 31
0.0
  0
LINE
  5
69DC
  8
3
 10
42.5999999999992198
 20
158.7500000000017053
 30
0.0
 11
42.5999999999992198
 21
154.2958333333355085
 31
0.0
  0
LINE
  5
69DD
  8
3
 10
56.1999999999782176
 20
162.0626633025335082
 30
0.0
 11
56.199999999986737
 21
160.4500000000334126
 31
0.0
  0
ARC
  5
69DE
  8
3
 10
69.1992280550653618
 20
162.0629664606751135
 30
0.0
 40
12.9992280586221494
 50
137.1168240446469895
 51
180.001336208732198
  0
ARC
  5
69DF
  8
3
 10
35.4622196036598325
 20
161.8748878413964007
 30
0.0
 40
12.9378043341225002
 50
359.889782754765406
 51
43.7130362185452128
  0
CIRCLE
  5
69E0
  8
3
 10
52.1999999998713022
 20
182.3500000000123862
 30
0.0
 40
2.7499999999999849
  0
ARC
  5
69E1
  8
3
 10
52.1999999998950486
 20
177.8500000000123862
 30
0.0
 40
10.2000000000000401
 50
317.1181602530032251
 51
223.6028189730016038
  0
LINE
  5
69E2
  8
3
 10
48.3999999999888431
 20
160.0499999999923091
 30
0.0
 11
48.3999999999793431
 21
161.849999999992292
 31
0.0
  0
ARC
  5
69E3
  8
3
 10
55.800009688760781
 20
160.4499903112572099
 30
0.0
 40
0.3999903113433063
 50
269.9986121520311144
 51
0.0013878485917815
  0
LINE
  5
69F8
  8
1
 10
129.4500000000001023
 20
163.3000000000000114
 30
0.0
 11
129.4500000000001023
 21
50.0
 31
0.0
  0
LINE
  5
6A03
  8
0
 10
133.4500000000001023
 20
53.5000000000000995
 30
0.0
 11
133.4500000000001023
 21
110.7999999999999972
 31
0.0
  0
LINE
  5
6A04
  8
0
 10
125.4500000000001023
 20
110.7999999999999972
 30
0.0
 11
125.4500000000001023
 21
53.5000000000000426
 31
0.0
  0
LINE
  5
6A05
  8
0
 10
125.4500000000001023
 20
53.5000000000000568
 30
0.0
 11
125.7386751346001006
 21
53.0
 31
0.0
  0
LINE
  5
6A06
  8
0
 10
133.161324865400104
 20
53.0
 30
0.0
 11
133.4500000000001023
 21
53.5000000000000568
 31
0.0
  0
LINE
  5
6A07
  8
0
 10
133.161324865400104
 20
53.0
 30
0.0
 11
125.7386751346001006
 21
53.0
 31
0.0
  0
LINE
  5
6A08
  8
0
 10
133.4500000000001023
 20
53.5000000000000568
 30
0.0
 11
125.4500000000001023
 21
53.5000000000000568
 31
0.0
  0
LINE
  5
6A09
  8
1
 10
125.9500214427309004
 20
59.2999999999999829
 30
0.0
 11
132.9500214427309004
 21
59.2999999999999829
 31
0.0
  0
CIRCLE
  5
6A0A
  8
0
 10
129.4500214427309004
 20
59.2999999999999901
 30
0.0
 40
1.5
  0
POLYLINE
  5
6A12
  8
0
 66
     1
 10
0.0
 20
0.0
 30
0.0
  0
VERTEX
  5
6FFB
  8
0
 10
145.9500000000001023
 20
148.1317510873359993
 30
0.0
  0
VERTEX
  5
6FFC
  8
0
 10
145.9410786640048912
 20
148.1624981802833076
 30
0.0
  0
VERTEX
  5
6FFD
  8
0
 10
145.9264778260877051
 20
148.2111451948265142
 30
0.0
  0
VERTEX
  5
6FFE
  8
0
 10
145.9088718280796115
 20
148.2675907075170016
 30
0.0
  0
VERTEX
  5
6FFF
  8
0
 10
145.8865399135463861
 20
148.3364190016044972
 30
0.0
  0
VERTEX
  5
7000
  8
0
 10
145.8583267358347086
 20
148.4204211646205067
 30
0.0
  0
VERTEX
  5
7001
  8
0
 10
145.8245641185723969
 20
148.517634798633992
 30
0.0
  0
VERTEX
  5
7002
  8
0
 10
145.7857727024982069
 20
148.6254985238269057
 30
0.0
  0
VERTEX
  5
7003
  8
0
 10
145.7421695278383993
 20
148.7424828176208962
 30
0.0
  0
VERTEX
  5
7004
  8
0
 10
145.6937532798316113
 20
148.8678002878513098
 30
0.0
  0
VERTEX
  5
7005
  8
0
 10
145.5826546206133116
 20
149.140036218593508
 30
0.0
  0
VERTEX
  5
7006
  8
0
 10
145.4534401708449991
 20
149.4343218519383072
 30
0.0
  0
VERTEX
  5
7007
  8
0
 10
145.3059006115823024
 20
149.7425018862855097
 30
0.0
  0
VERTEX
  5
7008
  8
0
 10
145.1389569479096906
 20
150.0572733681223951
 30
0.0
  0
VERTEX
  5
7009
  8
0
 10
144.9533111023287972
 20
150.3743236508211965
 30
0.0
  0
VERTEX
  5
700A
  8
0
 10
144.7500386295409953
 20
150.6900382226207
 30
0.0
  0
VERTEX
  5
700B
  8
0
 10
144.5281549988771985
 20
150.9994866807637095
 30
0.0
  0
VERTEX
  5
700C
  8
0
 10
144.2846165717614895
 20
151.2964233558288072
 30
0.0
  0
VERTEX
  5
700D
  8
0
 10
144.0174961320985858
 20
151.5758760333247039
 30
0.0
  0
VERTEX
  5
700E
  8
0
 10
143.7326108162972105
 20
151.8414178224180091
 30
0.0
  0
VERTEX
  5
700F
  8
0
 10
143.4388392857136125
 20
152.0999999999853003
 30
0.0
  0
SEQEND
  5
7010
  8
0
  0
POLYLINE
  5
6A13
  8
0
 66
     1
 10
0.0
 20
0.0
 30
0.0
  0
VERTEX
  5
7011
  8
0
 10
112.9500000000000028
 20
157.1983930612254028
 30
0.0
  0
VERTEX
  5
7012
  8
0
 10
112.9563739394534991
 20
157.2043564149145993
 30
0.0
  0
VERTEX
  5
7013
  8
0
 10
113.0030599864306993
 20
157.2513889254028925
 30
0.0
  0
VERTEX
  5
7014
  8
0
 10
113.0631168365837027
 20
157.3137597574113897
 30
0.0
  0
VERTEX
  5
7015
  8
0
 10
113.1470697611866996
 20
157.4026019553539868
 30
0.0
  0
VERTEX
  5
7016
  8
0
 10
113.2555323403537955
 20
157.5182353949498122
 30
0.0
  0
VERTEX
  5
7017
  8
0
 10
113.3861696031024024
 20
157.6572524063527965
 30
0.0
  0
VERTEX
  5
7018
  8
0
 10
113.5401176306804985
 20
157.8189765996741869
 30
0.0
  0
VERTEX
  5
7019
  8
0
 10
113.7178178530461992
 20
158.0026976844912951
 30
0.0
  0
VERTEX
  5
701A
  8
0
 10
113.9188156436144936
 20
158.2074153778048071
 30
0.0
  0
VERTEX
  5
701B
  8
0
 10
114.1418754333357981
 20
158.4318323724355082
 30
0.0
  0
VERTEX
  5
701C
  8
0
 10
114.3856479581242951
 20
158.674624024364789
 30
0.0
  0
VERTEX
  5
701D
  8
0
 10
114.6505042346492047
 20
158.9355252934680038
 30
0.0
  0
VERTEX
  5
701E
  8
0
 10
114.9386220610970071
 20
159.2153840235069993
 30
0.0
  0
VERTEX
  5
701F
  8
0
 10
115.2512185492626031
 20
159.5143703484332036
 30
0.0
  0
VERTEX
  5
7020
  8
0
 10
115.9224072331284958
 20
160.14785108598889
 30
0.0
  0
SEQEND
  5
7021
  8
0
  0
LINE
  5
6A28
  8
0
 10
246.350000000000108
 20
199.7157654259038111
 30
0.0
 11
248.2500000000001137
 21
199.7157654259038111
 31
0.0
  0
LINE
  5
6A29
  8
0
 10
246.350000000000108
 20
181.2157654259038111
 30
0.0
 11
248.2500000000001137
 21
181.2157654259038111
 31
0.0
  0
LINE
  5
6A2A
  8
0
 10
248.2500000000001137
 20
181.2157654259038111
 30
0.0
 11
248.2500000000001137
 21
227.7157654259038111
 31
0.0
  0
LINE
  5
6A2B
  8
0
 10
246.350000000000108
 20
181.2157654259038111
 30
0.0
 11
246.350000000000108
 21
227.7157654259038111
 31
0.0
  0
LINE
  5
6A2C
  8
0
 10
246.350000000000108
 20
210.5747811882131089
 30
0.0
 11
248.2500000000001137
 21
210.5747811882131089
 31
0.0
  0
LINE
  5
6A2D
  8
0
 10
248.2500000000001137
 20
227.7157654259038111
 30
0.0
 11
246.350000000000108
 21
227.7157654259038111
 31
0.0
  0
LINE
  5
6A2E
  8
0
 10
246.350000000000108
 20
184.3329227134292125
 30
0.0
 11
248.2500000000001137
 21
184.3329227134292125
 31
0.0
  0
ARC
  5
6A2F
  8
0
 10
212.8345612252211083
 20
183.2265276032800045
 30
0.0
 40
0.484603423864764
 50
179.2438694425594861
 51
225.7571464927848979
  0
ARC
  5
6A30
  8
0
 10
219.7512843283373059
 20
200.1144810975665962
 30
0.0
 40
0.3987177401730935
 50
269.8154415691302006
 51
0.1845584308760397
  0
LINE
  5
6A31
  8
0
 10
213.9500000000001023
 20
181.4258674773471967
 30
0.0
 11
212.4964528783862932
 21
182.8793630540787944
 31
0.0
  0
ARC
  5
6A32
  8
0
 10
214.4500000000001023
 20
181.913940210488505
 30
0.0
 40
0.6987238315929973
 50
224.3084022672423998
 51
315.6915977327577139
  0
LINE
  5
6A33
  8
0
 10
212.3500000000001933
 20
183.2329227134291898
 30
0.0
 11
212.3500000000001933
 21
201.515765425903794
 31
0.0
  0
ARC
  5
6A34
  8
0
 10
216.1500000000000909
 20
217.515765425903794
 30
0.0
 40
10.1999999999999993
 50
317.1181602527256018
 51
223.6028189726993105
  0
CIRCLE
  5
6A35
  8
0
 10
216.1500000000000909
 20
222.015765425903794
 30
0.0
 40
2.75
  0
ARC
  5
6A36
  8
0
 10
199.4379341470649081
 20
201.5509390847296061
 30
0.0
 40
12.9121137609925398
 50
359.8439213957893799
 51
43.7588975769219601
  0
ARC
  5
6A37
  8
0
 10
231.9698649197970042
 20
202.1918911627317925
 30
0.0
 40
11.8289477194834003
 50
134.8727162171697955
 51
182.245444035557
  0
LINE
  5
6A38
  8
0
 10
220.1500000000002046
 20
201.7284287284111031
 30
0.0
 11
220.1500000000002046
 21
200.1157654259037884
 31
0.0
  0
LINE
  5
6A39
  8
0
 10
217.6500000000002046
 20
199.7157654259038111
 30
0.0
 11
217.6500000000002046
 21
184.3329227134292125
 31
0.0
  0
ARC
  5
6A3A
  8
0
 10
217.1682118385596141
 20
184.3253790152627971
 30
0.0
 40
0.4818472163312415
 50
314.1023744507813262
 51
0.8970472604038056
  0
LINE
  5
6A3B
  8
0
 10
217.50354982217101
 20
183.9793657544855989
 30
0.0
 11
214.9500000000001023
 21
181.4258674773471967
 31
0.0
  0
LINE
  5
6A3C
  8
0
 10
217.6500000000002046
 20
199.7157654259038111
 30
0.0
 11
219.7500000000001137
 21
199.7157654259038111
 31
0.0
  0
LINE
  5
6A3D
  8
1
 10
216.1500000000000909
 20
230.7155635386087909
 30
0.0
 11
216.1500000000000057
 21
178.5966166956538075
 31
0.0
  0
LINE
  5
6A3E
  8
1
 10
211.4000000000002046
 20
222.015765425903794
 30
0.0
 11
220.9000000000000909
 21
222.015765425903794
 31
0.0
  0
LINE
  5
6A3F
  8
0
 10
246.350000000000108
 20
133.2157654259038111
 30
0.0
 11
248.2500000000001137
 21
133.2157654259038111
 31
0.0
  0
LINE
  5
6A40
  8
0
 10
246.350000000000108
 20
114.7157654259037969
 30
0.0
 11
248.2500000000001137
 21
114.7157654259037969
 31
0.0
  0
LINE
  5
6A41
  8
0
 10
248.2500000000001137
 20
114.7157654259037969
 30
0.0
 11
248.2500000000001137
 21
161.2157654259038111
 31
0.0
  0
LINE
  5
6A42
  8
0
 10
246.350000000000108
 20
114.7157654259037969
 30
0.0
 11
246.350000000000108
 21
161.2157654259038111
 31
0.0
  0
LINE
  5
6A43
  8
0
 10
246.350000000000108
 20
144.0747811882131089
 30
0.0
 11
248.2500000000001137
 21
144.0747811882131089
 31
0.0
  0
LINE
  5
6A44
  8
0
 10
248.2500000000001137
 20
161.2157654259038111
 30
0.0
 11
246.350000000000108
 21
161.2157654259038111
 31
0.0
  0
LINE
  5
6A45
  8
0
 10
246.350000000000108
 20
117.8329227134291983
 30
0.0
 11
248.2500000000001137
 21
117.8329227134291983
 31
0.0
  0
ARC
  5
6A46
  8
0
 10
212.8345612252211083
 20
116.7265276032800045
 30
0.0
 40
0.484603423864764
 50
179.2438694425592871
 51
225.7571464927848979
  0
ARC
  5
6A47
  8
0
 10
219.7512843283373059
 20
133.6144810975665109
 30
0.0
 40
0.3987177401730935
 50
269.8154415691302006
 51
0.1845584308762433
  0
LINE
  5
6A48
  8
0
 10
213.9500000000001023
 20
114.9258674773471967
 30
0.0
 11
212.4964528783862932
 21
116.3793630540787944
 31
0.0
  0
ARC
  5
6A49
  8
0
 10
214.4500000000001023
 20
115.4139402104884056
 30
0.0
 40
0.6987238315929973
 50
224.3084022672423998
 51
315.6915977327616929
  0
LINE
  5
6A4A
  8
0
 10
212.3500000000001933
 20
116.732922713429204
 30
0.0
 11
212.3500000000001933
 21
135.015765425903794
 31
0.0
  0
ARC
  5
6A4B
  8
0
 10
216.1500000000000909
 20
151.015765425903794
 30
0.0
 40
10.1999999999999993
 50
317.1181602527256018
 51
223.6028189726993105
  0
CIRCLE
  5
6A4C
  8
0
 10
216.1500000000000909
 20
155.515765425903794
 30
0.0
 40
2.75
  0
ARC
  5
6A4D
  8
0
 10
199.4379341470649081
 20
135.0509390847296061
 30
0.0
 40
12.9121137609925398
 50
359.8439213957889251
 51
43.7588975769218322
  0
ARC
  5
6A4E
  8
0
 10
231.9698649197970042
 20
135.6918911627317925
 30
0.0
 40
11.8289477194834003
 50
134.8727162171697955
 51
182.2454440355573979
  0
LINE
  5
6A4F
  8
0
 10
220.1500000000002046
 20
135.2284287284111031
 30
0.0
 11
220.1500000000002046
 21
133.6157654259037884
 31
0.0
  0
LINE
  5
6A50
  8
0
 10
217.6500000000002046
 20
133.2157654259038111
 30
0.0
 11
217.6500000000002046
 21
117.8329227134291983
 31
0.0
  0
ARC
  5
6A51
  8
0
 10
217.1682118385596141
 20
117.8253790152627971
 30
0.0
 40
0.4818472163312415
 50
314.1023744507813262
 51
0.8970472604033982
  0
LINE
  5
6A52
  8
0
 10
217.50354982217101
 20
117.4793657544855989
 30
0.0
 11
214.9500000000001023
 21
114.9258674773471967
 31
0.0
  0
LINE
  5
6A53
  8
0
 10
217.6500000000002046
 20
133.2157654259038111
 30
0.0
 11
219.7500000000001137
 21
133.2157654259038111
 31
0.0
  0
LINE
  5
6A54
  8
1
 10
216.1500000000000909
 20
164.2155635386087909
 30
0.0
 11
216.1500000000000057
 21
112.0966166956537933
 31
0.0
  0
LINE
  5
6A55
  8
1
 10
211.4000000000002046
 20
155.515765425903794
 30
0.0
 11
220.9000000000000909
 21
155.515765425903794
 31
0.0
  0
LINE
  5
6C5E
  8
0
 10
34.3375488687041184
 20
152.0999999999999943
 30
0.0
 11
28.9999999999498392
 21
152.0999999999999943
 31
0.0
  0
LINE
  5
6C5F
  8
0
 10
71.0000000000499654
 20
152.0999999999999091
 30
0.0
 11
65.6624511313287087
 21
152.0999999999999091
 31
0.0
  0
LINE
  5
6C61
  8
0
 10
115.4611607143024941
 20
152.0999999999999091
 30
0.0
 11
143.4388392856969858
 21
152.0999999999999091
 31
0.0
  0
ENDSEC
  0
EOF
