  0
SECTION
  2
HEADER
  9
$ACADVER
  1
AC1009
  9
$INSBASE
 10
0.0
 20
0.0
 30
0.0
  9
$EXTMIN
 10
0.0
 20
-2.960436562073669
 30
0.0
  9
$EXTMAX
 10
260.77160572160949
 20
117.3631856621835
 30
0.0
  9
$LIMMIN
 10
0.0
 20
0.0
  9
$LIMMAX
 10
375.0
 20
270.0
  9
$ORTHOMODE
 70
     0
  9
$REGENMODE
 70
     1
  9
$FILLMODE
 70
     1
  9
$QTEXTMODE
 70
     0
  9
$MIRRTEXT
 70
     0
  9
$DRAGMODE
 70
     2
  9
$LTSCALE
 40
5.0
  9
$OSMODE
 70
  3071
  9
$ATTMODE
 70
     1
  9
$TEXTSIZE
 40
0.2
  9
$TRACEWID
 40
0.05
  9
$TEXTSTYLE
  7
STANDARD
  9
$CLAYER
  8
3
  9
$CELTYPE
  6
BYLAYER
  9
$CECOLOR
 62
   256
  9
$DIMSCALE
 40
1.0
  9
$DIMASZ
 40
3.0
  9
$DIMEXO
 40
2.0
  9
$DIMDLI
 40
0.38
  9
$DIMRND
 40
0.0
  9
$DIMDLE
 40
0.0
  9
$DIMEXE
 40
2.0
  9
$DIMTP
 40
0.0
  9
$DIMTM
 40
0.0
  9
$DIMTXT
 40
3.2000000000000002
  9
$DIMCEN
 40
0.0
  9
$DIMTSZ
 40
0.0
  9
$DIMTOL
 70
     0
  9
$DIMLIM
 70
     0
  9
$DIMTIH
 70
     0
  9
$DIMTOH
 70
     0
  9
$DIMSE1
 70
     0
  9
$DIMSE2
 70
     0
  9
$DIMTAD
 70
     1
  9
$DIMZIN
 70
     0
  9
$DIMBLK
  1

  9
$DIMASO
 70
     0
  9
$DIMSHO
 70
     0
  9
$DIMPOST
  1

  9
$DIMAPOST
  1

  9
$DIMALT
 70
     0
  9
$DIMALTD
 70
     2
  9
$DIMALTF
 40
25.399999999999999
  9
$DIMLFAC
 40
1.0
  9
$DIMTOFL
 70
     1
  9
$DIMTVP
 40
1.6000000000000001
  9
$DIMTIX
 70
     1
  9
$DIMSOXD
 70
     0
  9
$DIMSAH
 70
     0
  9
$DIMBLK1
  1

  9
$DIMBLK2
  1

  9
$DIMSTYLE
  2
STANDARD
  9
$DIMCLRD
 70
     0
  9
$DIMCLRE
 70
     0
  9
$DIMCLRT
 70
     0
  9
$DIMTFAC
 40
1.0
  9
$DIMGAP
 40
0.09
  9
$LUNITS
 70
     2
  9
$LUPREC
 70
     4
  9
$SKETCHINC
 40
0.1
  9
$FILLETRAD
 40
0.0
  9
$AUNITS
 70
     0
  9
$AUPREC
 70
     4
  9
$MENU
  1
E:\r13\win\SUPPORT\ACAD
  9
$ELEVATION
 40
0.0
  9
$PELEVATION
 40
0.0
  9
$THICKNESS
 40
0.0
  9
$LIMCHECK
 70
     0
  9
$BLIPMODE
 70
     0
  9
$CHAMFERA
 40
0.0
  9
$CHAMFERB
 40
0.0
  9
$SKPOLY
 70
     0
  9
$TDCREATE
 40
2449840.6513888892
  9
$TDUPDATE
 40
2456598.4318566672
  9
$TDINDWG
 40
0.0349644676
  9
$TDUSRTIMER
 40
0.0349644676
  9
$USRTIMER
 70
     1
  9
$ANGBASE
 50
0.0
  9
$ANGDIR
 70
     0
  9
$PDMODE
 70
     0
  9
$PDSIZE
 40
0.0
  9
$PLINEWID
 40
0.0
  9
$COORDS
 70
     1
  9
$SPLFRAME
 70
     0
  9
$SPLINETYPE
 70
     6
  9
$SPLINESEGS
 70
     8
  9
$ATTDIA
 70
     0
  9
$ATTREQ
 70
     1
  9
$HANDLING
 70
     1
  9
$HANDSEED
  5
AEF
  9
$SURFTAB1
 70
     6
  9
$SURFTAB2
 70
     6
  9
$SURFTYPE
 70
     6
  9
$SURFU
 70
     6
  9
$SURFV
 70
     6
  9
$UCSNAME
  2

  9
$UCSORG
 10
0.0
 20
0.0
 30
0.0
  9
$UCSXDIR
 10
1.0
 20
0.0
 30
0.0
  9
$UCSYDIR
 10
0.0
 20
1.0
 30
0.0
  9
$PUCSNAME
  2

  9
$PUCSORG
 10
0.0
 20
0.0
 30
0.0
  9
$PUCSXDIR
 10
1.0
 20
0.0
 30
0.0
  9
$PUCSYDIR
 10
0.0
 20
1.0
 30
0.0
  9
$USERI1
 70
     0
  9
$USERI2
 70
     1
  9
$USERI3
 70
     0
  9
$USERI4
 70
     0
  9
$USERI5
 70
     0
  9
$USERR1
 40
0.0
  9
$USERR2
 40
0.0
  9
$USERR3
 40
0.0
  9
$USERR4
 40
0.0
  9
$USERR5
 40
0.0
  9
$WORLDVIEW
 70
     1
  9
$SHADEDGE
 70
     3
  9
$SHADEDIF
 70
    70
  9
$TILEMODE
 70
     1
  9
$MAXACTVP
 70
    16
  9
$PLIMCHECK
 70
     0
  9
$PEXTMIN
 10
1.0000000000000000E+020
 20
1.0000000000000000E+020
 30
1.0000000000000000E+020
  9
$PEXTMAX
 10
-1.0000000000000000E+020
 20
-1.0000000000000000E+020
 30
-1.0000000000000000E+020
  9
$PLIMMIN
 10
0.0
 20
0.0
  9
$PLIMMAX
 10
12.0
 20
9.0
  9
$UNITMODE
 70
     0
  9
$VISRETAIN
 70
     0
  9
$PLINEGEN
 70
     0
  9
$PSLTSCALE
 70
     0
  0
ENDSEC
  0
SECTION
  2
TABLES
  0
TABLE
  2
VPORT
 70
     1
  0
VPORT
  2
*ACTIVE
 70
     0
 10
0.0
 20
0.0
 11
1.0
 21
1.0
 12
195.0581083320873
 22
133.5127261426681
 13
0.0
 23
0.0
 14
5.0
 24
5.0
 15
10.0
 25
10.0
 16
0.0
 26
0.0
 36
1.0
 17
0.0
 27
0.0
 37
0.0
 40
275.42274993631997
 41
1.831871345029239
 42
50.0
 43
0.0
 44
0.0
 50
0.0
 51
0.0
 71
     0
 72
   500
 73
     1
 74
     0
 75
     0
 76
     0
 77
     0
 78
     2
  0
ENDTAB
  0
TABLE
  2
LTYPE
 70
     3
  0
LTYPE
  2
CONTINUOUS
 70
     0
  3
Solid Line
 72
    65
 73
     0
 40
0.0
  0
LTYPE
  2
CENTER
 70
     0
  3
____ _ ____ _ ____ _ ____ _ ____ _ ____ _ ____
 72
    65
 73
     4
 40
2.0
 49
1.25
 49
-0.25
 49
0.25
 49
-0.25
  0
LTYPE
  2
PHANTOM2
 70
     0
  3
___ _ _ ___ _ _ ___ _ _ ___ _ _
 72
    65
 73
     6
 40
1.25
 49
0.625
 49
-0.125
 49
0.125
 49
-0.125
 49
0.125
 49
-0.125
  0
ENDTAB
  0
TABLE
  2
LAYER
 70
     3
  0
LAYER
  2
0
 70
     0
 62
     7
  6
CONTINUOUS
  0
LAYER
  2
1
 70
     0
 62
     1
  6
CENTER
  0
LAYER
  2
3
 70
     0
 62
     3
  6
CONTINUOUS
  0
ENDTAB
  0
TABLE
  2
STYLE
 70
     2
  0
STYLE
  2
STANDARD
 70
     0
 40
0.0
 41
1.0
 50
0.0
 71
     0
 42
0.2
  3
TXT
  4
BIGFONT
  0
STYLE
  2
STANDARD1
 70
     0
 40
0.0
 41
1.0
 50
0.0
 71
     0
 42
3.0
  3
txt
  4

  0
ENDTAB
  0
TABLE
  2
VIEW
 70
     1
  0
VIEW
  2
ALL
 70
     0
 40
270.0
 10
220.99159663865549
 20
135.0
 41
0.0
 11
0.0
 21
0.0
 31
1.0
 12
0.0
 22
0.0
 32
0.0
 42
0.0
 43
0.0
 44
0.0
 50
0.0
 71
     0
  0
ENDTAB
  0
TABLE
  2
UCS
 70
     0
  0
ENDTAB
  0
TABLE
  2
APPID
 70
     4
  0
APPID
  2
ACAD
 70
     0
  0
APPID
  2
_CALL_MAC$
 70
     0
  0
APPID
  2
ACAD_MLEADERVER
 70
     0
  0
APPID
  2
ACAD_NAV_VCDISPLAY
 70
     0
  0
ENDTAB
  0
TABLE
  2
DIMSTYLE
 70
     1
  0
DIMSTYLE
  2
STANDARD
 70
     0
  3

  4

  5

  6

  7

 40
1.0
 41
0.18
 42
0.0625
 43
0.38
 44
0.18
 45
0.0
 46
0.0
 47
0.0
 48
0.0
140
0.18
141
0.09
142
0.0
143
25.399999999999999
144
1.0
145
0.0
146
1.0
147
0.09
 71
     0
 72
     0
 73
     1
 74
     1
 75
     0
 76
     0
 77
     0
 78
     0
170
     0
171
     2
172
     0
173
     0
174
     0
175
     0
176
     0
177
     0
178
     0
  0
ENDTAB
  0
ENDSEC
  0
SECTION
  2
BLOCKS
  0
BLOCK
  8
0
  2
$MODEL_SPACE
 70
     0
 10
0.0
 20
0.0
 30
0.0
  3
$MODEL_SPACE
  1

  0
ENDBLK
  5
6E2
  8
0
  0
BLOCK
 67
     1
  8
0
  2
$PAPER_SPACE
 70
     0
 10
0.0
 20
0.0
 30
0.0
  3
$PAPER_SPACE
  1

  0
ENDBLK
  5
6E0
 67
     1
  8
0
  0
BLOCK
  8
0
  2
STDGX5
 70
     0
 10
0.0
 20
0.0
 30
0.0
  3
STDGX5
  1

  0
ENDBLK
  5
2C7
  8
0
  0
BLOCK
  8
0
  2
*X1
 70
     1
 10
0.0
 20
0.0
 30
0.0
  3
*X1
  1

  0
LINE
  5
A6E
  8
0
 62
     0
 10
214.56272559334079
 20
92.363185662183426
 30
0.0
 11
214.77160572160949
 21
92.572065790452143
 31
0.0
  0
LINE
  5
A6F
  8
0
 62
     0
 10
211.9110751638913
 20
92.36318566218344
 30
0.0
 11
214.77160572160949
 21
95.223716219901718
 31
0.0
  0
LINE
  5
A70
  8
0
 62
     0
 10
209.25942473444169
 20
92.36318566218344
 30
0.0
 11
214.77160572160949
 21
97.875366649351264
 31
0.0
  0
LINE
  5
A71
  8
0
 62
     0
 10
206.60777430499209
 20
92.363185662183426
 30
0.0
 11
214.7716057216096
 21
100.5270170788008
 31
0.0
  0
LINE
  5
A72
  8
0
 62
     0
 10
203.9561238755426
 20
92.36318566218344
 30
0.0
 11
214.77160572160949
 21
103.1786675082503
 31
0.0
  0
LINE
  5
A73
  8
0
 62
     0
 10
211.7470464669137
 20
102.8057586830041
 30
0.0
 11
214.77160572160949
 21
105.8303179376999
 31
0.0
  0
LINE
  5
A74
  8
0
 62
     0
 10
201.304473446093
 20
92.363185662183426
 30
0.0
 11
207.32903269873799
 21
98.387744914828374
 31
0.0
  0
LINE
  5
A75
  8
0
 62
     0
 10
211.00611200771419
 20
104.7164746532541
 30
0.0
 11
214.77160572160949
 21
108.48196836714951
 31
0.0
  0
LINE
  5
A76
  8
0
 62
     0
 10
198.65282301664351
 20
92.363185662183426
 30
0.0
 11
205.41831672848801
 21
99.128679374027897
 31
0.0
  0
LINE
  5
A77
  8
0
 62
     0
 10
209.57272338934251
 20
105.934736464332
 30
0.0
 11
214.77160572160949
 21
111.133618796599
 31
0.0
  0
LINE
  5
A78
  8
0
 62
     0
 10
196.00117258719391
 20
92.363185662183426
 30
0.0
 11
204.20005491741011
 21
100.56206799239961
 31
0.0
  0
LINE
  5
A79
  8
0
 62
     0
 10
207.3244500557272
 20
106.33811356016621
 30
0.0
 11
213.3495221577445
 21
112.3631856621835
 31
0.0
  0
LINE
  5
A7A
  8
0
 62
     0
 10
193.3495221577443
 20
92.363185662183426
 30
0.0
 11
203.79667782157591
 21
102.81034132601491
 31
0.0
  0
LINE
  5
A7B
  8
0
 62
     0
 10
190.69787172829481
 20
92.363185662183426
 30
0.0
 11
210.69787172829501
 21
112.3631856621836
 31
0.0
  0
LINE
  5
A7C
  8
0
 62
     0
 10
188.04622129884521
 20
92.363185662183426
 30
0.0
 11
208.04622129884541
 21
112.3631856621836
 31
0.0
  0
LINE
  5
A7D
  8
0
 62
     0
 10
185.39457086939569
 20
92.363185662183426
 30
0.0
 11
205.39457086939589
 21
112.3631856621836
 31
0.0
  0
LINE
  5
A7E
  8
0
 62
     0
 10
182.7429204399462
 20
92.363185662183426
 30
0.0
 11
202.74292043994629
 21
112.3631856621836
 31
0.0
  0
LINE
  5
A7F
  8
0
 62
     0
 10
180.0912700104966
 20
92.363185662183426
 30
0.0
 11
200.0912700104968
 21
112.3631856621836
 31
0.0
  0
LINE
  5
A80
  8
0
 62
     0
 10
177.439619581047
 20
92.363185662183426
 30
0.0
 11
197.4396195810472
 21
112.3631856621835
 31
0.0
  0
LINE
  5
A81
  8
0
 62
     0
 10
174.78796915159751
 20
92.363185662183426
 30
0.0
 11
194.78796915159771
 21
112.3631856621835
 31
0.0
  0
LINE
  5
A82
  8
0
 62
     0
 10
172.13631872214791
 20
92.363185662183426
 30
0.0
 11
192.1363187221481
 21
112.3631856621835
 31
0.0
  0
LINE
  5
A83
  8
0
 62
     0
 10
169.48466829269839
 20
92.363185662183426
 30
0.0
 11
189.4846682926985
 21
112.3631856621836
 31
0.0
  0
LINE
  5
A84
  8
0
 62
     0
 10
167.2716057216096
 20
92.801773520544145
 30
0.0
 11
186.83301786324901
 21
112.3631856621836
 31
0.0
  0
LINE
  5
A85
  8
0
 62
     0
 10
167.2716057216096
 20
95.453423949993706
 30
0.0
 11
184.18136743379949
 21
112.3631856621836
 31
0.0
  0
LINE
  5
A86
  8
0
 62
     0
 10
167.2716057216096
 20
98.105074379443266
 30
0.0
 11
181.52971700434989
 21
112.3631856621836
 31
0.0
  0
LINE
  5
A87
  8
0
 62
     0
 10
167.2716057216096
 20
100.7567248088928
 30
0.0
 11
178.87806657490029
 21
112.3631856621836
 31
0.0
  0
LINE
  5
A88
  8
0
 62
     0
 10
167.2716057216096
 20
103.4083752383424
 30
0.0
 11
176.2264161454508
 21
112.3631856621836
 31
0.0
  0
LINE
  5
A89
  8
0
 62
     0
 10
167.2716057216096
 20
106.0600256677919
 30
0.0
 11
173.5747657160012
 21
112.3631856621835
 31
0.0
  0
LINE
  5
A8A
  8
0
 62
     0
 10
167.2716057216096
 20
108.71167609724139
 30
0.0
 11
170.92311528655171
 21
112.3631856621835
 31
0.0
  0
LINE
  5
A8B
  8
0
 62
     0
 10
167.27160572160949
 20
111.363326526691
 30
0.0
 11
168.2714648571021
 21
112.3631856621836
 31
0.0
  0
ENDBLK
  5
A8D
  8
0
  0
BLOCK
  8
0
  2
*X2
 70
     1
 10
0.0
 20
0.0
 30
0.0
  3
*X2
  1

  0
LINE
  5
A8F
  8
0
 62
     0
 10
214.77160572160949
 20
111.6082640407209
 30
0.0
 11
214.01668410014699
 21
112.3631856621836
 31
0.0
  0
LINE
  5
A90
  8
0
 62
     0
 10
214.77160572160949
 20
108.95661361127139
 30
0.0
 11
211.36503367069739
 21
112.3631856621836
 31
0.0
  0
LINE
  5
A91
  8
0
 62
     0
 10
214.77160572160949
 20
106.3049631818218
 30
0.0
 11
208.71338324124781
 21
112.3631856621836
 31
0.0
  0
LINE
  5
A92
  8
0
 62
     0
 10
214.7716057216096
 20
103.6533127523723
 30
0.0
 11
206.06173281179829
 21
112.3631856621836
 31
0.0
  0
LINE
  5
A93
  8
0
 62
     0
 10
210.36303880549809
 20
105.41022923903409
 30
0.0
 11
203.41008238234869
 21
112.3631856621836
 31
0.0
  0
LINE
  5
A94
  8
0
 62
     0
 10
214.77160572160949
 20
101.0016623229227
 30
0.0
 11
210.81864930051131
 21
104.954618744021
 31
0.0
  0
LINE
  5
A95
  8
0
 62
     0
 10
206.86299526159391
 20
106.2586223534889
 30
0.0
 11
200.7584319528992
 21
112.3631856621835
 31
0.0
  0
LINE
  5
A96
  8
0
 62
     0
 10
214.77160572160949
 20
98.350011893473194
 30
0.0
 11
211.66704241496609
 21
101.45457520011659
 31
0.0
  0
LINE
  5
A97
  8
0
 62
     0
 10
205.11573576215179
 20
105.35423142348129
 30
0.0
 11
198.1067815234496
 21
112.3631856621835
 31
0.0
  0
LINE
  5
A98
  8
0
 62
     0
 10
214.77160572160949
 20
95.698361464023634
 30
0.0
 11
210.7626514849585
 21
99.707315700674641
 31
0.0
  0
LINE
  5
A99
  8
0
 62
     0
 10
204.03296411351451
 20
103.7853526426691
 30
0.0
 11
195.455131094
 21
112.3631856621836
 31
0.0
  0
LINE
  5
A9A
  8
0
 62
     0
 10
214.77160572160949
 20
93.046711034574074
 30
0.0
 11
209.1937727041464
 21
98.624544052037308
 31
0.0
  0
LINE
  5
A9B
  8
0
 62
     0
 10
203.9349777208478
 20
101.2316886058863
 30
0.0
 11
192.80348066455051
 21
112.3631856621836
 31
0.0
  0
LINE
  5
A9C
  8
0
 62
     0
 10
212.80348066455059
 20
92.36318566218344
 30
0.0
 11
206.64010866736351
 21
98.526557659370596
 31
0.0
  0
LINE
  5
A9D
  8
0
 62
     0
 10
210.1518302351011
 20
92.36318566218344
 30
0.0
 11
190.1518302351009
 21
112.3631856621836
 31
0.0
  0
LINE
  5
A9E
  8
0
 62
     0
 10
207.5001798056515
 20
92.363185662183454
 30
0.0
 11
187.50017980565141
 21
112.3631856621835
 31
0.0
  0
LINE
  5
A9F
  8
0
 62
     0
 10
204.84852937620201
 20
92.363185662183454
 30
0.0
 11
184.84852937620181
 21
112.3631856621836
 31
0.0
  0
LINE
  5
AA0
  8
0
 62
     0
 10
202.19687894675241
 20
92.36318566218344
 30
0.0
 11
182.19687894675229
 21
112.3631856621836
 31
0.0
  0
LINE
  5
AA1
  8
0
 62
     0
 10
199.54522851730289
 20
92.36318566218344
 30
0.0
 11
179.54522851730269
 21
112.3631856621836
 31
0.0
  0
LINE
  5
AA2
  8
0
 62
     0
 10
196.89357808785331
 20
92.363185662183426
 30
0.0
 11
176.8935780878532
 21
112.3631856621835
 31
0.0
  0
LINE
  5
AA3
  8
0
 62
     0
 10
194.2419276584038
 20
92.363185662183426
 30
0.0
 11
174.2419276584036
 21
112.3631856621835
 31
0.0
  0
LINE
  5
AA4
  8
0
 62
     0
 10
191.59027722895419
 20
92.363185662183426
 30
0.0
 11
171.59027722895411
 21
112.3631856621835
 31
0.0
  0
LINE
  5
AA5
  8
0
 62
     0
 10
188.93862679950459
 20
92.363185662183426
 30
0.0
 11
168.9386267995045
 21
112.3631856621836
 31
0.0
  0
LINE
  5
AA6
  8
0
 62
     0
 10
186.2869763700551
 20
92.363185662183426
 30
0.0
 11
167.2716057216096
 21
111.37855631062889
 31
0.0
  0
LINE
  5
AA7
  8
0
 62
     0
 10
183.63532594060561
 20
92.363185662183426
 30
0.0
 11
167.2716057216096
 21
108.72690588117941
 31
0.0
  0
LINE
  5
AA8
  8
0
 62
     0
 10
180.98367551115601
 20
92.363185662183426
 30
0.0
 11
167.2716057216096
 21
106.0752554517298
 31
0.0
  0
LINE
  5
AA9
  8
0
 62
     0
 10
178.3320250817064
 20
92.36318566218344
 30
0.0
 11
167.2716057216096
 21
103.4236050222803
 31
0.0
  0
LINE
  5
AAA
  8
0
 62
     0
 10
175.68037465225689
 20
92.363185662183426
 30
0.0
 11
167.2716057216096
 21
100.7719545928307
 31
0.0
  0
LINE
  5
AAB
  8
0
 62
     0
 10
173.02872422280731
 20
92.363185662183426
 30
0.0
 11
167.2716057216096
 21
98.120304163381164
 31
0.0
  0
LINE
  5
AAC
  8
0
 62
     0
 10
170.37707379335779
 20
92.363185662183426
 30
0.0
 11
167.2716057216096
 21
95.468653733931617
 31
0.0
  0
LINE
  5
AAD
  8
0
 62
     0
 10
167.72542336390819
 20
92.363185662183426
 30
0.0
 11
167.2716057216096
 21
92.817003304482057
 31
0.0
  0
ENDBLK
  5
AAF
  8
0
  0
ENDSEC
  0
SECTION
  2
ENTITIES
  0
INSERT
  5
364
  8
0
  2
STDGX5
 10
0.0
 20
0.0
 30
0.0
  0
INSERT
  5
365
  8
0
  2
STDGX5
 10
0.0
 20
0.0
 30
0.0
  0
INSERT
  5
366
  8
0
  2
STDGX5
 10
275.0
 20
0.0
 30
0.0
  0
INSERT
  5
367
  8
0
  2
STDGX5
 10
275.0
 20
0.0
 30
0.0
  0
INSERT
  5
4ED
  8
0
  2
STDGX5
 10
0.0
 20
0.0
 30
0.0
  0
INSERT
  5
4EE
  8
0
  2
STDGX5
 10
0.0
 20
0.0
 30
0.0
  0
INSERT
  5
4EF
  8
0
  2
STDGX5
 10
275.0
 20
0.0
 30
0.0
  0
INSERT
  5
4F0
  8
0
  2
STDGX5
 10
275.0
 20
0.0
 30
0.0
  0
INSERT
  5
500
  8
0
  2
STDGX5
 10
471.79233269980392
 20
233.9519585625761
 30
0.0
  0
INSERT
  5
501
  8
0
  2
STDGX5
 10
471.79233269980392
 20
233.9519585625761
 30
0.0
  0
INSERT
  5
502
  8
0
  2
STDGX5
 10
471.79233269980392
 20
233.9519585625761
 30
0.0
  0
INSERT
  5
503
  8
0
  2
STDGX5
 10
471.79233269980392
 20
233.9519585625761
 30
0.0
  0
INSERT
  5
67F
  8
0
  2
STDGX5
 10
0.0
 20
0.0
 30
0.0
  0
INSERT
  5
680
  8
0
  2
STDGX5
 10
0.0
 20
0.0
 30
0.0
  0
INSERT
  5
681
  8
0
  2
STDGX5
 10
275.0
 20
0.0
 30
0.0
  0
INSERT
  5
682
  8
0
  2
STDGX5
 10
275.0
 20
0.0
 30
0.0
  0
INSERT
  5
692
  8
0
  2
STDGX5
 10
471.79233269980392
 20
233.9519585625761
 30
0.0
  0
INSERT
  5
693
  8
0
  2
STDGX5
 10
471.79233269980392
 20
233.9519585625761
 30
0.0
  0
INSERT
  5
694
  8
0
  2
STDGX5
 10
471.79233269980392
 20
233.9519585625761
 30
0.0
  0
INSERT
  5
695
  8
0
  2
STDGX5
 10
471.79233269980392
 20
233.9519585625761
 30
0.0
  0
INSERT
  5
698
  8
0
  2
STDGX5
 10
625.17172490477549
 20
209.60057380630951
 30
0.0
  0
INSERT
  5
699
  8
0
  2
STDGX5
 10
625.17172490477549
 20
209.60057380630951
 30
0.0
  0
INSERT
  5
69A
  8
0
  2
STDGX5
 10
625.17172490477549
 20
209.60057380630951
 30
0.0
  0
INSERT
  5
69B
  8
0
  2
STDGX5
 10
625.17172490477549
 20
209.60057380630951
 30
0.0
  0
INSERT
  5
69C
  8
0
  2
STDGX5
 10
611.48701390477561
 20
209.6279228063095
 30
0.0
 41
0.1
 42
0.1
 43
0.1
  0
INSERT
  5
69D
  8
0
  2
STDGX5
 10
611.48701390477561
 20
209.6279228063095
 30
0.0
 41
0.1
 42
0.1
 43
0.1
  0
INSERT
  5
69E
  8
0
  2
STDGX5
 10
611.48701390477561
 20
209.6279228063095
 30
0.0
 41
0.1
 42
0.1
 43
0.1
  0
INSERT
  5
924
  8
3
  6
CONTINUOUS
  2
*X1
 10
0.0
 20
0.0
 30
0.0
1001
ACAD
1000
HATCH
1002
{
1070
    19
1000
ANSI31
1040
15.0
1040
0.0
1000
R14_HATCH_DATA
1000
924
1011
1.0
1021
0.0
1031
0.0
1021
0.0
1031
0.0
1011
0.0
1021
0.0
1031
0.0
1021
1.0
1031
0.0
1011
0.0
1021
0.0
1031
0.0
1021
0.0
1031
1.0
1040
0.0
1010
0.0
1020
0.0
1030
1.0
1000
ANSI31
1070
     0
1070
     0
1071
        2
1071
       16
1071
        1
1070
     2
1040
207.77160572160969
1040
102.3631856601324
1040
3.9999999999997198
1040
0.0
1040
6.2831853071795862
1070
     1
1071
        0
1071
        1
1071
        4
1070
     1
1040
214.77160572160949
1040
112.3631856621836
1040
214.77160572160949
1040
92.36318566218344
1070
     1
1040
214.77160572160949
1040
92.36318566218344
1040
167.2716057216096
1040
92.363185662183426
1070
     1
1040
167.2716057216096
1040
92.363185662183426
1040
167.2716057216096
1040
112.3631856621836
1070
     1
1040
167.2716057216096
1040
112.3631856621836
1040
214.77160572160949
1040
112.3631856621836
1071
        0
1070
     0
1070
     1
1040
0.0
1040
15.0
1070
     0
1070
     1
1040
0.7853981633974483
1040
40.0
1040
-31.818181771615858
1040
-1.325825214724776
1040
1.325825214724776
1070
     0
1071
        1
1040
40.0
1040
-31.818181771615858
1040
0.0
1002
}
  0
INSERT
  5
925
  8
3
  6
CONTINUOUS
  2
*X2
 10
0.0
 20
0.0
 30
0.0
1001
ACAD
1000
HATCH
1002
{
1070
    19
1000
ANSI31
1040
15.0
1040
1.5707963267948959
1000
R14_HATCH_DATA
1000
925
1011
1.0
1021
0.0
1031
0.0
1021
0.0
1031
0.0
1011
0.0
1021
0.0
1031
0.0
1021
1.0
1031
0.0
1011
0.0
1021
0.0
1031
0.0
1021
0.0
1031
1.0
1040
0.0
1010
0.0
1020
0.0
1030
1.0
1000
ANSI31
1070
     0
1070
     0
1071
        2
1071
       16
1071
        1
1070
     2
1040
207.77160572160969
1040
102.3631856601324
1040
3.9999999999997198
1040
0.0
1040
6.2831853071795862
1070
     1
1071
        0
1071
        1
1071
        4
1070
     1
1040
214.77160572160949
1040
112.3631856621836
1040
214.77160572160949
1040
92.36318566218344
1070
     1
1040
214.77160572160949
1040
92.36318566218344
1040
167.2716057216096
1040
92.363185662183426
1070
     1
1040
167.2716057216096
1040
92.363185662183426
1040
167.2716057216096
1040
112.3631856621836
1070
     1
1040
167.2716057216096
1040
112.3631856621836
1040
214.77160572160949
1040
112.3631856621836
1071
        0
1070
     0
1070
     1
1040
1.5707963267948959
1040
15.0
1070
     0
1070
     1
1040
2.3561944901923439
1040
40.0
1040
-31.818181771615858
1040
-1.325825214724776
1040
-1.325825214724776
1070
     0
1071
        1
1040
40.0
1040
-31.818181771615858
1040
0.0
1002
}
  0
LINE
  5
926
  8
1
 10
30.7716057216096
 20
102.3631856621836
 30
0.0
 11
60.771605721609603
 21
102.3631856621836
 31
0.0
  0
CIRCLE
  5
927
  8
0
 10
45.771605721609482
 20
102.3631856621835
 30
0.0
 40
8.4999999999999716
  0
CIRCLE
  5
928
  8
0
 10
45.771605721609603
 20
102.3631856621835
 30
0.0
 40
10.0
  0
LINE
  5
929
  8
0
 10
51.621605721882503
 20
101.0299565007861
 30
0.0
 11
51.621605721335612
 21
103.6964148259808
 31
0.0
  0
CIRCLE
  5
92A
  8
0
 10
45.771605721609028
 20
102.3631856621837
 30
0.0
 40
5.3301270189221901
  0
LINE
  5
92B
  8
1
 10
45.771605721609198
 20
117.3631856621835
 30
0.0
 11
45.771605721609198
 21
87.363185662183497
 31
0.0
  0
LINE
  5
92C
  8
0
 10
167.2716057216096
 20
112.3631856621836
 30
0.0
 11
214.77160572160949
 21
112.3631856621836
 31
0.0
  0
LINE
  5
92D
  8
0
 10
167.2716057216096
 20
112.3631856621836
 30
0.0
 11
167.2716057216096
 21
92.363185662183426
 31
0.0
  0
LINE
  5
92E
  8
0
 10
167.2716057216096
 20
92.363185662183426
 30
0.0
 11
214.77160572160949
 21
92.36318566218344
 31
0.0
  0
LINE
  5
92F
  8
0
 10
214.77160572160949
 20
112.3631856621836
 30
0.0
 11
214.77160572160949
 21
92.36318566218344
 31
0.0
  0
CIRCLE
  5
930
  8
0
 10
207.77160572160969
 20
102.3631856601324
 30
0.0
 40
3.9999999999997198
  0
LINE
  5
931
  8
0
 10
214.77160572160949
 20
92.36318566218344
 30
0.0
 11
215.7716057216096
 21
93.363185662183426
 31
0.0
  0
LINE
  5
932
  8
0
 10
215.7716057216096
 20
111.3631856621834
 30
0.0
 11
214.7716057216096
 21
112.3631856621834
 31
0.0
  0
LINE
  5
933
  8
0
 10
167.2716057216096
 20
112.3631856621836
 30
0.0
 11
165.7716057216096
 21
110.8631856621836
 31
0.0
  0
LINE
  5
934
  8
0
 10
165.77160572160949
 20
93.863185662183625
 30
0.0
 11
167.27160572160949
 21
92.363185662183611
 31
0.0
  0
LINE
  5
935
  8
0
 10
156.27160572160949
 20
93.863185662183625
 30
0.0
 11
165.77160572160949
 21
93.863185662183625
 31
0.0
  0
LINE
  5
936
  8
0
 10
165.7716057216096
 20
110.8631856621836
 30
0.0
 11
156.2716057216096
 21
110.8631856621836
 31
0.0
  0
LINE
  5
937
  8
0
 10
156.2716057216096
 20
110.8631856621836
 30
0.0
 11
155.7716057216096
 21
110.3631856621836
 31
0.0
  0
LINE
  5
938
  8
0
 10
155.77160572160949
 20
94.363185662183639
 30
0.0
 11
156.27160572160949
 21
93.863185662183625
 31
0.0
  0
LINE
  5
939
  8
0
 10
78.271605721609575
 20
96.363185662183781
 30
0.0
 11
155.77160572160949
 21
96.363185554398399
 31
0.0
  0
LINE
  5
93A
  8
0
 10
155.77160572160949
 20
108.3631857699686
 30
0.0
 11
78.271605721609617
 21
108.3631856621837
 31
0.0
  0
LINE
  5
93B
  8
0
 10
78.271605721609617
 20
108.3631856621837
 30
0.0
 11
75.771605721609617
 21
107.69331268110589
 31
0.0
  0
LINE
  5
93C
  8
0
 10
75.771605721609575
 20
97.033058643261612
 30
0.0
 11
78.271605721609575
 21
96.363185662183781
 31
0.0
  0
LINE
  5
93D
  8
0
 10
215.7716057216096
 20
111.3631856621834
 30
0.0
 11
215.7716057216096
 21
93.363185662183426
 31
0.0
  0
LINE
  5
93E
  8
0
 10
156.2716057216096
 20
110.8631856621836
 30
0.0
 11
156.27160572160949
 21
93.863185662183625
 31
0.0
  0
LINE
  5
93F
  8
0
 10
155.77160572160949
 20
94.363185662183639
 30
0.0
 11
155.7716057216096
 21
110.3631856621836
 31
0.0
  0
LINE
  5
940
  8
0
 10
78.271605721609504
 20
103.6964148259809
 30
0.0
 11
78.271605721609617
 21
108.3631856621837
 31
0.0
  0
LINE
  5
941
  8
0
 10
78.271605721609575
 20
96.363185662183781
 30
0.0
 11
78.271605721609504
 21
101.0299565007862
 31
0.0
  0
LINE
  5
942
  8
0
 10
155.77160572160949
 20
101.0299565711714
 30
0.0
 11
78.271605721609504
 21
101.0299565007862
 31
0.0
  0
LINE
  5
943
  8
0
 10
155.7716057216096
 20
103.6964147506358
 30
0.0
 11
78.271605721609504
 21
103.6964148259809
 31
0.0
  0
POLYLINE
  5
944
  8
0
 66
     1
 10
0.0
 20
0.0
 30
0.0
 70
   128
  0
VERTEX
  5
AB0
  8
0
 10
78.27160616864434
 20
101.02995653484371
 30
0.0
  0
VERTEX
  5
AB1
  8
0
 10
78.009003004925162
 20
101.3946391137911
 30
0.0
  0
VERTEX
  5
AB2
  8
0
 10
77.764944336311729
 20
101.95475481647421
 30
0.0
  0
VERTEX
  5
AB3
  8
0
 10
77.725422731535346
 20
102.5698892297119
 30
0.0
  0
VERTEX
  5
AB4
  8
0
 10
77.878453931705863
 20
103.0873802335596
 30
0.0
  0
VERTEX
  5
AB5
  8
0
 10
78.27160616864434
 20
103.6964147895238
 30
0.0
  0
SEQEND
  5
AB6
  8
0
  0
LINE
  5
945
  8
0
 10
75.771605721609575
 20
97.033058643261612
 30
0.0
 11
75.771605721609461
 21
107.69331268110589
 31
0.0
  0
LINE
  5
946
  8
1
 10
70.771605721609603
 20
102.3631856621836
 30
0.0
 11
220.77160572160949
 21
102.3631856621836
 31
0.0
  0
LINE
  5
947
  8
1
 10
207.77160572160969
 20
95.863185660132757
 30
0.0
 11
207.77160572160969
 21
108.8631856601322
 31
0.0
  0
LINE
  5
948
  8
0
 10
165.7716057216096
 20
110.8631856621836
 30
0.0
 11
165.77160572160949
 21
93.863185662183625
 31
0.0
  0
CIRCLE
  5
949
  8
0
 10
45.771605721609028
 20
102.3631856621837
 30
0.0
 40
5.9999999999999707
  0
LINE
  5
94A
  8
1
 10
245.77160572160909
 20
117.3631856621834
 30
0.0
 11
245.77160572160909
 21
87.36318566218344
 31
0.0
  0
CIRCLE
  5
94B
  8
0
 10
245.77160572160949
 20
102.3631856621834
 30
0.0
 40
10.0
  0
LINE
  5
94C
  8
1
 10
230.77160572160949
 20
102.3631856621836
 30
0.0
 11
260.77160572160949
 21
102.3631856621836
 31
0.0
  0
CIRCLE
  5
94D
  8
0
 10
245.77160572160949
 20
102.3631856621836
 30
0.0
 40
5.5
  0
CIRCLE
  5
94E
  8
0
 10
245.77160572160949
 20
102.3631856621836
 30
0.0
 40
4.3071796769724946
  0
LINE
  5
94F
  8
0
 10
243.2716057216098
 20
100.9198099892097
 30
0.0
 11
245.7716057216098
 21
99.476434316235611
 31
0.0
  0
LINE
  5
950
  8
0
 10
245.7716057216098
 20
99.476434316235611
 30
0.0
 11
248.27160572160949
 21
100.9198099892097
 31
0.0
  0
LINE
  5
951
  8
0
 10
248.27160572160949
 20
100.9198099892097
 30
0.0
 11
248.27160572160949
 21
103.80656133515831
 31
0.0
  0
LINE
  5
952
  8
0
 10
248.27160572160949
 20
103.80656133515831
 30
0.0
 11
245.77160572160949
 21
105.24993700813179
 31
0.0
  0
LINE
  5
953
  8
0
 10
245.77160572160949
 20
105.24993700813179
 30
0.0
 11
243.27160572160929
 21
103.8065613351574
 31
0.0
  0
LINE
  5
954
  8
0
 10
243.27160572160929
 20
103.8065613351574
 30
0.0
 11
243.2716057216098
 21
100.9198099892097
 31
0.0
  0
CIRCLE
  5
955
  8
0
 10
245.77160572160949
 20
102.3631856621836
 30
0.0
 40
5.0
  0
TEXT
  5
A14
  8
0
 62
     3
 10
0.0
 20
0.0
 30
0.0
 40
10.0
  1
BJ820-12080
  7
STANDARD1
  0
ENDSEC
  0
EOF
