  0
SECTION
  2
HEADER
  9
$ACADVER
  1
AC1009
  9
$INSBASE
 10
0.0
 20
0.0
 30
0.0
  9
$EXTMIN
 10
0.0
 20
-1.4802182810368341
 30
0.0
  9
$EXTMAX
 10
146.17913265634101
 20
138.9226060813115
 30
0.0
  9
$LIMMIN
 10
0.0
 20
0.0
  9
$LIMMAX
 10
12.0
 20
9.0
  9
$ORTHOMODE
 70
     1
  9
$REGENMODE
 70
     1
  9
$FILLMODE
 70
     1
  9
$QTEXTMODE
 70
     0
  9
$MIRRTEXT
 70
     0
  9
$DRAGMODE
 70
     2
  9
$LTSCALE
 40
5.0
  9
$OSMODE
 70
  3071
  9
$ATTMODE
 70
     1
  9
$TEXTSIZE
 40
0.2
  9
$TRACEWID
 40
0.05
  9
$TEXTSTYLE
  7
STANDARD
  9
$CLAYER
  8
0
  9
$CELTYPE
  6
BYLAYER
  9
$CECOLOR
 62
   256
  9
$DIMSCALE
 40
1.0
  9
$DIMASZ
 40
0.18
  9
$DIMEXO
 40
0.0625
  9
$DIMDLI
 40
0.38
  9
$DIMRND
 40
0.0
  9
$DIMDLE
 40
0.0
  9
$DIMEXE
 40
0.18
  9
$DIMTP
 40
0.0
  9
$DIMTM
 40
0.0
  9
$DIMTXT
 40
0.18
  9
$DIMCEN
 40
0.09
  9
$DIMTSZ
 40
0.0
  9
$DIMTOL
 70
     0
  9
$DIMLIM
 70
     0
  9
$DIMTIH
 70
     1
  9
$DIMTOH
 70
     1
  9
$DIMSE1
 70
     0
  9
$DIMSE2
 70
     0
  9
$DIMTAD
 70
     0
  9
$DIMZIN
 70
     0
  9
$DIMBLK
  1

  9
$DIMASO
 70
     1
  9
$DIMSHO
 70
     1
  9
$DIMPOST
  1

  9
$DIMAPOST
  1

  9
$DIMALT
 70
     0
  9
$DIMALTD
 70
     2
  9
$DIMALTF
 40
25.399999999999999
  9
$DIMLFAC
 40
1.0
  9
$DIMTOFL
 70
     0
  9
$DIMTVP
 40
0.0
  9
$DIMTIX
 70
     0
  9
$DIMSOXD
 70
     0
  9
$DIMSAH
 70
     0
  9
$DIMBLK1
  1

  9
$DIMBLK2
  1

  9
$DIMSTYLE
  2
STANDARD
  9
$DIMCLRD
 70
     0
  9
$DIMCLRE
 70
     0
  9
$DIMCLRT
 70
     0
  9
$DIMTFAC
 40
1.0
  9
$DIMGAP
 40
0.09
  9
$LUNITS
 70
     2
  9
$LUPREC
 70
     4
  9
$SKETCHINC
 40
0.1
  9
$FILLETRAD
 40
0.0
  9
$AUNITS
 70
     0
  9
$AUPREC
 70
     0
  9
$MENU
  1
.
  9
$ELEVATION
 40
0.0
  9
$PELEVATION
 40
0.0
  9
$THICKNESS
 40
0.0
  9
$LIMCHECK
 70
     0
  9
$BLIPMODE
 70
     0
  9
$CHAMFERA
 40
0.0
  9
$CHAMFERB
 40
0.0
  9
$SKPOLY
 70
     0
  9
$TDCREATE
 40
2453083.4120647679
  9
$TDUPDATE
 40
2456598.430637442
  9
$TDINDWG
 40
0.1756345023
  9
$TDUSRTIMER
 40
0.1756343866
  9
$USRTIMER
 70
     1
  9
$ANGBASE
 50
0.0
  9
$ANGDIR
 70
     0
  9
$PDMODE
 70
     0
  9
$PDSIZE
 40
0.0
  9
$PLINEWID
 40
0.0
  9
$COORDS
 70
     1
  9
$SPLFRAME
 70
     0
  9
$SPLINETYPE
 70
     6
  9
$SPLINESEGS
 70
     8
  9
$ATTDIA
 70
     0
  9
$ATTREQ
 70
     1
  9
$HANDLING
 70
     1
  9
$HANDSEED
  5
20D3
  9
$SURFTAB1
 70
     6
  9
$SURFTAB2
 70
     6
  9
$SURFTYPE
 70
     6
  9
$SURFU
 70
     6
  9
$SURFV
 70
     6
  9
$UCSNAME
  2

  9
$UCSORG
 10
0.0
 20
0.0
 30
0.0
  9
$UCSXDIR
 10
1.0
 20
0.0
 30
0.0
  9
$UCSYDIR
 10
0.0
 20
1.0
 30
0.0
  9
$PUCSNAME
  2

  9
$PUCSORG
 10
0.0
 20
0.0
 30
0.0
  9
$PUCSXDIR
 10
1.0
 20
0.0
 30
0.0
  9
$PUCSYDIR
 10
0.0
 20
1.0
 30
0.0
  9
$USERI1
 70
     0
  9
$USERI2
 70
     1
  9
$USERI3
 70
     0
  9
$USERI4
 70
     0
  9
$USERI5
 70
     0
  9
$USERR1
 40
0.0
  9
$USERR2
 40
0.0
  9
$USERR3
 40
0.0
  9
$USERR4
 40
0.0
  9
$USERR5
 40
0.0
  9
$WORLDVIEW
 70
     1
  9
$SHADEDGE
 70
     3
  9
$SHADEDIF
 70
    70
  9
$TILEMODE
 70
     1
  9
$MAXACTVP
 70
    64
  9
$PLIMCHECK
 70
     0
  9
$PEXTMIN
 10
0.0
 20
0.0
 30
0.0
  9
$PEXTMAX
 10
0.0
 20
0.0
 30
0.0
  9
$PLIMMIN
 10
0.0
 20
0.0
  9
$PLIMMAX
 10
12.0
 20
9.0
  9
$UNITMODE
 70
     0
  9
$VISRETAIN
 70
     1
  9
$PLINEGEN
 70
     0
  9
$PSLTSCALE
 70
     1
  0
ENDSEC
  0
SECTION
  2
TABLES
  0
TABLE
  2
VPORT
 70
     1
  0
VPORT
  2
*ACTIVE
 70
     0
 10
0.0
 20
0.0
 11
1.0
 21
1.0
 12
76.980312992495897
 22
68.719376603473734
 13
0.0
 23
0.0
 14
0.5
 24
0.5
 15
0.5
 25
0.5
 16
0.0
 26
0.0
 36
1.0
 17
0.0
 27
0.0
 37
0.0
 40
141.6742655706351
 41
1.8318713450292401
 42
50.0
 43
0.0
 44
0.0
 50
0.0
 51
0.0
 71
     0
 72
  1000
 73
     1
 74
     2
 75
     0
 76
     0
 77
     0
 78
     0
  0
ENDTAB
  0
TABLE
  2
LTYPE
 70
     5
  0
LTYPE
  2
CONTINUOUS
 70
     0
  3
Solid Line
 72
    65
 73
     0
 40
0.0
  0
LTYPE
  2
CENTER
 70
     0
  3
____ _ ____ _ ____ _ ____ _ ____ _ ____ _ ____
 72
    65
 73
     4
 40
2.0
 49
1.25
 49
-0.25
 49
0.25
 49
-0.25
  0
LTYPE
  2
GESTRICHELT
 70
     0
  3

 72
    65
 73
     2
 40
2.0
 49
1.0
 49
-1.0
  0
LTYPE
  2
MITTE
 70
     0
  3

 72
    65
 73
     4
 40
2.0
 49
0.45
 49
-0.5
 49
0.05
 49
-0.5
  0
LTYPE
  2
PHANTOM2
 70
     0
  3
___ _ _ ___ _ _ ___ _ _ ___ _ _
 72
    65
 73
     6
 40
1.25
 49
0.625
 49
-0.125
 49
0.125
 49
-0.125
 49
0.125
 49
-0.125
  0
ENDTAB
  0
TABLE
  2
LAYER
 70
     3
  0
LAYER
  2
0
 70
     0
 62
     7
  6
CONTINUOUS
  0
LAYER
  2
1
 70
     0
 62
     1
  6
CENTER
  0
LAYER
  2
3
 70
     0
 62
     3
  6
CONTINUOUS
  0
ENDTAB
  0
TABLE
  2
STYLE
 70
     2
  0
STYLE
  2
STANDARD
 70
     0
 40
0.0
 41
1.0
 50
0.0
 71
     0
 42
0.2
  3
simplex.shx
  4
bigfont.shx
  0
STYLE
  2
STANDARD1
 70
     0
 40
0.0
 41
1.0
 50
0.0
 71
     0
 42
3.0
  3
txt
  4

  0
ENDTAB
  0
TABLE
  2
VIEW
 70
     0
  0
ENDTAB
  0
TABLE
  2
UCS
 70
     0
  0
ENDTAB
  0
TABLE
  2
APPID
 70
     3
  0
APPID
  2
ACAD
 70
     0
  0
APPID
  2
ACAD_MLEADERVER
 70
     0
  0
APPID
  2
ACAD_NAV_VCDISPLAY
 70
     0
  0
ENDTAB
  0
TABLE
  2
DIMSTYLE
 70
     2
  0
DIMSTYLE
  2
STANDARD
 70
     0
  3

  4

  5

  6

  7

 40
1.0
 41
0.18
 42
0.0625
 43
0.38
 44
0.18
 45
0.0
 46
0.0
 47
0.0
 48
0.0
140
0.18
141
0.09
142
0.0
143
25.399999999999999
144
1.0
145
0.0
146
1.0
147
0.09
 71
     0
 72
     0
 73
     1
 74
     1
 75
     0
 76
     0
 77
     0
 78
     0
170
     0
171
     2
172
     0
173
     0
174
     0
175
     0
176
     0
177
     0
178
     0
  0
DIMSTYLE
  2
ISO-25
 70
     0
  3

  4

  5

  6

  7

 40
1.0
 41
2.5
 42
0.625
 43
3.75
 44
1.25
 45
0.0
 46
0.0
 47
0.0
 48
0.0
140
2.5
141
2.5
142
0.0
143
0.03937007874016
144
1.0
145
0.0
146
1.0
147
0.625
 71
     0
 72
     0
 73
     0
 74
     0
 75
     0
 76
     0
 77
     1
 78
     8
170
     0
171
     3
172
     1
173
     0
174
     0
175
     0
176
     0
177
     0
178
     0
  0
ENDTAB
  0
ENDSEC
  0
SECTION
  2
BLOCKS
  0
BLOCK
  8
0
  2
$MODEL_SPACE
 70
     0
 10
0.0
 20
0.0
 30
0.0
  3
$MODEL_SPACE
  1

  0
ENDBLK
  5
21
  8
0
  0
BLOCK
 67
     1
  8
0
  2
$PAPER_SPACE
 70
     0
 10
0.0
 20
0.0
 30
0.0
  3
$PAPER_SPACE
  1

  0
ENDBLK
  5
5B
 67
     1
  8
0
  0
ENDSEC
  0
SECTION
  2
ENTITIES
  0
POINT
  5
10F5
  8
3
 10
54.11474055587783
 20
116.60209800562269
 30
0.0
  0
LINE
  5
10FA
  8
3
 10
46.578343532451207
 20
104.0920980056227
 30
0.0
 11
46.290585815091717
 21
103.80434028826321
 31
0.0
  0
LINE
  5
10FB
  8
3
 10
46.578343532451207
 20
104.0920980056226
 30
0.0
 11
45.83827391847754
 21
104.0920980056226
 31
0.0
  0
LINE
  5
10FD
  8
3
 10
61.938895296663922
 20
103.80434028826321
 30
0.0
 11
61.651137579304446
 21
104.0920980056227
 31
0.0
  0
LINE
  5
10FF
  8
3
 10
62.39120719327812
 20
104.0920980056226
 30
0.0
 11
61.651137579304446
 21
104.0920980056226
 31
0.0
  0
LINE
  5
1100
  8
3
 10
60.20665125867643
 20
103.0365843262507
 30
0.0
 11
59.151137579304446
 21
104.0920980056227
 31
0.0
  0
LINE
  5
1101
  8
3
 10
60.516055937482719
 20
103.0365843262507
 30
0.0
 11
60.20665125867643
 21
103.0365843262507
 31
0.0
  0
LINE
  5
1103
  8
3
 10
61.578343532451207
 20
104.0920980056227
 30
0.0
 11
60.528896521088541
 21
103.04265099426
 31
0.0
  0
LINE
  5
1104
  8
3
 10
61.578343532451207
 20
104.0920980056226
 30
0.0
 11
59.151137579304446
 21
104.0920980056226
 31
0.0
  0
LINE
  5
1105
  8
3
 10
57.70665125867643
 20
103.0365843262507
 30
0.0
 11
56.651137579304446
 21
104.0920980056227
 31
0.0
  0
LINE
  5
1106
  8
3
 10
58.02282985307923
 20
103.0365843262507
 30
0.0
 11
57.70665125867643
 21
103.0365843262507
 31
0.0
  0
LINE
  5
1107
  8
3
 10
59.078343532451207
 20
104.0920980056227
 30
0.0
 11
58.02282985307923
 21
103.0365843262507
 31
0.0
  0
LINE
  5
1108
  8
3
 10
59.078343532451207
 20
104.0920980056226
 30
0.0
 11
56.651137579304446
 21
104.0920980056226
 31
0.0
  0
LINE
  5
1109
  8
3
 10
55.20665125867643
 20
103.0365843262507
 30
0.0
 11
54.151137579304446
 21
104.0920980056227
 31
0.0
  0
LINE
  5
110A
  8
3
 10
55.52282985307923
 20
103.0365843262507
 30
0.0
 11
55.20665125867643
 21
103.0365843262507
 31
0.0
  0
LINE
  5
110B
  8
3
 10
56.578343532451207
 20
104.0920980056227
 30
0.0
 11
55.52282985307923
 21
103.0365843262507
 31
0.0
  0
LINE
  5
110C
  8
3
 10
56.578343532451207
 20
104.0920980056226
 30
0.0
 11
54.151137579304446
 21
104.0920980056226
 31
0.0
  0
LINE
  5
110D
  8
3
 10
52.70665125867643
 20
103.0365843262507
 30
0.0
 11
51.651137579304446
 21
104.0920980056227
 31
0.0
  0
LINE
  5
110E
  8
3
 10
53.02282985307923
 20
103.0365843262507
 30
0.0
 11
52.70665125867643
 21
103.0365843262507
 31
0.0
  0
LINE
  5
110F
  8
3
 10
54.078343532451207
 20
104.0920980056227
 30
0.0
 11
53.02282985307923
 21
103.0365843262507
 31
0.0
  0
LINE
  5
1110
  8
3
 10
54.078343532451207
 20
104.0920980056226
 30
0.0
 11
51.651137579304446
 21
104.0920980056226
 31
0.0
  0
LINE
  5
1111
  8
3
 10
50.20665125867643
 20
103.0365843262507
 30
0.0
 11
49.151137579304446
 21
104.0920980056227
 31
0.0
  0
LINE
  5
1112
  8
3
 10
50.52282985307923
 20
103.0365843262507
 30
0.0
 11
50.20665125867643
 21
103.0365843262507
 31
0.0
  0
LINE
  5
1113
  8
3
 10
51.578343532451207
 20
104.0920980056227
 30
0.0
 11
50.52282985307923
 21
103.0365843262507
 31
0.0
  0
LINE
  5
1114
  8
3
 10
51.578343532451207
 20
104.0920980056226
 30
0.0
 11
49.151137579304446
 21
104.0920980056226
 31
0.0
  0
LINE
  5
1115
  8
3
 10
49.151137579304446
 20
104.0920980056227
 30
0.0
 11
50.20665125867643
 21
105.1476116849946
 31
0.0
  0
LINE
  5
1116
  8
3
 10
50.52282985307923
 20
105.1476116849946
 30
0.0
 11
51.578343532451207
 21
104.0920980056226
 31
0.0
  0
LINE
  5
1117
  8
3
 10
50.20665125867643
 20
105.1476116849946
 30
0.0
 11
50.52282985307923
 21
105.1476116849946
 31
0.0
  0
LINE
  5
1118
  8
3
 10
51.651137579304446
 20
104.0920980056227
 30
0.0
 11
52.70665125867643
 21
105.1476116849946
 31
0.0
  0
LINE
  5
1119
  8
3
 10
53.02282985307923
 20
105.1476116849946
 30
0.0
 11
54.078343532451207
 21
104.0920980056227
 31
0.0
  0
LINE
  5
111A
  8
3
 10
52.70665125867643
 20
105.1476116849946
 30
0.0
 11
53.02282985307923
 21
105.1476116849946
 31
0.0
  0
LINE
  5
111B
  8
3
 10
54.151137579304446
 20
104.0920980056227
 30
0.0
 11
55.20665125867643
 21
105.1476116849946
 31
0.0
  0
LINE
  5
111C
  8
3
 10
55.52282985307923
 20
105.1476116849946
 30
0.0
 11
56.578343532451207
 21
104.0920980056227
 31
0.0
  0
LINE
  5
111D
  8
3
 10
55.20665125867643
 20
105.1476116849946
 30
0.0
 11
55.52282985307923
 21
105.1476116849946
 31
0.0
  0
LINE
  5
111E
  8
3
 10
56.651137579304446
 20
104.0920980056227
 30
0.0
 11
57.70665125867643
 21
105.1476116849946
 31
0.0
  0
LINE
  5
111F
  8
3
 10
58.02282985307923
 20
105.1476116849946
 30
0.0
 11
59.078343532451207
 21
104.0920980056227
 31
0.0
  0
LINE
  5
1120
  8
3
 10
57.70665125867643
 20
105.1476116849946
 30
0.0
 11
58.02282985307923
 21
105.1476116849946
 31
0.0
  0
LINE
  5
1121
  8
3
 10
59.151137579304446
 20
104.0920980056227
 30
0.0
 11
60.20665125867643
 21
105.1476116849946
 31
0.0
  0
LINE
  5
1122
  8
3
 10
60.52282985307923
 20
105.1476116849946
 30
0.0
 11
61.578343532451207
 21
104.0920980056227
 31
0.0
  0
LINE
  5
1123
  8
3
 10
60.20665125867643
 20
105.1476116849946
 30
0.0
 11
60.52282985307923
 21
105.1476116849946
 31
0.0
  0
LINE
  5
1124
  8
3
 10
61.651137579304446
 20
104.0920980056227
 30
0.0
 11
62.70665125867643
 21
105.1476116849946
 31
0.0
  0
LINE
  5
1126
  8
3
 10
63.02282985307923
 20
105.1476116849946
 30
0.0
 11
63.371450189527003
 21
104.79899134854691
 31
0.0
  0
LINE
  5
1127
  8
3
 10
62.70665125867643
 20
105.1476116849946
 30
0.0
 11
63.02282985307923
 21
105.1476116849946
 31
0.0
  0
LINE
  5
1128
  8
3
 10
45.52282985307923
 20
105.1476116849946
 30
0.0
 11
46.578343532451207
 21
104.0920980056227
 31
0.0
  0
LINE
  5
1129
  8
3
 10
45.20665125867643
 20
105.1476116849946
 30
0.0
 11
45.52282985307923
 21
105.1476116849946
 31
0.0
  0
LINE
  5
112A
  8
3
 10
44.858030922228657
 20
104.79899134854691
 30
0.0
 11
45.20665125867643
 21
105.1476116849946
 31
0.0
  0
LINE
  5
112C
  8
3
 10
46.651137579304439
 20
104.0920980056227
 30
0.0
 11
47.70665125867643
 21
105.1476116849946
 31
0.0
  0
LINE
  5
112D
  8
3
 10
49.078343532451207
 20
104.0920980056226
 30
0.0
 11
46.651137579304439
 21
104.0920980056226
 31
0.0
  0
LINE
  5
112E
  8
3
 10
48.02282985307923
 20
105.1476116849946
 30
0.0
 11
49.078343532451207
 21
104.0920980056227
 31
0.0
  0
LINE
  5
112F
  8
3
 10
47.70665125867643
 20
105.1476116849946
 30
0.0
 11
48.02282985307923
 21
105.1476116849946
 31
0.0
  0
LINE
  5
1130
  8
3
 10
44.078343532451207
 20
106.5920980056227
 30
0.0
 11
43.494948538269767
 21
106.0087030114412
 31
0.0
  0
LINE
  5
1131
  8
3
 10
44.078343532451207
 20
106.5920980056227
 30
0.0
 11
42.943352996581517
 21
106.5920980056227
 31
0.0
  0
LINE
  5
1133
  8
3
 10
64.734532573485893
 20
106.0087030114412
 30
0.0
 11
64.151137579304446
 21
106.5920980056227
 31
0.0
  0
LINE
  5
1135
  8
3
 10
65.286128115174137
 20
106.5920980056227
 30
0.0
 11
64.151137579304446
 21
106.5920980056227
 31
0.0
  0
LINE
  5
1136
  8
3
 10
62.70665125867643
 20
105.5365843262507
 30
0.0
 11
61.651137579304446
 21
106.5920980056227
 31
0.0
  0
LINE
  5
1137
  8
3
 10
63.02282985307923
 20
105.5365843262507
 30
0.0
 11
62.70665125867643
 21
105.5365843262507
 31
0.0
  0
LINE
  5
1138
  8
3
 10
64.078343532451214
 20
106.5920980056227
 30
0.0
 11
63.02282985307923
 21
105.5365843262507
 31
0.0
  0
LINE
  5
1139
  8
3
 10
64.078343532451214
 20
106.5920980056227
 30
0.0
 11
61.651137579304446
 21
106.5920980056227
 31
0.0
  0
LINE
  5
113A
  8
3
 10
60.20665125867643
 20
105.5365843262507
 30
0.0
 11
59.151137579304446
 21
106.5920980056227
 31
0.0
  0
LINE
  5
113B
  8
3
 10
60.52282985307923
 20
105.5365843262507
 30
0.0
 11
60.20665125867643
 21
105.5365843262507
 31
0.0
  0
LINE
  5
113C
  8
3
 10
61.578343532451207
 20
106.5920980056227
 30
0.0
 11
60.52282985307923
 21
105.5365843262507
 31
0.0
  0
LINE
  5
113D
  8
3
 10
61.578343532451207
 20
106.5920980056227
 30
0.0
 11
59.151137579304446
 21
106.5920980056227
 31
0.0
  0
LINE
  5
113E
  8
3
 10
57.70665125867643
 20
105.5365843262507
 30
0.0
 11
56.651137579304446
 21
106.5920980056227
 31
0.0
  0
LINE
  5
113F
  8
3
 10
58.02282985307923
 20
105.5365843262507
 30
0.0
 11
57.70665125867643
 21
105.5365843262507
 31
0.0
  0
LINE
  5
1140
  8
3
 10
59.078343532451207
 20
106.5920980056227
 30
0.0
 11
58.02282985307923
 21
105.5365843262507
 31
0.0
  0
LINE
  5
1141
  8
3
 10
59.078343532451207
 20
106.5920980056227
 30
0.0
 11
56.651137579304446
 21
106.5920980056227
 31
0.0
  0
LINE
  5
1142
  8
3
 10
55.20665125867643
 20
105.5365843262507
 30
0.0
 11
54.151137579304446
 21
106.5920980056227
 31
0.0
  0
LINE
  5
1143
  8
3
 10
55.52282985307923
 20
105.5365843262507
 30
0.0
 11
55.20665125867643
 21
105.5365843262507
 31
0.0
  0
LINE
  5
1144
  8
3
 10
56.578343532451207
 20
106.5920980056227
 30
0.0
 11
55.52282985307923
 21
105.5365843262507
 31
0.0
  0
LINE
  5
1145
  8
3
 10
56.578343532451207
 20
106.5920980056227
 30
0.0
 11
54.151137579304446
 21
106.5920980056227
 31
0.0
  0
LINE
  5
1146
  8
3
 10
52.70665125867643
 20
105.5365843262507
 30
0.0
 11
51.651137579304446
 21
106.5920980056227
 31
0.0
  0
LINE
  5
1147
  8
3
 10
53.02282985307923
 20
105.5365843262507
 30
0.0
 11
52.70665125867643
 21
105.5365843262507
 31
0.0
  0
LINE
  5
1148
  8
3
 10
54.078343532451207
 20
106.5920980056227
 30
0.0
 11
53.02282985307923
 21
105.5365843262507
 31
0.0
  0
LINE
  5
1149
  8
3
 10
54.078343532451207
 20
106.5920980056227
 30
0.0
 11
51.651137579304446
 21
106.5920980056227
 31
0.0
  0
LINE
  5
114A
  8
3
 10
50.20665125867643
 20
105.5365843262507
 30
0.0
 11
49.151137579304446
 21
106.5920980056227
 31
0.0
  0
LINE
  5
114B
  8
3
 10
50.52282985307923
 20
105.5365843262507
 30
0.0
 11
50.20665125867643
 21
105.5365843262507
 31
0.0
  0
LINE
  5
114C
  8
3
 10
51.578343532451207
 20
106.5920980056227
 30
0.0
 11
50.52282985307923
 21
105.5365843262507
 31
0.0
  0
LINE
  5
114D
  8
3
 10
51.578343532451207
 20
106.5920980056227
 30
0.0
 11
49.151137579304446
 21
106.5920980056227
 31
0.0
  0
LINE
  5
114E
  8
3
 10
47.70665125867643
 20
105.5365843262507
 30
0.0
 11
46.651137579304439
 21
106.5920980056227
 31
0.0
  0
LINE
  5
114F
  8
3
 10
48.02282985307923
 20
105.5365843262507
 30
0.0
 11
47.70665125867643
 21
105.5365843262507
 31
0.0
  0
LINE
  5
1150
  8
3
 10
49.078343532451207
 20
106.5920980056227
 30
0.0
 11
48.02282985307923
 21
105.5365843262507
 31
0.0
  0
LINE
  5
1151
  8
3
 10
49.078343532451207
 20
106.5920980056227
 30
0.0
 11
46.651137579304439
 21
106.5920980056227
 31
0.0
  0
LINE
  5
1152
  8
3
 10
46.651137579304439
 20
106.5920980056227
 30
0.0
 11
47.70665125867643
 21
107.6476116849947
 31
0.0
  0
LINE
  5
1153
  8
3
 10
48.02282985307923
 20
107.6476116849947
 30
0.0
 11
49.078343532451207
 21
106.5920980056227
 31
0.0
  0
LINE
  5
1154
  8
3
 10
47.70665125867643
 20
107.6476116849947
 30
0.0
 11
48.02282985307923
 21
107.6476116849947
 31
0.0
  0
LINE
  5
1155
  8
3
 10
49.151137579304446
 20
106.5920980056227
 30
0.0
 11
50.20665125867643
 21
107.6476116849947
 31
0.0
  0
LINE
  5
1156
  8
3
 10
50.52282985307923
 20
107.6476116849947
 30
0.0
 11
51.578343532451207
 21
106.5920980056227
 31
0.0
  0
LINE
  5
1157
  8
3
 10
50.20665125867643
 20
107.6476116849947
 30
0.0
 11
50.52282985307923
 21
107.6476116849947
 31
0.0
  0
LINE
  5
1158
  8
3
 10
51.651137579304446
 20
106.5920980056227
 30
0.0
 11
52.70665125867643
 21
107.6476116849947
 31
0.0
  0
LINE
  5
1159
  8
3
 10
53.02282985307923
 20
107.6476116849947
 30
0.0
 11
54.078343532451207
 21
106.5920980056227
 31
0.0
  0
LINE
  5
115A
  8
3
 10
52.70665125867643
 20
107.6476116849947
 30
0.0
 11
53.02282985307923
 21
107.6476116849947
 31
0.0
  0
LINE
  5
115B
  8
3
 10
54.151137579304446
 20
106.5920980056227
 30
0.0
 11
55.20665125867643
 21
107.6476116849947
 31
0.0
  0
LINE
  5
115C
  8
3
 10
55.52282985307923
 20
107.6476116849947
 30
0.0
 11
56.578343532451207
 21
106.5920980056227
 31
0.0
  0
LINE
  5
115D
  8
3
 10
55.20665125867643
 20
107.6476116849947
 30
0.0
 11
55.52282985307923
 21
107.6476116849947
 31
0.0
  0
LINE
  5
115E
  8
3
 10
56.651137579304446
 20
106.5920980056227
 30
0.0
 11
57.70665125867643
 21
107.6476116849947
 31
0.0
  0
LINE
  5
115F
  8
3
 10
58.02282985307923
 20
107.6476116849947
 30
0.0
 11
59.078343532451207
 21
106.5920980056227
 31
0.0
  0
LINE
  5
1160
  8
3
 10
57.70665125867643
 20
107.6476116849947
 30
0.0
 11
58.02282985307923
 21
107.6476116849947
 31
0.0
  0
LINE
  5
1161
  8
3
 10
59.151137579304446
 20
106.5920980056227
 30
0.0
 11
60.20665125867643
 21
107.6476116849947
 31
0.0
  0
LINE
  5
1162
  8
3
 10
60.52282985307923
 20
107.6476116849947
 30
0.0
 11
61.578343532451207
 21
106.5920980056227
 31
0.0
  0
LINE
  5
1163
  8
3
 10
60.20665125867643
 20
107.6476116849947
 30
0.0
 11
60.52282985307923
 21
107.6476116849947
 31
0.0
  0
LINE
  5
1164
  8
3
 10
61.651137579304446
 20
106.5920980056227
 30
0.0
 11
62.70665125867643
 21
107.6476116849947
 31
0.0
  0
LINE
  5
1165
  8
3
 10
63.02282985307923
 20
107.6476116849947
 30
0.0
 11
64.078343532451214
 21
106.5920980056227
 31
0.0
  0
LINE
  5
1166
  8
3
 10
62.70665125867643
 20
107.6476116849947
 30
0.0
 11
63.02282985307923
 21
107.6476116849947
 31
0.0
  0
LINE
  5
1167
  8
3
 10
64.151137579304446
 20
106.5920980056227
 30
0.0
 11
65.20665125867643
 21
107.6476116849947
 31
0.0
  0
LINE
  5
1169
  8
3
 10
65.52282985307923
 20
107.6476116849947
 30
0.0
 11
65.876956516710806
 21
107.2934850213631
 31
0.0
  0
LINE
  5
116A
  8
3
 10
65.20665125867643
 20
107.6476116849947
 30
0.0
 11
65.52282985307923
 21
107.6476116849947
 31
0.0
  0
LINE
  5
116B
  8
3
 10
43.02282985307923
 20
107.6476116849947
 30
0.0
 11
44.078343532451207
 21
106.5920980056227
 31
0.0
  0
LINE
  5
116C
  8
3
 10
42.70665125867643
 20
107.6476116849947
 30
0.0
 11
43.02282985307923
 21
107.6476116849947
 31
0.0
  0
LINE
  5
116D
  8
3
 10
42.352524595044862
 20
107.2934850213631
 30
0.0
 11
42.70665125867643
 21
107.6476116849947
 31
0.0
  0
LINE
  5
116F
  8
3
 10
44.151137579304439
 20
106.5920980056227
 30
0.0
 11
45.20665125867643
 21
107.6476116849947
 31
0.0
  0
LINE
  5
1170
  8
3
 10
46.578343532451207
 20
106.5920980056227
 30
0.0
 11
44.151137579304439
 21
106.5920980056227
 31
0.0
  0
LINE
  5
1171
  8
3
 10
45.52282985307923
 20
107.6476116849947
 30
0.0
 11
46.578343532451207
 21
106.5920980056227
 31
0.0
  0
LINE
  5
1172
  8
3
 10
45.20665125867643
 20
107.6476116849947
 30
0.0
 11
45.52282985307923
 21
107.6476116849947
 31
0.0
  0
LINE
  5
1174
  8
3
 10
41.578343532451207
 20
109.0920980056226
 30
0.0
 11
41.130138136088441
 21
109.0920980056226
 31
0.0
  0
LINE
  5
1175
  8
3
 10
40.622321440802999
 20
110.0481200972709
 30
0.0
 11
41.578343532451207
 21
109.0920980056227
 31
0.0
  0
LINE
  5
1176
  8
3
 10
41.651137579304439
 20
109.0920980056227
 30
0.0
 11
42.70665125867643
 21
110.1476116849946
 31
0.0
  0
LINE
  5
1177
  8
3
 10
44.078343532451207
 20
109.0920980056226
 30
0.0
 11
41.651137579304439
 21
109.0920980056226
 31
0.0
  0
LINE
  5
1178
  8
3
 10
43.02282985307923
 20
110.1476116849946
 30
0.0
 11
44.078343532451207
 21
109.0920980056227
 31
0.0
  0
LINE
  5
1179
  8
3
 10
42.70665125867643
 20
110.1476116849946
 30
0.0
 11
43.02282985307923
 21
110.1476116849946
 31
0.0
  0
LINE
  5
117A
  8
3
 10
44.151137579304439
 20
109.0920980056227
 30
0.0
 11
45.20665125867643
 21
110.1476116849946
 31
0.0
  0
LINE
  5
117B
  8
3
 10
46.578343532451207
 20
109.0920980056226
 30
0.0
 11
44.151137579304439
 21
109.0920980056226
 31
0.0
  0
LINE
  5
117C
  8
3
 10
45.52282985307923
 20
110.1476116849946
 30
0.0
 11
46.578343532451207
 21
109.0920980056227
 31
0.0
  0
LINE
  5
117D
  8
3
 10
45.20665125867643
 20
110.1476116849946
 30
0.0
 11
45.52282985307923
 21
110.1476116849946
 31
0.0
  0
LINE
  5
117E
  8
3
 10
46.651137579304439
 20
109.0920980056227
 30
0.0
 11
47.70665125867643
 21
110.1476116849946
 31
0.0
  0
LINE
  5
117F
  8
3
 10
49.078343532451207
 20
109.0920980056226
 30
0.0
 11
46.651137579304439
 21
109.0920980056226
 31
0.0
  0
LINE
  5
1180
  8
3
 10
48.02282985307923
 20
110.1476116849946
 30
0.0
 11
49.078343532451207
 21
109.0920980056227
 31
0.0
  0
LINE
  5
1181
  8
3
 10
47.70665125867643
 20
110.1476116849946
 30
0.0
 11
48.02282985307923
 21
110.1476116849946
 31
0.0
  0
LINE
  5
1182
  8
3
 10
49.151137579304446
 20
109.0920980056227
 30
0.0
 11
50.20665125867643
 21
110.1476116849946
 31
0.0
  0
LINE
  5
1183
  8
3
 10
51.578343532451207
 20
109.0920980056226
 30
0.0
 11
49.151137579304446
 21
109.0920980056226
 31
0.0
  0
LINE
  5
1184
  8
3
 10
50.52282985307923
 20
110.1476116849946
 30
0.0
 11
51.578343532451207
 21
109.0920980056227
 31
0.0
  0
LINE
  5
1185
  8
3
 10
50.20665125867643
 20
110.1476116849946
 30
0.0
 11
50.52282985307923
 21
110.1476116849946
 31
0.0
  0
LINE
  5
1186
  8
3
 10
51.651137579304446
 20
109.0920980056227
 30
0.0
 11
52.70665125867643
 21
110.1476116849946
 31
0.0
  0
LINE
  5
1187
  8
3
 10
54.078343532451207
 20
109.0920980056226
 30
0.0
 11
51.651137579304446
 21
109.0920980056226
 31
0.0
  0
LINE
  5
1188
  8
3
 10
53.02282985307923
 20
110.1476116849946
 30
0.0
 11
54.078343532451207
 21
109.0920980056227
 31
0.0
  0
LINE
  5
1189
  8
3
 10
52.70665125867643
 20
110.1476116849946
 30
0.0
 11
53.02282985307923
 21
110.1476116849946
 31
0.0
  0
LINE
  5
118A
  8
3
 10
54.151137579304446
 20
109.0920980056227
 30
0.0
 11
55.20665125867643
 21
110.1476116849946
 31
0.0
  0
LINE
  5
118B
  8
3
 10
56.578343532451207
 20
109.0920980056226
 30
0.0
 11
54.151137579304446
 21
109.0920980056226
 31
0.0
  0
LINE
  5
118C
  8
3
 10
55.52282985307923
 20
110.1476116849946
 30
0.0
 11
56.578343532451207
 21
109.0920980056227
 31
0.0
  0
LINE
  5
118D
  8
3
 10
55.20665125867643
 20
110.1476116849946
 30
0.0
 11
55.52282985307923
 21
110.1476116849946
 31
0.0
  0
LINE
  5
118E
  8
3
 10
56.651137579304446
 20
109.0920980056227
 30
0.0
 11
57.70665125867643
 21
110.1476116849946
 31
0.0
  0
LINE
  5
118F
  8
3
 10
59.078343532451207
 20
109.0920980056226
 30
0.0
 11
56.651137579304446
 21
109.0920980056226
 31
0.0
  0
LINE
  5
1190
  8
3
 10
58.02282985307923
 20
110.1476116849946
 30
0.0
 11
59.078343532451207
 21
109.0920980056227
 31
0.0
  0
LINE
  5
1191
  8
3
 10
57.70665125867643
 20
110.1476116849946
 30
0.0
 11
58.02282985307923
 21
110.1476116849946
 31
0.0
  0
LINE
  5
1192
  8
3
 10
59.151137579304446
 20
109.0920980056227
 30
0.0
 11
60.20665125867643
 21
110.1476116849946
 31
0.0
  0
LINE
  5
1193
  8
3
 10
61.578343532451207
 20
109.0920980056226
 30
0.0
 11
59.151137579304446
 21
109.0920980056226
 31
0.0
  0
LINE
  5
1194
  8
3
 10
60.52282985307923
 20
110.1476116849946
 30
0.0
 11
61.578343532451207
 21
109.0920980056227
 31
0.0
  0
LINE
  5
1195
  8
3
 10
60.20665125867643
 20
110.1476116849946
 30
0.0
 11
60.52282985307923
 21
110.1476116849946
 31
0.0
  0
LINE
  5
1196
  8
3
 10
61.651137579304446
 20
109.0920980056227
 30
0.0
 11
62.70665125867643
 21
110.1476116849946
 31
0.0
  0
LINE
  5
1197
  8
3
 10
64.078343532451214
 20
109.0920980056226
 30
0.0
 11
61.651137579304446
 21
109.0920980056226
 31
0.0
  0
LINE
  5
1198
  8
3
 10
63.02282985307923
 20
110.1476116849946
 30
0.0
 11
64.078343532451214
 21
109.0920980056227
 31
0.0
  0
LINE
  5
1199
  8
3
 10
62.70665125867643
 20
110.1476116849946
 30
0.0
 11
63.02282985307923
 21
110.1476116849946
 31
0.0
  0
LINE
  5
119A
  8
3
 10
64.151137579304446
 20
109.0920980056227
 30
0.0
 11
65.20665125867643
 21
110.1476116849946
 31
0.0
  0
LINE
  5
119B
  8
3
 10
66.578343532451214
 20
109.0920980056226
 30
0.0
 11
64.151137579304446
 21
109.0920980056226
 31
0.0
  0
LINE
  5
119C
  8
3
 10
65.52282985307923
 20
110.1476116849946
 30
0.0
 11
66.578343532451214
 21
109.0920980056227
 31
0.0
  0
LINE
  5
119D
  8
3
 10
65.20665125867643
 20
110.1476116849946
 30
0.0
 11
65.52282985307923
 21
110.1476116849946
 31
0.0
  0
LINE
  5
119E
  8
3
 10
65.20665125867643
 20
108.0365843262507
 30
0.0
 11
64.151137579304446
 21
109.0920980056227
 31
0.0
  0
LINE
  5
119F
  8
3
 10
65.52282985307923
 20
108.0365843262507
 30
0.0
 11
65.20665125867643
 21
108.0365843262507
 31
0.0
  0
LINE
  5
11A0
  8
3
 10
66.578343532451214
 20
109.0920980056227
 30
0.0
 11
65.52282985307923
 21
108.0365843262507
 31
0.0
  0
LINE
  5
11A1
  8
3
 10
62.70665125867643
 20
108.0365843262507
 30
0.0
 11
61.651137579304446
 21
109.0920980056227
 31
0.0
  0
LINE
  5
11A2
  8
3
 10
63.02282985307923
 20
108.0365843262507
 30
0.0
 11
62.70665125867643
 21
108.0365843262507
 31
0.0
  0
LINE
  5
11A3
  8
3
 10
64.078343532451214
 20
109.0920980056227
 30
0.0
 11
63.02282985307923
 21
108.0365843262507
 31
0.0
  0
LINE
  5
11A4
  8
3
 10
60.20665125867643
 20
108.0365843262507
 30
0.0
 11
59.151137579304446
 21
109.0920980056227
 31
0.0
  0
LINE
  5
11A5
  8
3
 10
60.52282985307923
 20
108.0365843262507
 30
0.0
 11
60.20665125867643
 21
108.0365843262507
 31
0.0
  0
LINE
  5
11A6
  8
3
 10
61.578343532451207
 20
109.0920980056227
 30
0.0
 11
60.52282985307923
 21
108.0365843262507
 31
0.0
  0
LINE
  5
11A7
  8
3
 10
57.70665125867643
 20
108.0365843262507
 30
0.0
 11
56.651137579304446
 21
109.0920980056227
 31
0.0
  0
LINE
  5
11A8
  8
3
 10
58.02282985307923
 20
108.0365843262507
 30
0.0
 11
57.70665125867643
 21
108.0365843262507
 31
0.0
  0
LINE
  5
11A9
  8
3
 10
59.078343532451207
 20
109.0920980056227
 30
0.0
 11
58.02282985307923
 21
108.0365843262507
 31
0.0
  0
LINE
  5
11AA
  8
3
 10
55.20665125867643
 20
108.0365843262507
 30
0.0
 11
54.151137579304446
 21
109.0920980056227
 31
0.0
  0
LINE
  5
11AB
  8
3
 10
55.52282985307923
 20
108.0365843262507
 30
0.0
 11
55.20665125867643
 21
108.0365843262507
 31
0.0
  0
LINE
  5
11AC
  8
3
 10
56.578343532451207
 20
109.0920980056227
 30
0.0
 11
55.52282985307923
 21
108.0365843262507
 31
0.0
  0
LINE
  5
11AD
  8
3
 10
52.70665125867643
 20
108.0365843262507
 30
0.0
 11
51.651137579304446
 21
109.0920980056227
 31
0.0
  0
LINE
  5
11AE
  8
3
 10
53.02282985307923
 20
108.0365843262507
 30
0.0
 11
52.70665125867643
 21
108.0365843262507
 31
0.0
  0
LINE
  5
11AF
  8
3
 10
54.078343532451207
 20
109.0920980056227
 30
0.0
 11
53.02282985307923
 21
108.0365843262507
 31
0.0
  0
LINE
  5
11B0
  8
3
 10
50.20665125867643
 20
108.0365843262507
 30
0.0
 11
49.151137579304446
 21
109.0920980056227
 31
0.0
  0
LINE
  5
11B1
  8
3
 10
50.52282985307923
 20
108.0365843262507
 30
0.0
 11
50.20665125867643
 21
108.0365843262507
 31
0.0
  0
LINE
  5
11B2
  8
3
 10
51.578343532451207
 20
109.0920980056227
 30
0.0
 11
50.52282985307923
 21
108.0365843262507
 31
0.0
  0
LINE
  5
11B3
  8
3
 10
47.70665125867643
 20
108.0365843262507
 30
0.0
 11
46.651137579304439
 21
109.0920980056227
 31
0.0
  0
LINE
  5
11B4
  8
3
 10
48.02282985307923
 20
108.0365843262507
 30
0.0
 11
47.70665125867643
 21
108.0365843262507
 31
0.0
  0
LINE
  5
11B5
  8
3
 10
49.078343532451207
 20
109.0920980056227
 30
0.0
 11
48.02282985307923
 21
108.0365843262507
 31
0.0
  0
LINE
  5
11B6
  8
3
 10
45.20665125867643
 20
108.0365843262507
 30
0.0
 11
44.151137579304439
 21
109.0920980056227
 31
0.0
  0
LINE
  5
11B7
  8
3
 10
45.52282985307923
 20
108.0365843262507
 30
0.0
 11
45.20665125867643
 21
108.0365843262507
 31
0.0
  0
LINE
  5
11B8
  8
3
 10
46.578343532451207
 20
109.0920980056227
 30
0.0
 11
45.52282985307923
 21
108.0365843262507
 31
0.0
  0
LINE
  5
11B9
  8
3
 10
42.70665125867643
 20
108.0365843262507
 30
0.0
 11
41.651137579304439
 21
109.0920980056227
 31
0.0
  0
LINE
  5
11BA
  8
3
 10
43.02282985307923
 20
108.0365843262507
 30
0.0
 11
42.70665125867643
 21
108.0365843262507
 31
0.0
  0
LINE
  5
11BB
  8
3
 10
44.078343532451207
 20
109.0920980056227
 30
0.0
 11
43.02282985307923
 21
108.0365843262507
 31
0.0
  0
LINE
  5
11BD
  8
3
 10
41.578343532451207
 20
109.0920980056227
 30
0.0
 11
41.296988039224651
 21
108.8107425123961
 31
0.0
  0
LINE
  5
11BF
  8
3
 10
67.099342975667213
 20
109.0920980056226
 30
0.0
 11
66.651137579304446
 21
109.0920980056226
 31
0.0
  0
LINE
  5
11C0
  8
3
 10
66.932493072531003
 20
108.8107425123961
 30
0.0
 11
66.651137579304446
 21
109.0920980056227
 31
0.0
  0
LINE
  5
11C1
  8
3
 10
41.578343532451207
 20
111.5920980056227
 30
0.0
 11
40.52282985307923
 21
110.5365843262507
 31
0.0
  0
LINE
  5
11C2
  8
3
 10
41.578343532451207
 20
111.5920980056227
 30
0.0
 11
39.976144444523641
 21
111.5920980056227
 31
0.0
  0
LINE
  5
11C4
  8
3
 10
40.52282985307923
 20
110.5365843262507
 30
0.0
 11
40.395792206774978
 21
110.5365843262507
 31
0.0
  0
LINE
  5
11C5
  8
3
 10
67.70665125867643
 20
110.5365843262507
 30
0.0
 11
66.651137579304446
 21
111.5920980056227
 31
0.0
  0
LINE
  5
11C6
  8
3
 10
67.833688904980676
 20
110.5365843262507
 30
0.0
 11
67.70665125867643
 21
110.5365843262507
 31
0.0
  0
LINE
  5
11C8
  8
3
 10
68.25333666723202
 20
111.5920980056227
 30
0.0
 11
66.651137579304446
 21
111.5920980056227
 31
0.0
  0
LINE
  5
11C9
  8
3
 10
65.20665125867643
 20
110.5365843262507
 30
0.0
 11
64.151137579304446
 21
111.5920980056227
 31
0.0
  0
LINE
  5
11CA
  8
3
 10
65.52282985307923
 20
110.5365843262507
 30
0.0
 11
65.20665125867643
 21
110.5365843262507
 31
0.0
  0
LINE
  5
11CB
  8
3
 10
66.578343532451214
 20
111.5920980056227
 30
0.0
 11
65.52282985307923
 21
110.5365843262507
 31
0.0
  0
LINE
  5
11CC
  8
3
 10
66.578343532451214
 20
111.5920980056227
 30
0.0
 11
64.151137579304446
 21
111.5920980056227
 31
0.0
  0
LINE
  5
11CD
  8
3
 10
62.70665125867643
 20
110.5365843262507
 30
0.0
 11
61.651137579304446
 21
111.5920980056227
 31
0.0
  0
LINE
  5
11CE
  8
3
 10
63.02282985307923
 20
110.5365843262507
 30
0.0
 11
62.70665125867643
 21
110.5365843262507
 31
0.0
  0
LINE
  5
11CF
  8
3
 10
64.078343532451214
 20
111.5920980056227
 30
0.0
 11
63.02282985307923
 21
110.5365843262507
 31
0.0
  0
LINE
  5
11D0
  8
3
 10
64.078343532451214
 20
111.5920980056227
 30
0.0
 11
61.651137579304446
 21
111.5920980056227
 31
0.0
  0
LINE
  5
11D1
  8
3
 10
60.20665125867643
 20
110.5365843262507
 30
0.0
 11
59.151137579304446
 21
111.5920980056227
 31
0.0
  0
LINE
  5
11D2
  8
3
 10
60.52282985307923
 20
110.5365843262507
 30
0.0
 11
60.20665125867643
 21
110.5365843262507
 31
0.0
  0
LINE
  5
11D3
  8
3
 10
61.578343532451207
 20
111.5920980056227
 30
0.0
 11
60.52282985307923
 21
110.5365843262507
 31
0.0
  0
LINE
  5
11D4
  8
3
 10
61.578343532451207
 20
111.5920980056227
 30
0.0
 11
59.151137579304446
 21
111.5920980056227
 31
0.0
  0
LINE
  5
11D5
  8
3
 10
57.70665125867643
 20
110.5365843262507
 30
0.0
 11
56.651137579304446
 21
111.5920980056227
 31
0.0
  0
LINE
  5
11D6
  8
3
 10
58.02282985307923
 20
110.5365843262507
 30
0.0
 11
57.70665125867643
 21
110.5365843262507
 31
0.0
  0
LINE
  5
11D7
  8
3
 10
59.078343532451207
 20
111.5920980056227
 30
0.0
 11
58.02282985307923
 21
110.5365843262507
 31
0.0
  0
LINE
  5
11D8
  8
3
 10
59.078343532451207
 20
111.5920980056227
 30
0.0
 11
56.651137579304446
 21
111.5920980056227
 31
0.0
  0
LINE
  5
11D9
  8
3
 10
55.20665125867643
 20
110.5365843262507
 30
0.0
 11
54.151137579304446
 21
111.5920980056227
 31
0.0
  0
LINE
  5
11DA
  8
3
 10
55.52282985307923
 20
110.5365843262507
 30
0.0
 11
55.20665125867643
 21
110.5365843262507
 31
0.0
  0
LINE
  5
11DB
  8
3
 10
56.578343532451207
 20
111.5920980056227
 30
0.0
 11
55.52282985307923
 21
110.5365843262507
 31
0.0
  0
LINE
  5
11DC
  8
3
 10
56.578343532451207
 20
111.5920980056227
 30
0.0
 11
54.151137579304446
 21
111.5920980056227
 31
0.0
  0
LINE
  5
11DD
  8
3
 10
52.70665125867643
 20
110.5365843262507
 30
0.0
 11
51.651137579304446
 21
111.5920980056227
 31
0.0
  0
LINE
  5
11DE
  8
3
 10
53.02282985307923
 20
110.5365843262507
 30
0.0
 11
52.70665125867643
 21
110.5365843262507
 31
0.0
  0
LINE
  5
11DF
  8
3
 10
54.078343532451207
 20
111.5920980056227
 30
0.0
 11
53.02282985307923
 21
110.5365843262507
 31
0.0
  0
LINE
  5
11E0
  8
3
 10
54.078343532451207
 20
111.5920980056227
 30
0.0
 11
51.651137579304446
 21
111.5920980056227
 31
0.0
  0
LINE
  5
11E1
  8
3
 10
50.20665125867643
 20
110.5365843262507
 30
0.0
 11
49.151137579304446
 21
111.5920980056227
 31
0.0
  0
LINE
  5
11E2
  8
3
 10
50.52282985307923
 20
110.5365843262507
 30
0.0
 11
50.20665125867643
 21
110.5365843262507
 31
0.0
  0
LINE
  5
11E3
  8
3
 10
51.578343532451207
 20
111.5920980056227
 30
0.0
 11
50.52282985307923
 21
110.5365843262507
 31
0.0
  0
LINE
  5
11E4
  8
3
 10
51.578343532451207
 20
111.5920980056227
 30
0.0
 11
49.151137579304446
 21
111.5920980056227
 31
0.0
  0
LINE
  5
11E5
  8
3
 10
47.70665125867643
 20
110.5365843262507
 30
0.0
 11
46.651137579304439
 21
111.5920980056227
 31
0.0
  0
LINE
  5
11E6
  8
3
 10
48.02282985307923
 20
110.5365843262507
 30
0.0
 11
47.70665125867643
 21
110.5365843262507
 31
0.0
  0
LINE
  5
11E7
  8
3
 10
49.078343532451207
 20
111.5920980056227
 30
0.0
 11
48.02282985307923
 21
110.5365843262507
 31
0.0
  0
LINE
  5
11E8
  8
3
 10
49.078343532451207
 20
111.5920980056227
 30
0.0
 11
46.651137579304439
 21
111.5920980056227
 31
0.0
  0
LINE
  5
11E9
  8
3
 10
45.20665125867643
 20
110.5365843262507
 30
0.0
 11
44.151137579304439
 21
111.5920980056227
 31
0.0
  0
LINE
  5
11EA
  8
3
 10
45.52282985307923
 20
110.5365843262507
 30
0.0
 11
45.20665125867643
 21
110.5365843262507
 31
0.0
  0
LINE
  5
11EB
  8
3
 10
46.578343532451207
 20
111.5920980056227
 30
0.0
 11
45.52282985307923
 21
110.5365843262507
 31
0.0
  0
LINE
  5
11EC
  8
3
 10
46.578343532451207
 20
111.5920980056227
 30
0.0
 11
44.151137579304439
 21
111.5920980056227
 31
0.0
  0
LINE
  5
11ED
  8
3
 10
44.151137579304439
 20
111.5920980056227
 30
0.0
 11
45.20665125867643
 21
112.6476116849946
 31
0.0
  0
LINE
  5
11EE
  8
3
 10
45.52282985307923
 20
112.6476116849946
 30
0.0
 11
46.578343532451207
 21
111.5920980056227
 31
0.0
  0
LINE
  5
11EF
  8
3
 10
45.20665125867643
 20
112.6476116849946
 30
0.0
 11
45.52282985307923
 21
112.6476116849946
 31
0.0
  0
LINE
  5
11F0
  8
3
 10
46.651137579304439
 20
111.5920980056227
 30
0.0
 11
47.70665125867643
 21
112.6476116849946
 31
0.0
  0
LINE
  5
11F1
  8
3
 10
48.02282985307923
 20
112.6476116849946
 30
0.0
 11
49.078343532451207
 21
111.5920980056227
 31
0.0
  0
LINE
  5
11F2
  8
3
 10
47.70665125867643
 20
112.6476116849946
 30
0.0
 11
48.02282985307923
 21
112.6476116849946
 31
0.0
  0
LINE
  5
11F3
  8
3
 10
49.151137579304446
 20
111.5920980056227
 30
0.0
 11
50.20665125867643
 21
112.6476116849946
 31
0.0
  0
LINE
  5
11F4
  8
3
 10
50.52282985307923
 20
112.6476116849946
 30
0.0
 11
51.578343532451207
 21
111.5920980056227
 31
0.0
  0
LINE
  5
11F5
  8
3
 10
50.20665125867643
 20
112.6476116849946
 30
0.0
 11
50.52282985307923
 21
112.6476116849946
 31
0.0
  0
LINE
  5
11F6
  8
3
 10
51.651137579304446
 20
111.5920980056227
 30
0.0
 11
52.70665125867643
 21
112.6476116849946
 31
0.0
  0
LINE
  5
11F7
  8
3
 10
53.02282985307923
 20
112.6476116849946
 30
0.0
 11
54.078343532451207
 21
111.5920980056227
 31
0.0
  0
LINE
  5
11F8
  8
3
 10
52.70665125867643
 20
112.6476116849946
 30
0.0
 11
53.02282985307923
 21
112.6476116849946
 31
0.0
  0
LINE
  5
11F9
  8
3
 10
54.151137579304446
 20
111.5920980056227
 30
0.0
 11
55.20665125867643
 21
112.6476116849946
 31
0.0
  0
LINE
  5
11FA
  8
3
 10
55.52282985307923
 20
112.6476116849946
 30
0.0
 11
56.578343532451207
 21
111.5920980056227
 31
0.0
  0
LINE
  5
11FB
  8
3
 10
55.20665125867643
 20
112.6476116849946
 30
0.0
 11
55.52282985307923
 21
112.6476116849946
 31
0.0
  0
LINE
  5
11FC
  8
3
 10
56.651137579304446
 20
111.5920980056227
 30
0.0
 11
57.70665125867643
 21
112.6476116849946
 31
0.0
  0
LINE
  5
11FD
  8
3
 10
58.02282985307923
 20
112.6476116849946
 30
0.0
 11
59.078343532451207
 21
111.5920980056227
 31
0.0
  0
LINE
  5
11FE
  8
3
 10
57.70665125867643
 20
112.6476116849946
 30
0.0
 11
58.02282985307923
 21
112.6476116849946
 31
0.0
  0
LINE
  5
11FF
  8
3
 10
59.151137579304446
 20
111.5920980056227
 30
0.0
 11
60.20665125867643
 21
112.6476116849946
 31
0.0
  0
LINE
  5
1200
  8
3
 10
60.52282985307923
 20
112.6476116849946
 30
0.0
 11
61.578343532451207
 21
111.5920980056227
 31
0.0
  0
LINE
  5
1201
  8
3
 10
60.20665125867643
 20
112.6476116849946
 30
0.0
 11
60.52282985307923
 21
112.6476116849946
 31
0.0
  0
LINE
  5
1202
  8
3
 10
61.651137579304446
 20
111.5920980056227
 30
0.0
 11
62.70665125867643
 21
112.6476116849946
 31
0.0
  0
LINE
  5
1203
  8
3
 10
63.02282985307923
 20
112.6476116849946
 30
0.0
 11
64.078343532451214
 21
111.5920980056227
 31
0.0
  0
LINE
  5
1204
  8
3
 10
62.70665125867643
 20
112.6476116849946
 30
0.0
 11
63.02282985307923
 21
112.6476116849946
 31
0.0
  0
LINE
  5
1205
  8
3
 10
64.151137579304446
 20
111.5920980056227
 30
0.0
 11
65.20665125867643
 21
112.6476116849946
 31
0.0
  0
LINE
  5
1206
  8
3
 10
65.52282985307923
 20
112.6476116849946
 30
0.0
 11
66.578343532451214
 21
111.5920980056227
 31
0.0
  0
LINE
  5
1207
  8
3
 10
65.20665125867643
 20
112.6476116849946
 30
0.0
 11
65.52282985307923
 21
112.6476116849946
 31
0.0
  0
LINE
  5
1208
  8
3
 10
66.651137579304446
 20
111.5920980056227
 30
0.0
 11
67.70665125867643
 21
112.6476116849946
 31
0.0
  0
LINE
  5
120A
  8
3
 10
68.02282985307923
 20
112.6476116849946
 30
0.0
 11
68.458048700660726
 21
112.21239283741311
 31
0.0
  0
LINE
  5
120B
  8
3
 10
67.70665125867643
 20
112.6476116849946
 30
0.0
 11
68.02282985307923
 21
112.6476116849946
 31
0.0
  0
LINE
  5
120C
  8
3
 10
40.52282985307923
 20
112.6476116849946
 30
0.0
 11
41.578343532451207
 21
111.5920980056227
 31
0.0
  0
LINE
  5
120D
  8
3
 10
40.20665125867643
 20
112.6476116849946
 30
0.0
 11
40.52282985307923
 21
112.6476116849946
 31
0.0
  0
LINE
  5
120E
  8
3
 10
39.77143241109497
 20
112.21239283741311
 30
0.0
 11
40.20665125867643
 21
112.6476116849946
 31
0.0
  0
LINE
  5
1210
  8
3
 10
41.651137579304439
 20
111.5920980056227
 30
0.0
 11
42.70665125867643
 21
112.6476116849946
 31
0.0
  0
LINE
  5
1211
  8
3
 10
44.078343532451207
 20
111.5920980056227
 30
0.0
 11
41.651137579304439
 21
111.5920980056227
 31
0.0
  0
LINE
  5
1212
  8
3
 10
43.02282985307923
 20
112.6476116849946
 30
0.0
 11
44.078343532451207
 21
111.5920980056227
 31
0.0
  0
LINE
  5
1213
  8
3
 10
42.70665125867643
 20
112.6476116849946
 30
0.0
 11
43.02282985307923
 21
112.6476116849946
 31
0.0
  0
LINE
  5
1214
  8
3
 10
41.578343532451207
 20
114.0920980056227
 30
0.0
 11
40.52282985307923
 21
113.0365843262507
 31
0.0
  0
LINE
  5
1215
  8
3
 10
41.578343532451207
 20
114.0920980056227
 30
0.0
 11
39.326234884242162
 21
114.0920980056227
 31
0.0
  0
LINE
  5
1217
  8
3
 10
40.20665125867643
 20
113.0365843262507
 30
0.0
 11
39.36393044153553
 21
113.8793051433916
 31
0.0
  0
LINE
  5
1218
  8
3
 10
40.52282985307923
 20
113.0365843262507
 30
0.0
 11
40.20665125867643
 21
113.0365843262507
 31
0.0
  0
LINE
  5
1219
  8
3
 10
67.70665125867643
 20
113.0365843262507
 30
0.0
 11
66.651137579304446
 21
114.0920980056227
 31
0.0
  0
LINE
  5
121A
  8
3
 10
68.02282985307923
 20
113.0365843262507
 30
0.0
 11
67.70665125867643
 21
113.0365843262507
 31
0.0
  0
LINE
  5
121B
  8
3
 10
68.865550670220131
 20
113.8793051433916
 30
0.0
 11
68.02282985307923
 21
113.0365843262507
 31
0.0
  0
LINE
  5
121D
  8
3
 10
68.903246227513506
 20
114.0920980056227
 30
0.0
 11
66.651137579304446
 21
114.0920980056227
 31
0.0
  0
LINE
  5
121E
  8
3
 10
65.20665125867643
 20
113.0365843262507
 30
0.0
 11
64.151137579304446
 21
114.0920980056227
 31
0.0
  0
LINE
  5
121F
  8
3
 10
65.52282985307923
 20
113.0365843262507
 30
0.0
 11
65.20665125867643
 21
113.0365843262507
 31
0.0
  0
LINE
  5
1220
  8
3
 10
66.578343532451214
 20
114.0920980056227
 30
0.0
 11
65.52282985307923
 21
113.0365843262507
 31
0.0
  0
LINE
  5
1221
  8
3
 10
66.578343532451214
 20
114.0920980056227
 30
0.0
 11
64.151137579304446
 21
114.0920980056227
 31
0.0
  0
LINE
  5
1222
  8
3
 10
62.70665125867643
 20
113.0365843262507
 30
0.0
 11
61.651137579304446
 21
114.0920980056227
 31
0.0
  0
LINE
  5
1223
  8
3
 10
63.02282985307923
 20
113.0365843262507
 30
0.0
 11
62.70665125867643
 21
113.0365843262507
 31
0.0
  0
LINE
  5
1224
  8
3
 10
64.078343532451214
 20
114.0920980056227
 30
0.0
 11
63.02282985307923
 21
113.0365843262507
 31
0.0
  0
LINE
  5
1225
  8
3
 10
64.078343532451214
 20
114.0920980056227
 30
0.0
 11
61.651137579304446
 21
114.0920980056227
 31
0.0
  0
LINE
  5
1226
  8
3
 10
60.20665125867643
 20
113.0365843262507
 30
0.0
 11
59.151137579304446
 21
114.0920980056227
 31
0.0
  0
LINE
  5
1227
  8
3
 10
60.52282985307923
 20
113.0365843262507
 30
0.0
 11
60.20665125867643
 21
113.0365843262507
 31
0.0
  0
LINE
  5
1228
  8
3
 10
61.578343532451207
 20
114.0920980056227
 30
0.0
 11
60.52282985307923
 21
113.0365843262507
 31
0.0
  0
LINE
  5
1229
  8
3
 10
61.578343532451207
 20
114.0920980056227
 30
0.0
 11
59.151137579304446
 21
114.0920980056227
 31
0.0
  0
LINE
  5
122A
  8
3
 10
57.70665125867643
 20
113.0365843262507
 30
0.0
 11
56.651137579304446
 21
114.0920980056227
 31
0.0
  0
LINE
  5
122B
  8
3
 10
58.02282985307923
 20
113.0365843262507
 30
0.0
 11
57.70665125867643
 21
113.0365843262507
 31
0.0
  0
LINE
  5
122C
  8
3
 10
59.078343532451207
 20
114.0920980056227
 30
0.0
 11
58.02282985307923
 21
113.0365843262507
 31
0.0
  0
LINE
  5
122D
  8
3
 10
59.078343532451207
 20
114.0920980056227
 30
0.0
 11
56.651137579304446
 21
114.0920980056227
 31
0.0
  0
LINE
  5
122E
  8
3
 10
55.20665125867643
 20
113.0365843262507
 30
0.0
 11
54.151137579304446
 21
114.0920980056227
 31
0.0
  0
LINE
  5
122F
  8
3
 10
55.52282985307923
 20
113.0365843262507
 30
0.0
 11
55.20665125867643
 21
113.0365843262507
 31
0.0
  0
LINE
  5
1230
  8
3
 10
56.578343532451207
 20
114.0920980056227
 30
0.0
 11
55.52282985307923
 21
113.0365843262507
 31
0.0
  0
LINE
  5
1231
  8
3
 10
56.578343532451207
 20
114.0920980056227
 30
0.0
 11
54.151137579304446
 21
114.0920980056227
 31
0.0
  0
LINE
  5
1232
  8
3
 10
52.70665125867643
 20
113.0365843262507
 30
0.0
 11
51.651137579304446
 21
114.0920980056227
 31
0.0
  0
LINE
  5
1233
  8
3
 10
53.02282985307923
 20
113.0365843262507
 30
0.0
 11
52.70665125867643
 21
113.0365843262507
 31
0.0
  0
LINE
  5
1234
  8
3
 10
54.078343532451207
 20
114.0920980056227
 30
0.0
 11
53.02282985307923
 21
113.0365843262507
 31
0.0
  0
LINE
  5
1235
  8
3
 10
54.078343532451207
 20
114.0920980056227
 30
0.0
 11
51.651137579304446
 21
114.0920980056227
 31
0.0
  0
LINE
  5
1236
  8
3
 10
50.20665125867643
 20
113.0365843262507
 30
0.0
 11
49.151137579304446
 21
114.0920980056227
 31
0.0
  0
LINE
  5
1237
  8
3
 10
50.52282985307923
 20
113.0365843262507
 30
0.0
 11
50.20665125867643
 21
113.0365843262507
 31
0.0
  0
LINE
  5
1238
  8
3
 10
51.578343532451207
 20
114.0920980056227
 30
0.0
 11
50.52282985307923
 21
113.0365843262507
 31
0.0
  0
LINE
  5
1239
  8
3
 10
51.578343532451207
 20
114.0920980056227
 30
0.0
 11
49.151137579304446
 21
114.0920980056227
 31
0.0
  0
LINE
  5
123A
  8
3
 10
47.70665125867643
 20
113.0365843262507
 30
0.0
 11
46.651137579304439
 21
114.0920980056227
 31
0.0
  0
LINE
  5
123B
  8
3
 10
48.02282985307923
 20
113.0365843262507
 30
0.0
 11
47.70665125867643
 21
113.0365843262507
 31
0.0
  0
LINE
  5
123C
  8
3
 10
49.078343532451207
 20
114.0920980056227
 30
0.0
 11
48.02282985307923
 21
113.0365843262507
 31
0.0
  0
LINE
  5
123D
  8
3
 10
49.078343532451207
 20
114.0920980056227
 30
0.0
 11
46.651137579304439
 21
114.0920980056227
 31
0.0
  0
LINE
  5
123E
  8
3
 10
45.20665125867643
 20
113.0365843262507
 30
0.0
 11
44.151137579304439
 21
114.0920980056227
 31
0.0
  0
LINE
  5
123F
  8
3
 10
45.52282985307923
 20
113.0365843262507
 30
0.0
 11
45.20665125867643
 21
113.0365843262507
 31
0.0
  0
LINE
  5
1240
  8
3
 10
46.578343532451207
 20
114.0920980056227
 30
0.0
 11
45.52282985307923
 21
113.0365843262507
 31
0.0
  0
LINE
  5
1241
  8
3
 10
46.578343532451207
 20
114.0920980056227
 30
0.0
 11
44.151137579304439
 21
114.0920980056227
 31
0.0
  0
LINE
  5
1242
  8
3
 10
44.151137579304439
 20
114.0920980056227
 30
0.0
 11
45.20665125867643
 21
115.1476116849946
 31
0.0
  0
LINE
  5
1243
  8
3
 10
45.52282985307923
 20
115.1476116849946
 30
0.0
 11
46.578343532451207
 21
114.0920980056227
 31
0.0
  0
LINE
  5
1244
  8
3
 10
45.20665125867643
 20
115.1476116849946
 30
0.0
 11
45.52282985307923
 21
115.1476116849946
 31
0.0
  0
LINE
  5
1245
  8
3
 10
46.651137579304439
 20
114.0920980056227
 30
0.0
 11
47.70665125867643
 21
115.1476116849946
 31
0.0
  0
LINE
  5
1246
  8
3
 10
48.02282985307923
 20
115.1476116849946
 30
0.0
 11
49.078343532451207
 21
114.0920980056227
 31
0.0
  0
LINE
  5
1247
  8
3
 10
47.70665125867643
 20
115.1476116849946
 30
0.0
 11
48.02282985307923
 21
115.1476116849946
 31
0.0
  0
LINE
  5
1248
  8
3
 10
49.151137579304446
 20
114.0920980056227
 30
0.0
 11
50.20665125867643
 21
115.1476116849946
 31
0.0
  0
LINE
  5
1249
  8
3
 10
50.52282985307923
 20
115.1476116849946
 30
0.0
 11
51.578343532451207
 21
114.0920980056227
 31
0.0
  0
LINE
  5
124A
  8
3
 10
50.20665125867643
 20
115.1476116849946
 30
0.0
 11
50.52282985307923
 21
115.1476116849946
 31
0.0
  0
LINE
  5
124B
  8
3
 10
51.651137579304446
 20
114.0920980056227
 30
0.0
 11
52.70665125867643
 21
115.1476116849946
 31
0.0
  0
LINE
  5
124C
  8
3
 10
53.02282985307923
 20
115.1476116849946
 30
0.0
 11
54.078343532451207
 21
114.0920980056227
 31
0.0
  0
LINE
  5
124D
  8
3
 10
52.70665125867643
 20
115.1476116849946
 30
0.0
 11
53.02282985307923
 21
115.1476116849946
 31
0.0
  0
LINE
  5
124E
  8
3
 10
54.151137579304446
 20
114.0920980056227
 30
0.0
 11
55.20665125867643
 21
115.1476116849946
 31
0.0
  0
LINE
  5
124F
  8
3
 10
55.52282985307923
 20
115.1476116849946
 30
0.0
 11
56.578343532451207
 21
114.0920980056227
 31
0.0
  0
LINE
  5
1250
  8
3
 10
55.20665125867643
 20
115.1476116849946
 30
0.0
 11
55.52282985307923
 21
115.1476116849946
 31
0.0
  0
LINE
  5
1251
  8
3
 10
56.651137579304446
 20
114.0920980056227
 30
0.0
 11
57.70665125867643
 21
115.1476116849946
 31
0.0
  0
LINE
  5
1252
  8
3
 10
58.02282985307923
 20
115.1476116849946
 30
0.0
 11
59.078343532451207
 21
114.0920980056227
 31
0.0
  0
LINE
  5
1253
  8
3
 10
57.70665125867643
 20
115.1476116849946
 30
0.0
 11
58.02282985307923
 21
115.1476116849946
 31
0.0
  0
LINE
  5
1254
  8
3
 10
59.151137579304446
 20
114.0920980056227
 30
0.0
 11
60.20665125867643
 21
115.1476116849946
 31
0.0
  0
LINE
  5
1255
  8
3
 10
60.52282985307923
 20
115.1476116849946
 30
0.0
 11
61.578343532451207
 21
114.0920980056227
 31
0.0
  0
LINE
  5
1256
  8
3
 10
60.20665125867643
 20
115.1476116849946
 30
0.0
 11
60.52282985307923
 21
115.1476116849946
 31
0.0
  0
LINE
  5
1257
  8
3
 10
61.651137579304446
 20
114.0920980056227
 30
0.0
 11
62.70665125867643
 21
115.1476116849946
 31
0.0
  0
LINE
  5
1258
  8
3
 10
63.02282985307923
 20
115.1476116849946
 30
0.0
 11
64.078343532451214
 21
114.0920980056227
 31
0.0
  0
LINE
  5
1259
  8
3
 10
62.70665125867643
 20
115.1476116849946
 30
0.0
 11
63.02282985307923
 21
115.1476116849946
 31
0.0
  0
LINE
  5
125A
  8
3
 10
64.151137579304446
 20
114.0920980056227
 30
0.0
 11
65.20665125867643
 21
115.1476116849946
 31
0.0
  0
LINE
  5
125B
  8
3
 10
65.52282985307923
 20
115.1476116849946
 30
0.0
 11
66.578343532451214
 21
114.0920980056227
 31
0.0
  0
LINE
  5
125C
  8
3
 10
65.20665125867643
 20
115.1476116849946
 30
0.0
 11
65.52282985307923
 21
115.1476116849946
 31
0.0
  0
LINE
  5
125D
  8
3
 10
66.651137579304446
 20
114.0920980056227
 30
0.0
 11
67.70665125867643
 21
115.1476116849946
 31
0.0
  0
LINE
  5
125F
  8
3
 10
68.02282985307923
 20
115.1476116849946
 30
0.0
 11
68.927981540572233
 21
114.2424599975016
 31
0.0
  0
LINE
  5
1260
  8
3
 10
67.70665125867643
 20
115.1476116849946
 30
0.0
 11
68.02282985307923
 21
115.1476116849946
 31
0.0
  0
LINE
  5
1261
  8
3
 10
40.52282985307923
 20
115.1476116849946
 30
0.0
 11
41.578343532451207
 21
114.0920980056227
 31
0.0
  0
LINE
  5
1262
  8
3
 10
40.20665125867643
 20
115.1476116849946
 30
0.0
 11
40.52282985307923
 21
115.1476116849946
 31
0.0
  0
LINE
  5
1263
  8
3
 10
39.301499571183399
 20
114.2424599975016
 30
0.0
 11
40.20665125867643
 21
115.1476116849946
 31
0.0
  0
LINE
  5
1265
  8
3
 10
41.651137579304439
 20
114.0920980056227
 30
0.0
 11
42.70665125867643
 21
115.1476116849946
 31
0.0
  0
LINE
  5
1266
  8
3
 10
44.078343532451207
 20
114.0920980056227
 30
0.0
 11
41.651137579304439
 21
114.0920980056227
 31
0.0
  0
LINE
  5
1267
  8
3
 10
43.02282985307923
 20
115.1476116849946
 30
0.0
 11
44.078343532451207
 21
114.0920980056227
 31
0.0
  0
LINE
  5
1268
  8
3
 10
42.70665125867643
 20
115.1476116849946
 30
0.0
 11
43.02282985307923
 21
115.1476116849946
 31
0.0
  0
LINE
  5
1269
  8
3
 10
41.651137579304439
 20
116.5920980056227
 30
0.0
 11
42.70665125867643
 21
117.6476116849946
 31
0.0
  0
LINE
  5
126A
  8
3
 10
44.078343532451207
 20
116.5920980056227
 30
0.0
 11
41.651137579304439
 21
116.5920980056227
 31
0.0
  0
LINE
  5
126B
  8
3
 10
43.02282985307923
 20
117.6476116849946
 30
0.0
 11
44.078343532451207
 21
116.5920980056227
 31
0.0
  0
LINE
  5
126C
  8
3
 10
42.70665125867643
 20
117.6476116849946
 30
0.0
 11
43.02282985307923
 21
117.6476116849946
 31
0.0
  0
LINE
  5
126D
  8
3
 10
44.151137579304439
 20
116.5920980056227
 30
0.0
 11
45.20665125867643
 21
117.6476116849946
 31
0.0
  0
LINE
  5
126E
  8
3
 10
46.578343532451207
 20
116.5920980056227
 30
0.0
 11
44.151137579304439
 21
116.5920980056227
 31
0.0
  0
LINE
  5
126F
  8
3
 10
45.52282985307923
 20
117.6476116849946
 30
0.0
 11
46.578343532451207
 21
116.5920980056227
 31
0.0
  0
LINE
  5
1270
  8
3
 10
45.20665125867643
 20
117.6476116849946
 30
0.0
 11
45.52282985307923
 21
117.6476116849946
 31
0.0
  0
LINE
  5
1271
  8
3
 10
46.651137579304439
 20
116.5920980056227
 30
0.0
 11
47.70665125867643
 21
117.6476116849946
 31
0.0
  0
LINE
  5
1272
  8
3
 10
49.078343532451207
 20
116.5920980056227
 30
0.0
 11
46.651137579304439
 21
116.5920980056227
 31
0.0
  0
LINE
  5
1273
  8
3
 10
48.02282985307923
 20
117.6476116849946
 30
0.0
 11
49.078343532451207
 21
116.5920980056227
 31
0.0
  0
LINE
  5
1274
  8
3
 10
47.70665125867643
 20
117.6476116849946
 30
0.0
 11
48.02282985307923
 21
117.6476116849946
 31
0.0
  0
LINE
  5
1275
  8
3
 10
49.151137579304446
 20
116.5920980056227
 30
0.0
 11
50.20665125867643
 21
117.6476116849946
 31
0.0
  0
LINE
  5
1276
  8
3
 10
51.578343532451207
 20
116.5920980056227
 30
0.0
 11
49.151137579304446
 21
116.5920980056227
 31
0.0
  0
LINE
  5
1277
  8
3
 10
50.52282985307923
 20
117.6476116849946
 30
0.0
 11
51.578343532451207
 21
116.5920980056227
 31
0.0
  0
LINE
  5
1278
  8
3
 10
50.20665125867643
 20
117.6476116849946
 30
0.0
 11
50.52282985307923
 21
117.6476116849946
 31
0.0
  0
LINE
  5
1279
  8
3
 10
51.651137579304446
 20
116.5920980056227
 30
0.0
 11
52.70665125867643
 21
117.6476116849946
 31
0.0
  0
LINE
  5
127A
  8
3
 10
54.078343532451207
 20
116.5920980056227
 30
0.0
 11
51.651137579304446
 21
116.5920980056227
 31
0.0
  0
LINE
  5
127B
  8
3
 10
53.02282985307923
 20
117.6476116849946
 30
0.0
 11
54.078343532451207
 21
116.5920980056227
 31
0.0
  0
LINE
  5
127C
  8
3
 10
52.70665125867643
 20
117.6476116849946
 30
0.0
 11
53.02282985307923
 21
117.6476116849946
 31
0.0
  0
LINE
  5
127D
  8
3
 10
54.151137579304446
 20
116.5920980056227
 30
0.0
 11
55.20665125867643
 21
117.6476116849946
 31
0.0
  0
LINE
  5
127E
  8
3
 10
56.578343532451207
 20
116.5920980056227
 30
0.0
 11
54.151137579304446
 21
116.5920980056227
 31
0.0
  0
LINE
  5
127F
  8
3
 10
55.52282985307923
 20
117.6476116849946
 30
0.0
 11
56.578343532451207
 21
116.5920980056227
 31
0.0
  0
LINE
  5
1280
  8
3
 10
55.20665125867643
 20
117.6476116849946
 30
0.0
 11
55.52282985307923
 21
117.6476116849946
 31
0.0
  0
LINE
  5
1281
  8
3
 10
56.651137579304446
 20
116.5920980056227
 30
0.0
 11
57.70665125867643
 21
117.6476116849946
 31
0.0
  0
LINE
  5
1282
  8
3
 10
59.078343532451207
 20
116.5920980056227
 30
0.0
 11
56.651137579304446
 21
116.5920980056227
 31
0.0
  0
LINE
  5
1283
  8
3
 10
58.02282985307923
 20
117.6476116849946
 30
0.0
 11
59.078343532451207
 21
116.5920980056227
 31
0.0
  0
LINE
  5
1284
  8
3
 10
57.70665125867643
 20
117.6476116849946
 30
0.0
 11
58.02282985307923
 21
117.6476116849946
 31
0.0
  0
LINE
  5
1285
  8
3
 10
59.151137579304446
 20
116.5920980056227
 30
0.0
 11
60.20665125867643
 21
117.6476116849946
 31
0.0
  0
LINE
  5
1286
  8
3
 10
61.578343532451207
 20
116.5920980056227
 30
0.0
 11
59.151137579304446
 21
116.5920980056227
 31
0.0
  0
LINE
  5
1287
  8
3
 10
60.52282985307923
 20
117.6476116849946
 30
0.0
 11
61.578343532451207
 21
116.5920980056227
 31
0.0
  0
LINE
  5
1288
  8
3
 10
60.20665125867643
 20
117.6476116849946
 30
0.0
 11
60.52282985307923
 21
117.6476116849946
 31
0.0
  0
LINE
  5
1289
  8
3
 10
61.651137579304446
 20
116.5920980056227
 30
0.0
 11
62.70665125867643
 21
117.6476116849946
 31
0.0
  0
LINE
  5
128A
  8
3
 10
64.078343532451214
 20
116.5920980056227
 30
0.0
 11
61.651137579304446
 21
116.5920980056227
 31
0.0
  0
LINE
  5
128B
  8
3
 10
63.02282985307923
 20
117.6476116849946
 30
0.0
 11
64.078343532451214
 21
116.5920980056227
 31
0.0
  0
LINE
  5
128C
  8
3
 10
62.70665125867643
 20
117.6476116849946
 30
0.0
 11
63.02282985307923
 21
117.6476116849946
 31
0.0
  0
LINE
  5
128D
  8
3
 10
64.151137579304446
 20
116.5920980056227
 30
0.0
 11
65.20665125867643
 21
117.6476116849946
 31
0.0
  0
LINE
  5
128E
  8
3
 10
66.578343532451214
 20
116.5920980056227
 30
0.0
 11
64.151137579304446
 21
116.5920980056227
 31
0.0
  0
LINE
  5
128F
  8
3
 10
65.52282985307923
 20
117.6476116849946
 30
0.0
 11
66.578343532451214
 21
116.5920980056227
 31
0.0
  0
LINE
  5
1290
  8
3
 10
65.20665125867643
 20
117.6476116849946
 30
0.0
 11
65.52282985307923
 21
117.6476116849946
 31
0.0
  0
LINE
  5
1291
  8
3
 10
66.651137579304446
 20
116.5920980056227
 30
0.0
 11
67.70665125867643
 21
117.6476116849946
 31
0.0
  0
LINE
  5
1292
  8
3
 10
69.078343532451214
 20
116.5920980056227
 30
0.0
 11
66.651137579304446
 21
116.5920980056227
 31
0.0
  0
LINE
  5
1293
  8
3
 10
68.02282985307923
 20
117.6476116849946
 30
0.0
 11
69.078343532451214
 21
116.5920980056227
 31
0.0
  0
LINE
  5
1294
  8
3
 10
67.70665125867643
 20
117.6476116849946
 30
0.0
 11
68.02282985307923
 21
117.6476116849946
 31
0.0
  0
LINE
  5
1295
  8
3
 10
39.151137579304446
 20
116.5920980056227
 30
0.0
 11
40.20665125867643
 21
117.6476116849946
 31
0.0
  0
LINE
  5
1296
  8
3
 10
41.578343532451207
 20
116.5920980056227
 30
0.0
 11
39.151137579304446
 21
116.5920980056227
 31
0.0
  0
LINE
  5
1297
  8
3
 10
40.52282985307923
 20
117.6476116849946
 30
0.0
 11
41.578343532451207
 21
116.5920980056227
 31
0.0
  0
LINE
  5
1298
  8
3
 10
40.20665125867643
 20
117.6476116849946
 30
0.0
 11
40.52282985307923
 21
117.6476116849946
 31
0.0
  0
LINE
  5
1299
  8
3
 10
67.70665125867643
 20
115.5365843262507
 30
0.0
 11
66.651137579304446
 21
116.5920980056227
 31
0.0
  0
LINE
  5
129A
  8
3
 10
68.02282985307923
 20
115.5365843262507
 30
0.0
 11
67.70665125867643
 21
115.5365843262507
 31
0.0
  0
LINE
  5
129B
  8
3
 10
69.078343532451214
 20
116.5920980056227
 30
0.0
 11
68.02282985307923
 21
115.5365843262507
 31
0.0
  0
LINE
  5
129C
  8
3
 10
65.20665125867643
 20
115.5365843262507
 30
0.0
 11
64.151137579304446
 21
116.5920980056227
 31
0.0
  0
LINE
  5
129D
  8
3
 10
65.52282985307923
 20
115.5365843262507
 30
0.0
 11
65.20665125867643
 21
115.5365843262507
 31
0.0
  0
LINE
  5
129E
  8
3
 10
66.578343532451214
 20
116.5920980056227
 30
0.0
 11
65.52282985307923
 21
115.5365843262507
 31
0.0
  0
LINE
  5
129F
  8
3
 10
62.70665125867643
 20
115.5365843262507
 30
0.0
 11
61.651137579304446
 21
116.5920980056227
 31
0.0
  0
LINE
  5
12A0
  8
3
 10
63.02282985307923
 20
115.5365843262507
 30
0.0
 11
62.70665125867643
 21
115.5365843262507
 31
0.0
  0
LINE
  5
12A1
  8
3
 10
64.078343532451214
 20
116.5920980056227
 30
0.0
 11
63.02282985307923
 21
115.5365843262507
 31
0.0
  0
LINE
  5
12A2
  8
3
 10
60.20665125867643
 20
115.5365843262507
 30
0.0
 11
59.151137579304446
 21
116.5920980056227
 31
0.0
  0
LINE
  5
12A3
  8
3
 10
60.52282985307923
 20
115.5365843262507
 30
0.0
 11
60.20665125867643
 21
115.5365843262507
 31
0.0
  0
LINE
  5
12A4
  8
3
 10
61.578343532451207
 20
116.5920980056227
 30
0.0
 11
60.52282985307923
 21
115.5365843262507
 31
0.0
  0
LINE
  5
12A5
  8
3
 10
57.70665125867643
 20
115.5365843262507
 30
0.0
 11
56.651137579304446
 21
116.5920980056227
 31
0.0
  0
LINE
  5
12A6
  8
3
 10
58.02282985307923
 20
115.5365843262507
 30
0.0
 11
57.70665125867643
 21
115.5365843262507
 31
0.0
  0
LINE
  5
12A7
  8
3
 10
59.078343532451207
 20
116.5920980056227
 30
0.0
 11
58.02282985307923
 21
115.5365843262507
 31
0.0
  0
LINE
  5
12A8
  8
3
 10
55.20665125867643
 20
115.5365843262507
 30
0.0
 11
54.151137579304446
 21
116.5920980056227
 31
0.0
  0
LINE
  5
12A9
  8
3
 10
55.52282985307923
 20
115.5365843262507
 30
0.0
 11
55.20665125867643
 21
115.5365843262507
 31
0.0
  0
LINE
  5
12AA
  8
3
 10
56.578343532451207
 20
116.5920980056227
 30
0.0
 11
55.52282985307923
 21
115.5365843262507
 31
0.0
  0
LINE
  5
12AB
  8
3
 10
52.70665125867643
 20
115.5365843262507
 30
0.0
 11
51.651137579304446
 21
116.5920980056227
 31
0.0
  0
LINE
  5
12AC
  8
3
 10
53.02282985307923
 20
115.5365843262507
 30
0.0
 11
52.70665125867643
 21
115.5365843262507
 31
0.0
  0
LINE
  5
12AD
  8
3
 10
54.078343532451207
 20
116.5920980056227
 30
0.0
 11
53.02282985307923
 21
115.5365843262507
 31
0.0
  0
LINE
  5
12AE
  8
3
 10
50.20665125867643
 20
115.5365843262507
 30
0.0
 11
49.151137579304446
 21
116.5920980056227
 31
0.0
  0
LINE
  5
12AF
  8
3
 10
50.52282985307923
 20
115.5365843262507
 30
0.0
 11
50.20665125867643
 21
115.5365843262507
 31
0.0
  0
LINE
  5
12B0
  8
3
 10
51.578343532451207
 20
116.5920980056227
 30
0.0
 11
50.52282985307923
 21
115.5365843262507
 31
0.0
  0
LINE
  5
12B1
  8
3
 10
47.70665125867643
 20
115.5365843262507
 30
0.0
 11
46.651137579304439
 21
116.5920980056227
 31
0.0
  0
LINE
  5
12B2
  8
3
 10
48.02282985307923
 20
115.5365843262507
 30
0.0
 11
47.70665125867643
 21
115.5365843262507
 31
0.0
  0
LINE
  5
12B3
  8
3
 10
49.078343532451207
 20
116.5920980056227
 30
0.0
 11
48.02282985307923
 21
115.5365843262507
 31
0.0
  0
LINE
  5
12B4
  8
3
 10
45.20665125867643
 20
115.5365843262507
 30
0.0
 11
44.151137579304439
 21
116.5920980056227
 31
0.0
  0
LINE
  5
12B5
  8
3
 10
45.52282985307923
 20
115.5365843262507
 30
0.0
 11
45.20665125867643
 21
115.5365843262507
 31
0.0
  0
LINE
  5
12B6
  8
3
 10
46.578343532451207
 20
116.5920980056227
 30
0.0
 11
45.52282985307923
 21
115.5365843262507
 31
0.0
  0
LINE
  5
12B7
  8
3
 10
42.70665125867643
 20
115.5365843262507
 30
0.0
 11
41.651137579304439
 21
116.5920980056227
 31
0.0
  0
LINE
  5
12B8
  8
3
 10
43.02282985307923
 20
115.5365843262507
 30
0.0
 11
42.70665125867643
 21
115.5365843262507
 31
0.0
  0
LINE
  5
12B9
  8
3
 10
44.078343532451207
 20
116.5920980056227
 30
0.0
 11
43.02282985307923
 21
115.5365843262507
 31
0.0
  0
LINE
  5
12BA
  8
3
 10
41.578343532451207
 20
119.0920980056227
 30
0.0
 11
40.52282985307923
 21
118.0365843262507
 31
0.0
  0
LINE
  5
12BB
  8
3
 10
41.578343532451207
 20
119.0920980056227
 30
0.0
 11
39.322854266428472
 21
119.0920980056227
 31
0.0
  0
LINE
  5
12BD
  8
3
 10
40.20665125867643
 20
118.0365843262507
 30
0.0
 11
39.29876036589102
 21
118.94447521903609
 31
0.0
  0
LINE
  5
12BE
  8
3
 10
40.52282985307923
 20
118.0365843262507
 30
0.0
 11
40.20665125867643
 21
118.0365843262507
 31
0.0
  0
LINE
  5
12BF
  8
3
 10
67.70665125867643
 20
118.0365843262507
 30
0.0
 11
66.651137579304446
 21
119.0920980056227
 31
0.0
  0
LINE
  5
12C0
  8
3
 10
68.02282985307923
 20
118.0365843262507
 30
0.0
 11
67.70665125867643
 21
118.0365843262507
 31
0.0
  0
LINE
  5
12C1
  8
3
 10
68.930720745864647
 20
118.94447521903609
 30
0.0
 11
68.02282985307923
 21
118.0365843262507
 31
0.0
  0
LINE
  5
12C3
  8
3
 10
68.906626845327196
 20
119.0920980056227
 30
0.0
 11
66.651137579304446
 21
119.0920980056227
 31
0.0
  0
LINE
  5
12C4
  8
3
 10
65.20665125867643
 20
118.0365843262507
 30
0.0
 11
64.151137579304446
 21
119.0920980056227
 31
0.0
  0
LINE
  5
12C5
  8
3
 10
65.52282985307923
 20
118.0365843262507
 30
0.0
 11
65.20665125867643
 21
118.0365843262507
 31
0.0
  0
LINE
  5
12C6
  8
3
 10
66.578343532451214
 20
119.0920980056227
 30
0.0
 11
65.52282985307923
 21
118.0365843262507
 31
0.0
  0
LINE
  5
12C7
  8
3
 10
66.578343532451214
 20
119.0920980056227
 30
0.0
 11
64.151137579304446
 21
119.0920980056227
 31
0.0
  0
LINE
  5
12C8
  8
3
 10
62.70665125867643
 20
118.0365843262507
 30
0.0
 11
61.651137579304446
 21
119.0920980056227
 31
0.0
  0
LINE
  5
12C9
  8
3
 10
63.02282985307923
 20
118.0365843262507
 30
0.0
 11
62.70665125867643
 21
118.0365843262507
 31
0.0
  0
LINE
  5
12CA
  8
3
 10
64.078343532451214
 20
119.0920980056227
 30
0.0
 11
63.02282985307923
 21
118.0365843262507
 31
0.0
  0
LINE
  5
12CB
  8
3
 10
64.078343532451214
 20
119.0920980056227
 30
0.0
 11
61.651137579304446
 21
119.0920980056227
 31
0.0
  0
LINE
  5
12CC
  8
3
 10
60.20665125867643
 20
118.0365843262507
 30
0.0
 11
59.151137579304446
 21
119.0920980056227
 31
0.0
  0
LINE
  5
12CD
  8
3
 10
60.52282985307923
 20
118.0365843262507
 30
0.0
 11
60.20665125867643
 21
118.0365843262507
 31
0.0
  0
LINE
  5
12CE
  8
3
 10
61.578343532451207
 20
119.0920980056227
 30
0.0
 11
60.52282985307923
 21
118.0365843262507
 31
0.0
  0
LINE
  5
12CF
  8
3
 10
61.578343532451207
 20
119.0920980056227
 30
0.0
 11
59.151137579304446
 21
119.0920980056227
 31
0.0
  0
LINE
  5
12D0
  8
3
 10
57.70665125867643
 20
118.0365843262507
 30
0.0
 11
56.651137579304446
 21
119.0920980056227
 31
0.0
  0
LINE
  5
12D1
  8
3
 10
58.02282985307923
 20
118.0365843262507
 30
0.0
 11
57.70665125867643
 21
118.0365843262507
 31
0.0
  0
LINE
  5
12D2
  8
3
 10
59.078343532451207
 20
119.0920980056227
 30
0.0
 11
58.02282985307923
 21
118.0365843262507
 31
0.0
  0
LINE
  5
12D3
  8
3
 10
59.078343532451207
 20
119.0920980056227
 30
0.0
 11
56.651137579304446
 21
119.0920980056227
 31
0.0
  0
LINE
  5
12D4
  8
3
 10
55.20665125867643
 20
118.0365843262507
 30
0.0
 11
54.151137579304446
 21
119.0920980056227
 31
0.0
  0
LINE
  5
12D5
  8
3
 10
55.52282985307923
 20
118.0365843262507
 30
0.0
 11
55.20665125867643
 21
118.0365843262507
 31
0.0
  0
LINE
  5
12D6
  8
3
 10
56.578343532451207
 20
119.0920980056227
 30
0.0
 11
55.52282985307923
 21
118.0365843262507
 31
0.0
  0
LINE
  5
12D7
  8
3
 10
56.578343532451207
 20
119.0920980056227
 30
0.0
 11
54.151137579304446
 21
119.0920980056227
 31
0.0
  0
LINE
  5
12D8
  8
3
 10
52.70665125867643
 20
118.0365843262507
 30
0.0
 11
51.651137579304446
 21
119.0920980056227
 31
0.0
  0
LINE
  5
12D9
  8
3
 10
53.02282985307923
 20
118.0365843262507
 30
0.0
 11
52.70665125867643
 21
118.0365843262507
 31
0.0
  0
LINE
  5
12DA
  8
3
 10
54.078343532451207
 20
119.0920980056227
 30
0.0
 11
53.02282985307923
 21
118.0365843262507
 31
0.0
  0
LINE
  5
12DB
  8
3
 10
54.078343532451207
 20
119.0920980056227
 30
0.0
 11
51.651137579304446
 21
119.0920980056227
 31
0.0
  0
LINE
  5
12DC
  8
3
 10
50.20665125867643
 20
118.0365843262507
 30
0.0
 11
49.151137579304446
 21
119.0920980056227
 31
0.0
  0
LINE
  5
12DD
  8
3
 10
50.52282985307923
 20
118.0365843262507
 30
0.0
 11
50.20665125867643
 21
118.0365843262507
 31
0.0
  0
LINE
  5
12DE
  8
3
 10
51.578343532451207
 20
119.0920980056227
 30
0.0
 11
50.52282985307923
 21
118.0365843262507
 31
0.0
  0
LINE
  5
12DF
  8
3
 10
51.578343532451207
 20
119.0920980056227
 30
0.0
 11
49.151137579304446
 21
119.0920980056227
 31
0.0
  0
LINE
  5
12E0
  8
3
 10
47.70665125867643
 20
118.0365843262507
 30
0.0
 11
46.651137579304439
 21
119.0920980056227
 31
0.0
  0
LINE
  5
12E1
  8
3
 10
48.02282985307923
 20
118.0365843262507
 30
0.0
 11
47.70665125867643
 21
118.0365843262507
 31
0.0
  0
LINE
  5
12E2
  8
3
 10
49.078343532451207
 20
119.0920980056227
 30
0.0
 11
48.02282985307923
 21
118.0365843262507
 31
0.0
  0
LINE
  5
12E3
  8
3
 10
49.078343532451207
 20
119.0920980056227
 30
0.0
 11
46.651137579304439
 21
119.0920980056227
 31
0.0
  0
LINE
  5
12E4
  8
3
 10
45.20665125867643
 20
118.0365843262507
 30
0.0
 11
44.151137579304439
 21
119.0920980056227
 31
0.0
  0
LINE
  5
12E5
  8
3
 10
45.52282985307923
 20
118.0365843262507
 30
0.0
 11
45.20665125867643
 21
118.0365843262507
 31
0.0
  0
LINE
  5
12E6
  8
3
 10
46.578343532451207
 20
119.0920980056227
 30
0.0
 11
45.52282985307923
 21
118.0365843262507
 31
0.0
  0
LINE
  5
12E7
  8
3
 10
46.578343532451207
 20
119.0920980056227
 30
0.0
 11
44.151137579304439
 21
119.0920980056227
 31
0.0
  0
LINE
  5
12E8
  8
3
 10
44.151137579304439
 20
119.0920980056227
 30
0.0
 11
45.20665125867643
 21
120.1476116849947
 31
0.0
  0
LINE
  5
12E9
  8
3
 10
45.52282985307923
 20
120.1476116849947
 30
0.0
 11
46.578343532451207
 21
119.0920980056227
 31
0.0
  0
LINE
  5
12EA
  8
3
 10
45.20665125867643
 20
120.1476116849947
 30
0.0
 11
45.52282985307923
 21
120.1476116849947
 31
0.0
  0
LINE
  5
12EB
  8
3
 10
46.651137579304439
 20
119.0920980056227
 30
0.0
 11
47.70665125867643
 21
120.1476116849947
 31
0.0
  0
LINE
  5
12EC
  8
3
 10
48.02282985307923
 20
120.1476116849947
 30
0.0
 11
49.078343532451207
 21
119.0920980056227
 31
0.0
  0
LINE
  5
12ED
  8
3
 10
47.70665125867643
 20
120.1476116849947
 30
0.0
 11
48.02282985307923
 21
120.1476116849947
 31
0.0
  0
LINE
  5
12EE
  8
3
 10
49.151137579304446
 20
119.0920980056227
 30
0.0
 11
50.20665125867643
 21
120.1476116849947
 31
0.0
  0
LINE
  5
12EF
  8
3
 10
50.52282985307923
 20
120.1476116849947
 30
0.0
 11
51.578343532451207
 21
119.0920980056227
 31
0.0
  0
LINE
  5
12F0
  8
3
 10
50.20665125867643
 20
120.1476116849947
 30
0.0
 11
50.52282985307923
 21
120.1476116849947
 31
0.0
  0
LINE
  5
12F1
  8
3
 10
51.651137579304446
 20
119.0920980056227
 30
0.0
 11
52.70665125867643
 21
120.1476116849947
 31
0.0
  0
LINE
  5
12F2
  8
3
 10
53.02282985307923
 20
120.1476116849947
 30
0.0
 11
54.078343532451207
 21
119.0920980056227
 31
0.0
  0
LINE
  5
12F3
  8
3
 10
52.70665125867643
 20
120.1476116849947
 30
0.0
 11
53.02282985307923
 21
120.1476116849947
 31
0.0
  0
LINE
  5
12F4
  8
3
 10
54.151137579304446
 20
119.0920980056227
 30
0.0
 11
55.20665125867643
 21
120.1476116849947
 31
0.0
  0
LINE
  5
12F5
  8
3
 10
55.52282985307923
 20
120.1476116849947
 30
0.0
 11
56.578343532451207
 21
119.0920980056227
 31
0.0
  0
LINE
  5
12F6
  8
3
 10
55.20665125867643
 20
120.1476116849947
 30
0.0
 11
55.52282985307923
 21
120.1476116849947
 31
0.0
  0
LINE
  5
12F7
  8
3
 10
56.651137579304446
 20
119.0920980056227
 30
0.0
 11
57.70665125867643
 21
120.1476116849947
 31
0.0
  0
LINE
  5
12F8
  8
3
 10
58.02282985307923
 20
120.1476116849947
 30
0.0
 11
59.078343532451207
 21
119.0920980056227
 31
0.0
  0
LINE
  5
12F9
  8
3
 10
57.70665125867643
 20
120.1476116849947
 30
0.0
 11
58.02282985307923
 21
120.1476116849947
 31
0.0
  0
LINE
  5
12FA
  8
3
 10
59.151137579304446
 20
119.0920980056227
 30
0.0
 11
60.20665125867643
 21
120.1476116849947
 31
0.0
  0
LINE
  5
12FB
  8
3
 10
60.52282985307923
 20
120.1476116849947
 30
0.0
 11
61.578343532451207
 21
119.0920980056227
 31
0.0
  0
LINE
  5
12FC
  8
3
 10
60.20665125867643
 20
120.1476116849947
 30
0.0
 11
60.52282985307923
 21
120.1476116849947
 31
0.0
  0
LINE
  5
12FD
  8
3
 10
61.651137579304446
 20
119.0920980056227
 30
0.0
 11
62.70665125867643
 21
120.1476116849947
 31
0.0
  0
LINE
  5
12FE
  8
3
 10
63.02282985307923
 20
120.1476116849947
 30
0.0
 11
64.078343532451214
 21
119.0920980056227
 31
0.0
  0
LINE
  5
12FF
  8
3
 10
62.70665125867643
 20
120.1476116849947
 30
0.0
 11
63.02282985307923
 21
120.1476116849947
 31
0.0
  0
LINE
  5
1300
  8
3
 10
64.151137579304446
 20
119.0920980056227
 30
0.0
 11
65.20665125867643
 21
120.1476116849947
 31
0.0
  0
LINE
  5
1301
  8
3
 10
65.52282985307923
 20
120.1476116849947
 30
0.0
 11
66.578343532451214
 21
119.0920980056227
 31
0.0
  0
LINE
  5
1302
  8
3
 10
65.20665125867643
 20
120.1476116849947
 30
0.0
 11
65.52282985307923
 21
120.1476116849947
 31
0.0
  0
LINE
  5
1303
  8
3
 10
66.651137579304446
 20
119.0920980056227
 30
0.0
 11
67.70665125867643
 21
120.1476116849947
 31
0.0
  0
LINE
  5
1305
  8
3
 10
68.02282985307923
 20
120.1476116849947
 30
0.0
 11
68.870052289991207
 21
119.30038924808269
 31
0.0
  0
LINE
  5
1306
  8
3
 10
67.70665125867643
 20
120.1476116849947
 30
0.0
 11
68.02282985307923
 21
120.1476116849947
 31
0.0
  0
LINE
  5
1307
  8
3
 10
40.52282985307923
 20
120.1476116849947
 30
0.0
 11
41.578343532451207
 21
119.0920980056227
 31
0.0
  0
LINE
  5
1308
  8
3
 10
40.20665125867643
 20
120.1476116849947
 30
0.0
 11
40.52282985307923
 21
120.1476116849947
 31
0.0
  0
LINE
  5
1309
  8
3
 10
39.35942882176446
 20
119.30038924808269
 30
0.0
 11
40.20665125867643
 21
120.1476116849947
 31
0.0
  0
LINE
  5
130B
  8
3
 10
41.651137579304439
 20
119.0920980056227
 30
0.0
 11
42.70665125867643
 21
120.1476116849947
 31
0.0
  0
LINE
  5
130C
  8
3
 10
44.078343532451207
 20
119.0920980056227
 30
0.0
 11
41.651137579304439
 21
119.0920980056227
 31
0.0
  0
LINE
  5
130D
  8
3
 10
43.02282985307923
 20
120.1476116849947
 30
0.0
 11
44.078343532451207
 21
119.0920980056227
 31
0.0
  0
LINE
  5
130E
  8
3
 10
42.70665125867643
 20
120.1476116849947
 30
0.0
 11
43.02282985307923
 21
120.1476116849947
 31
0.0
  0
LINE
  5
130F
  8
3
 10
41.651137579304439
 20
121.5920980056227
 30
0.0
 11
42.70665125867643
 21
122.6476116849946
 31
0.0
  0
LINE
  5
1310
  8
3
 10
44.078343532451207
 20
121.5920980056227
 30
0.0
 11
41.651137579304439
 21
121.5920980056227
 31
0.0
  0
LINE
  5
1311
  8
3
 10
43.02282985307923
 20
122.6476116849946
 30
0.0
 11
44.078343532451207
 21
121.5920980056227
 31
0.0
  0
LINE
  5
1312
  8
3
 10
42.70665125867643
 20
122.6476116849946
 30
0.0
 11
43.02282985307923
 21
122.6476116849946
 31
0.0
  0
LINE
  5
1313
  8
3
 10
44.151137579304439
 20
121.5920980056227
 30
0.0
 11
45.20665125867643
 21
122.6476116849946
 31
0.0
  0
LINE
  5
1314
  8
3
 10
46.578343532451207
 20
121.5920980056227
 30
0.0
 11
44.151137579304439
 21
121.5920980056227
 31
0.0
  0
LINE
  5
1315
  8
3
 10
45.52282985307923
 20
122.6476116849946
 30
0.0
 11
46.578343532451207
 21
121.5920980056227
 31
0.0
  0
LINE
  5
1316
  8
3
 10
45.20665125867643
 20
122.6476116849946
 30
0.0
 11
45.52282985307923
 21
122.6476116849946
 31
0.0
  0
LINE
  5
1317
  8
3
 10
46.651137579304439
 20
121.5920980056227
 30
0.0
 11
47.70665125867643
 21
122.6476116849946
 31
0.0
  0
LINE
  5
1318
  8
3
 10
49.078343532451207
 20
121.5920980056227
 30
0.0
 11
46.651137579304439
 21
121.5920980056227
 31
0.0
  0
LINE
  5
1319
  8
3
 10
48.02282985307923
 20
122.6476116849946
 30
0.0
 11
49.078343532451207
 21
121.5920980056227
 31
0.0
  0
LINE
  5
131A
  8
3
 10
47.70665125867643
 20
122.6476116849946
 30
0.0
 11
48.02282985307923
 21
122.6476116849946
 31
0.0
  0
LINE
  5
131B
  8
3
 10
49.151137579304446
 20
121.5920980056227
 30
0.0
 11
50.20665125867643
 21
122.6476116849946
 31
0.0
  0
LINE
  5
131C
  8
3
 10
51.578343532451207
 20
121.5920980056227
 30
0.0
 11
49.151137579304446
 21
121.5920980056227
 31
0.0
  0
LINE
  5
131D
  8
3
 10
50.52282985307923
 20
122.6476116849946
 30
0.0
 11
51.578343532451207
 21
121.5920980056227
 31
0.0
  0
LINE
  5
131E
  8
3
 10
50.20665125867643
 20
122.6476116849946
 30
0.0
 11
50.52282985307923
 21
122.6476116849946
 31
0.0
  0
LINE
  5
131F
  8
3
 10
51.651137579304446
 20
121.5920980056227
 30
0.0
 11
52.70665125867643
 21
122.6476116849946
 31
0.0
  0
LINE
  5
1320
  8
3
 10
54.078343532451207
 20
121.5920980056227
 30
0.0
 11
51.651137579304446
 21
121.5920980056227
 31
0.0
  0
LINE
  5
1321
  8
3
 10
53.02282985307923
 20
122.6476116849946
 30
0.0
 11
54.078343532451207
 21
121.5920980056227
 31
0.0
  0
LINE
  5
1322
  8
3
 10
52.70665125867643
 20
122.6476116849946
 30
0.0
 11
53.02282985307923
 21
122.6476116849946
 31
0.0
  0
LINE
  5
1323
  8
3
 10
54.151137579304446
 20
121.5920980056227
 30
0.0
 11
55.20665125867643
 21
122.6476116849946
 31
0.0
  0
LINE
  5
1324
  8
3
 10
56.578343532451207
 20
121.5920980056227
 30
0.0
 11
54.151137579304446
 21
121.5920980056227
 31
0.0
  0
LINE
  5
1325
  8
3
 10
55.52282985307923
 20
122.6476116849946
 30
0.0
 11
56.578343532451207
 21
121.5920980056227
 31
0.0
  0
LINE
  5
1326
  8
3
 10
55.20665125867643
 20
122.6476116849946
 30
0.0
 11
55.52282985307923
 21
122.6476116849946
 31
0.0
  0
LINE
  5
1327
  8
3
 10
56.651137579304446
 20
121.5920980056227
 30
0.0
 11
57.70665125867643
 21
122.6476116849946
 31
0.0
  0
LINE
  5
1328
  8
3
 10
59.078343532451207
 20
121.5920980056227
 30
0.0
 11
56.651137579304446
 21
121.5920980056227
 31
0.0
  0
LINE
  5
1329
  8
3
 10
58.02282985307923
 20
122.6476116849946
 30
0.0
 11
59.078343532451207
 21
121.5920980056227
 31
0.0
  0
LINE
  5
132A
  8
3
 10
57.70665125867643
 20
122.6476116849946
 30
0.0
 11
58.02282985307923
 21
122.6476116849946
 31
0.0
  0
LINE
  5
132B
  8
3
 10
59.151137579304446
 20
121.5920980056227
 30
0.0
 11
60.20665125867643
 21
122.6476116849946
 31
0.0
  0
LINE
  5
132C
  8
3
 10
61.578343532451207
 20
121.5920980056227
 30
0.0
 11
59.151137579304446
 21
121.5920980056227
 31
0.0
  0
LINE
  5
132D
  8
3
 10
60.52282985307923
 20
122.6476116849946
 30
0.0
 11
61.578343532451207
 21
121.5920980056227
 31
0.0
  0
LINE
  5
132E
  8
3
 10
60.20665125867643
 20
122.6476116849946
 30
0.0
 11
60.52282985307923
 21
122.6476116849946
 31
0.0
  0
LINE
  5
132F
  8
3
 10
61.651137579304446
 20
121.5920980056227
 30
0.0
 11
62.70665125867643
 21
122.6476116849946
 31
0.0
  0
LINE
  5
1330
  8
3
 10
64.078343532451214
 20
121.5920980056227
 30
0.0
 11
61.651137579304446
 21
121.5920980056227
 31
0.0
  0
LINE
  5
1331
  8
3
 10
63.02282985307923
 20
122.6476116849946
 30
0.0
 11
64.078343532451214
 21
121.5920980056227
 31
0.0
  0
LINE
  5
1332
  8
3
 10
62.70665125867643
 20
122.6476116849946
 30
0.0
 11
63.02282985307923
 21
122.6476116849946
 31
0.0
  0
LINE
  5
1333
  8
3
 10
64.151137579304446
 20
121.5920980056227
 30
0.0
 11
65.20665125867643
 21
122.6476116849946
 31
0.0
  0
LINE
  5
1334
  8
3
 10
66.578343532451214
 20
121.5920980056227
 30
0.0
 11
64.151137579304446
 21
121.5920980056227
 31
0.0
  0
LINE
  5
1335
  8
3
 10
65.52282985307923
 20
122.6476116849946
 30
0.0
 11
66.578343532451214
 21
121.5920980056227
 31
0.0
  0
LINE
  5
1336
  8
3
 10
65.20665125867643
 20
122.6476116849946
 30
0.0
 11
65.52282985307923
 21
122.6476116849946
 31
0.0
  0
LINE
  5
1337
  8
3
 10
66.651137579304446
 20
121.5920980056227
 30
0.0
 11
67.70665125867643
 21
122.6476116849946
 31
0.0
  0
LINE
  5
1338
  8
3
 10
68.260407737032637
 20
121.5920980056227
 30
0.0
 11
66.651137579304446
 21
121.5920980056227
 31
0.0
  0
LINE
  5
133A
  8
3
 10
67.70665125867643
 20
122.6476116849946
 30
0.0
 11
67.842514022559385
 21
122.6476116849946
 31
0.0
  0
LINE
  5
133C
  8
3
 10
41.578343532451207
 20
121.5920980056227
 30
0.0
 11
39.969073374723031
 21
121.5920980056227
 31
0.0
  0
LINE
  5
133D
  8
3
 10
40.52282985307923
 20
122.6476116849946
 30
0.0
 11
41.578343532451207
 21
121.5920980056227
 31
0.0
  0
LINE
  5
133E
  8
3
 10
40.386967089196268
 20
122.6476116849946
 30
0.0
 11
40.52282985307923
 21
122.6476116849946
 31
0.0
  0
LINE
  5
133F
  8
3
 10
67.70665125867643
 20
120.5365843262507
 30
0.0
 11
66.651137579304446
 21
121.5920980056227
 31
0.0
  0
LINE
  5
1340
  8
3
 10
68.02282985307923
 20
120.5365843262507
 30
0.0
 11
67.70665125867643
 21
120.5365843262507
 31
0.0
  0
LINE
  5
1341
  8
3
 10
68.462728449552543
 20
120.976482922724
 30
0.0
 11
68.02282985307923
 21
120.5365843262507
 31
0.0
  0
LINE
  5
1343
  8
3
 10
65.20665125867643
 20
120.5365843262507
 30
0.0
 11
64.151137579304446
 21
121.5920980056227
 31
0.0
  0
LINE
  5
1344
  8
3
 10
65.52282985307923
 20
120.5365843262507
 30
0.0
 11
65.20665125867643
 21
120.5365843262507
 31
0.0
  0
LINE
  5
1345
  8
3
 10
66.578343532451214
 20
121.5920980056227
 30
0.0
 11
65.52282985307923
 21
120.5365843262507
 31
0.0
  0
LINE
  5
1346
  8
3
 10
62.70665125867643
 20
120.5365843262507
 30
0.0
 11
61.651137579304446
 21
121.5920980056227
 31
0.0
  0
LINE
  5
1347
  8
3
 10
63.02282985307923
 20
120.5365843262507
 30
0.0
 11
62.70665125867643
 21
120.5365843262507
 31
0.0
  0
LINE
  5
1348
  8
3
 10
64.078343532451214
 20
121.5920980056227
 30
0.0
 11
63.02282985307923
 21
120.5365843262507
 31
0.0
  0
LINE
  5
1349
  8
3
 10
60.20665125867643
 20
120.5365843262507
 30
0.0
 11
59.151137579304446
 21
121.5920980056227
 31
0.0
  0
LINE
  5
134A
  8
3
 10
60.52282985307923
 20
120.5365843262507
 30
0.0
 11
60.20665125867643
 21
120.5365843262507
 31
0.0
  0
LINE
  5
134B
  8
3
 10
61.578343532451207
 20
121.5920980056227
 30
0.0
 11
60.52282985307923
 21
120.5365843262507
 31
0.0
  0
LINE
  5
134C
  8
3
 10
57.70665125867643
 20
120.5365843262507
 30
0.0
 11
56.651137579304446
 21
121.5920980056227
 31
0.0
  0
LINE
  5
134D
  8
3
 10
58.02282985307923
 20
120.5365843262507
 30
0.0
 11
57.70665125867643
 21
120.5365843262507
 31
0.0
  0
LINE
  5
134E
  8
3
 10
59.078343532451207
 20
121.5920980056227
 30
0.0
 11
58.02282985307923
 21
120.5365843262507
 31
0.0
  0
LINE
  5
134F
  8
3
 10
55.20665125867643
 20
120.5365843262507
 30
0.0
 11
54.151137579304446
 21
121.5920980056227
 31
0.0
  0
LINE
  5
1350
  8
3
 10
55.52282985307923
 20
120.5365843262507
 30
0.0
 11
55.20665125867643
 21
120.5365843262507
 31
0.0
  0
LINE
  5
1351
  8
3
 10
56.578343532451207
 20
121.5920980056227
 30
0.0
 11
55.52282985307923
 21
120.5365843262507
 31
0.0
  0
LINE
  5
1352
  8
3
 10
52.70665125867643
 20
120.5365843262507
 30
0.0
 11
51.651137579304446
 21
121.5920980056227
 31
0.0
  0
LINE
  5
1353
  8
3
 10
53.02282985307923
 20
120.5365843262507
 30
0.0
 11
52.70665125867643
 21
120.5365843262507
 31
0.0
  0
LINE
  5
1354
  8
3
 10
54.078343532451207
 20
121.5920980056227
 30
0.0
 11
53.02282985307923
 21
120.5365843262507
 31
0.0
  0
LINE
  5
1355
  8
3
 10
50.20665125867643
 20
120.5365843262507
 30
0.0
 11
49.151137579304446
 21
121.5920980056227
 31
0.0
  0
LINE
  5
1356
  8
3
 10
50.52282985307923
 20
120.5365843262507
 30
0.0
 11
50.20665125867643
 21
120.5365843262507
 31
0.0
  0
LINE
  5
1357
  8
3
 10
51.578343532451207
 20
121.5920980056227
 30
0.0
 11
50.52282985307923
 21
120.5365843262507
 31
0.0
  0
LINE
  5
1358
  8
3
 10
47.70665125867643
 20
120.5365843262507
 30
0.0
 11
46.651137579304439
 21
121.5920980056227
 31
0.0
  0
LINE
  5
1359
  8
3
 10
48.02282985307923
 20
120.5365843262507
 30
0.0
 11
47.70665125867643
 21
120.5365843262507
 31
0.0
  0
LINE
  5
135A
  8
3
 10
49.078343532451207
 20
121.5920980056227
 30
0.0
 11
48.02282985307923
 21
120.5365843262507
 31
0.0
  0
LINE
  5
135B
  8
3
 10
45.20665125867643
 20
120.5365843262507
 30
0.0
 11
44.151137579304439
 21
121.5920980056227
 31
0.0
  0
LINE
  5
135C
  8
3
 10
45.52282985307923
 20
120.5365843262507
 30
0.0
 11
45.20665125867643
 21
120.5365843262507
 31
0.0
  0
LINE
  5
135D
  8
3
 10
46.578343532451207
 20
121.5920980056227
 30
0.0
 11
45.52282985307923
 21
120.5365843262507
 31
0.0
  0
LINE
  5
135E
  8
3
 10
42.70665125867643
 20
120.5365843262507
 30
0.0
 11
41.651137579304439
 21
121.5920980056227
 31
0.0
  0
LINE
  5
135F
  8
3
 10
43.02282985307923
 20
120.5365843262507
 30
0.0
 11
42.70665125867643
 21
120.5365843262507
 31
0.0
  0
LINE
  5
1360
  8
3
 10
44.078343532451207
 20
121.5920980056227
 30
0.0
 11
43.02282985307923
 21
120.5365843262507
 31
0.0
  0
LINE
  5
1362
  8
3
 10
41.578343532451207
 20
124.0920980056227
 30
0.0
 11
41.118591126142888
 21
124.0920980056227
 31
0.0
  0
LINE
  5
1363
  8
3
 10
41.289432101512602
 20
124.3810094365613
 30
0.0
 11
41.578343532451207
 21
124.0920980056227
 31
0.0
  0
LINE
  5
1364
  8
3
 10
41.651137579304439
 20
124.0920980056227
 30
0.0
 11
42.70665125867643
 21
125.1476116849946
 31
0.0
  0
LINE
  5
1365
  8
3
 10
44.078343532451207
 20
124.0920980056227
 30
0.0
 11
41.651137579304439
 21
124.0920980056227
 31
0.0
  0
LINE
  5
1366
  8
3
 10
43.02282985307923
 20
125.1476116849946
 30
0.0
 11
44.078343532451207
 21
124.0920980056227
 31
0.0
  0
LINE
  5
1367
  8
3
 10
42.70665125867643
 20
125.1476116849946
 30
0.0
 11
43.02282985307923
 21
125.1476116849946
 31
0.0
  0
LINE
  5
1368
  8
3
 10
44.151137579304439
 20
124.0920980056227
 30
0.0
 11
45.20665125867643
 21
125.1476116849946
 31
0.0
  0
LINE
  5
1369
  8
3
 10
46.578343532451207
 20
124.0920980056227
 30
0.0
 11
44.151137579304439
 21
124.0920980056227
 31
0.0
  0
LINE
  5
136A
  8
3
 10
45.52282985307923
 20
125.1476116849946
 30
0.0
 11
46.578343532451207
 21
124.0920980056227
 31
0.0
  0
LINE
  5
136B
  8
3
 10
45.20665125867643
 20
125.1476116849946
 30
0.0
 11
45.52282985307923
 21
125.1476116849946
 31
0.0
  0
LINE
  5
136C
  8
3
 10
46.651137579304439
 20
124.0920980056227
 30
0.0
 11
47.70665125867643
 21
125.1476116849946
 31
0.0
  0
LINE
  5
136D
  8
3
 10
49.078343532451207
 20
124.0920980056227
 30
0.0
 11
46.651137579304439
 21
124.0920980056227
 31
0.0
  0
LINE
  5
136E
  8
3
 10
48.02282985307923
 20
125.1476116849946
 30
0.0
 11
49.078343532451207
 21
124.0920980056227
 31
0.0
  0
LINE
  5
136F
  8
3
 10
47.70665125867643
 20
125.1476116849946
 30
0.0
 11
48.02282985307923
 21
125.1476116849946
 31
0.0
  0
LINE
  5
1370
  8
3
 10
49.151137579304446
 20
124.0920980056227
 30
0.0
 11
50.20665125867643
 21
125.1476116849946
 31
0.0
  0
LINE
  5
1371
  8
3
 10
51.578343532451207
 20
124.0920980056227
 30
0.0
 11
49.151137579304446
 21
124.0920980056227
 31
0.0
  0
LINE
  5
1372
  8
3
 10
50.52282985307923
 20
125.1476116849946
 30
0.0
 11
51.578343532451207
 21
124.0920980056227
 31
0.0
  0
LINE
  5
1373
  8
3
 10
50.20665125867643
 20
125.1476116849946
 30
0.0
 11
50.52282985307923
 21
125.1476116849946
 31
0.0
  0
LINE
  5
1374
  8
3
 10
51.651137579304446
 20
124.0920980056227
 30
0.0
 11
52.70665125867643
 21
125.1476116849946
 31
0.0
  0
LINE
  5
1375
  8
3
 10
54.078343532451207
 20
124.0920980056227
 30
0.0
 11
51.651137579304446
 21
124.0920980056227
 31
0.0
  0
LINE
  5
1376
  8
3
 10
53.02282985307923
 20
125.1476116849946
 30
0.0
 11
54.078343532451207
 21
124.0920980056227
 31
0.0
  0
LINE
  5
1377
  8
3
 10
52.70665125867643
 20
125.1476116849946
 30
0.0
 11
53.02282985307923
 21
125.1476116849946
 31
0.0
  0
LINE
  5
1378
  8
3
 10
54.151137579304446
 20
124.0920980056227
 30
0.0
 11
55.20665125867643
 21
125.1476116849946
 31
0.0
  0
LINE
  5
1379
  8
3
 10
56.578343532451207
 20
124.0920980056227
 30
0.0
 11
54.151137579304446
 21
124.0920980056227
 31
0.0
  0
LINE
  5
137A
  8
3
 10
55.52282985307923
 20
125.1476116849946
 30
0.0
 11
56.578343532451207
 21
124.0920980056227
 31
0.0
  0
LINE
  5
137B
  8
3
 10
55.20665125867643
 20
125.1476116849946
 30
0.0
 11
55.52282985307923
 21
125.1476116849946
 31
0.0
  0
LINE
  5
137C
  8
3
 10
56.651137579304446
 20
124.0920980056227
 30
0.0
 11
57.70665125867643
 21
125.1476116849946
 31
0.0
  0
LINE
  5
137D
  8
3
 10
59.078343532451207
 20
124.0920980056227
 30
0.0
 11
56.651137579304446
 21
124.0920980056227
 31
0.0
  0
LINE
  5
137E
  8
3
 10
58.02282985307923
 20
125.1476116849946
 30
0.0
 11
59.078343532451207
 21
124.0920980056227
 31
0.0
  0
LINE
  5
137F
  8
3
 10
57.70665125867643
 20
125.1476116849946
 30
0.0
 11
58.02282985307923
 21
125.1476116849946
 31
0.0
  0
LINE
  5
1380
  8
3
 10
59.151137579304446
 20
124.0920980056227
 30
0.0
 11
60.20665125867643
 21
125.1476116849946
 31
0.0
  0
LINE
  5
1381
  8
3
 10
61.578343532451207
 20
124.0920980056227
 30
0.0
 11
59.151137579304446
 21
124.0920980056227
 31
0.0
  0
LINE
  5
1382
  8
3
 10
60.52282985307923
 20
125.1476116849946
 30
0.0
 11
61.578343532451207
 21
124.0920980056227
 31
0.0
  0
LINE
  5
1383
  8
3
 10
60.20665125867643
 20
125.1476116849946
 30
0.0
 11
60.52282985307923
 21
125.1476116849946
 31
0.0
  0
LINE
  5
1384
  8
3
 10
61.651137579304446
 20
124.0920980056227
 30
0.0
 11
62.70665125867643
 21
125.1476116849946
 31
0.0
  0
LINE
  5
1385
  8
3
 10
64.078343532451214
 20
124.0920980056227
 30
0.0
 11
61.651137579304446
 21
124.0920980056227
 31
0.0
  0
LINE
  5
1386
  8
3
 10
63.02282985307923
 20
125.1476116849946
 30
0.0
 11
64.078343532451214
 21
124.0920980056227
 31
0.0
  0
LINE
  5
1387
  8
3
 10
62.70665125867643
 20
125.1476116849946
 30
0.0
 11
63.02282985307923
 21
125.1476116849946
 31
0.0
  0
LINE
  5
1388
  8
3
 10
64.151137579304446
 20
124.0920980056227
 30
0.0
 11
65.20665125867643
 21
125.1476116849946
 31
0.0
  0
LINE
  5
1389
  8
3
 10
66.578343532451214
 20
124.0920980056227
 30
0.0
 11
64.151137579304446
 21
124.0920980056227
 31
0.0
  0
LINE
  5
138A
  8
3
 10
65.52282985307923
 20
125.1476116849946
 30
0.0
 11
66.578343532451214
 21
124.0920980056227
 31
0.0
  0
LINE
  5
138B
  8
3
 10
65.20665125867643
 20
125.1476116849946
 30
0.0
 11
65.52282985307923
 21
125.1476116849946
 31
0.0
  0
LINE
  5
138C
  8
3
 10
65.20665125867643
 20
123.0365843262507
 30
0.0
 11
64.151137579304446
 21
124.0920980056227
 31
0.0
  0
LINE
  5
138D
  8
3
 10
65.52282985307923
 20
123.0365843262507
 30
0.0
 11
65.20665125867643
 21
123.0365843262507
 31
0.0
  0
LINE
  5
138E
  8
3
 10
66.578343532451214
 20
124.0920980056227
 30
0.0
 11
65.52282985307923
 21
123.0365843262507
 31
0.0
  0
LINE
  5
138F
  8
3
 10
62.70665125867643
 20
123.0365843262507
 30
0.0
 11
61.651137579304446
 21
124.0920980056227
 31
0.0
  0
LINE
  5
1390
  8
3
 10
63.02282985307923
 20
123.0365843262507
 30
0.0
 11
62.70665125867643
 21
123.0365843262507
 31
0.0
  0
LINE
  5
1391
  8
3
 10
64.078343532451214
 20
124.0920980056227
 30
0.0
 11
63.02282985307923
 21
123.0365843262507
 31
0.0
  0
LINE
  5
1392
  8
3
 10
60.20665125867643
 20
123.0365843262507
 30
0.0
 11
59.151137579304446
 21
124.0920980056227
 31
0.0
  0
LINE
  5
1393
  8
3
 10
60.52282985307923
 20
123.0365843262507
 30
0.0
 11
60.20665125867643
 21
123.0365843262507
 31
0.0
  0
LINE
  5
1394
  8
3
 10
61.578343532451207
 20
124.0920980056227
 30
0.0
 11
60.52282985307923
 21
123.0365843262507
 31
0.0
  0
LINE
  5
1395
  8
3
 10
57.70665125867643
 20
123.0365843262507
 30
0.0
 11
56.651137579304446
 21
124.0920980056227
 31
0.0
  0
LINE
  5
1396
  8
3
 10
58.02282985307923
 20
123.0365843262507
 30
0.0
 11
57.70665125867643
 21
123.0365843262507
 31
0.0
  0
LINE
  5
1397
  8
3
 10
59.078343532451207
 20
124.0920980056227
 30
0.0
 11
58.02282985307923
 21
123.0365843262507
 31
0.0
  0
LINE
  5
1398
  8
3
 10
55.20665125867643
 20
123.0365843262507
 30
0.0
 11
54.151137579304446
 21
124.0920980056227
 31
0.0
  0
LINE
  5
1399
  8
3
 10
55.52282985307923
 20
123.0365843262507
 30
0.0
 11
55.20665125867643
 21
123.0365843262507
 31
0.0
  0
LINE
  5
139A
  8
3
 10
56.578343532451207
 20
124.0920980056227
 30
0.0
 11
55.52282985307923
 21
123.0365843262507
 31
0.0
  0
LINE
  5
139B
  8
3
 10
52.70665125867643
 20
123.0365843262507
 30
0.0
 11
51.651137579304446
 21
124.0920980056227
 31
0.0
  0
LINE
  5
139C
  8
3
 10
53.02282985307923
 20
123.0365843262507
 30
0.0
 11
52.70665125867643
 21
123.0365843262507
 31
0.0
  0
LINE
  5
139D
  8
3
 10
54.078343532451207
 20
124.0920980056227
 30
0.0
 11
53.02282985307923
 21
123.0365843262507
 31
0.0
  0
LINE
  5
139E
  8
3
 10
50.20665125867643
 20
123.0365843262507
 30
0.0
 11
49.151137579304446
 21
124.0920980056227
 31
0.0
  0
LINE
  5
139F
  8
3
 10
50.52282985307923
 20
123.0365843262507
 30
0.0
 11
50.20665125867643
 21
123.0365843262507
 31
0.0
  0
LINE
  5
13A0
  8
3
 10
51.578343532451207
 20
124.0920980056227
 30
0.0
 11
50.52282985307923
 21
123.0365843262507
 31
0.0
  0
LINE
  5
13A1
  8
3
 10
47.70665125867643
 20
123.0365843262507
 30
0.0
 11
46.651137579304439
 21
124.0920980056227
 31
0.0
  0
LINE
  5
13A2
  8
3
 10
48.02282985307923
 20
123.0365843262507
 30
0.0
 11
47.70665125867643
 21
123.0365843262507
 31
0.0
  0
LINE
  5
13A3
  8
3
 10
49.078343532451207
 20
124.0920980056227
 30
0.0
 11
48.02282985307923
 21
123.0365843262507
 31
0.0
  0
LINE
  5
13A4
  8
3
 10
45.20665125867643
 20
123.0365843262507
 30
0.0
 11
44.151137579304439
 21
124.0920980056227
 31
0.0
  0
LINE
  5
13A5
  8
3
 10
45.52282985307923
 20
123.0365843262507
 30
0.0
 11
45.20665125867643
 21
123.0365843262507
 31
0.0
  0
LINE
  5
13A6
  8
3
 10
46.578343532451207
 20
124.0920980056227
 30
0.0
 11
45.52282985307923
 21
123.0365843262507
 31
0.0
  0
LINE
  5
13A7
  8
3
 10
42.70665125867643
 20
123.0365843262507
 30
0.0
 11
41.651137579304439
 21
124.0920980056227
 31
0.0
  0
LINE
  5
13A8
  8
3
 10
43.02282985307923
 20
123.0365843262507
 30
0.0
 11
42.70665125867643
 21
123.0365843262507
 31
0.0
  0
LINE
  5
13A9
  8
3
 10
44.078343532451207
 20
124.0920980056227
 30
0.0
 11
43.02282985307923
 21
123.0365843262507
 31
0.0
  0
LINE
  5
13AB
  8
3
 10
41.578343532451207
 20
124.0920980056227
 30
0.0
 11
40.603563261349727
 21
123.11731773452119
 31
0.0
  0
LINE
  5
13AD
  8
3
 10
67.110889985612772
 20
124.0920980056227
 30
0.0
 11
66.651137579304446
 21
124.0920980056227
 31
0.0
  0
LINE
  5
13AE
  8
3
 10
67.625917850405898
 20
123.11731773452119
 30
0.0
 11
66.651137579304446
 21
124.0920980056227
 31
0.0
  0
LINE
  5
13AF
  8
3
 10
44.151137579304439
 20
126.5920980056227
 30
0.0
 11
45.20665125867643
 21
127.6476116849946
 31
0.0
  0
LINE
  5
13B0
  8
3
 10
46.578343532451207
 20
126.5920980056227
 30
0.0
 11
44.151137579304439
 21
126.5920980056227
 31
0.0
  0
LINE
  5
13B1
  8
3
 10
45.52282985307923
 20
127.6476116849946
 30
0.0
 11
46.578343532451207
 21
126.5920980056227
 31
0.0
  0
LINE
  5
13B2
  8
3
 10
45.20665125867643
 20
127.6476116849946
 30
0.0
 11
45.52282985307923
 21
127.6476116849946
 31
0.0
  0
LINE
  5
13B3
  8
3
 10
46.651137579304439
 20
126.5920980056227
 30
0.0
 11
47.70665125867643
 21
127.6476116849946
 31
0.0
  0
LINE
  5
13B4
  8
3
 10
49.078343532451207
 20
126.5920980056227
 30
0.0
 11
46.651137579304439
 21
126.5920980056227
 31
0.0
  0
LINE
  5
13B5
  8
3
 10
48.02282985307923
 20
127.6476116849946
 30
0.0
 11
49.078343532451207
 21
126.5920980056227
 31
0.0
  0
LINE
  5
13B6
  8
3
 10
47.70665125867643
 20
127.6476116849946
 30
0.0
 11
48.02282985307923
 21
127.6476116849946
 31
0.0
  0
LINE
  5
13B7
  8
3
 10
49.151137579304446
 20
126.5920980056227
 30
0.0
 11
50.20665125867643
 21
127.6476116849946
 31
0.0
  0
LINE
  5
13B8
  8
3
 10
51.578343532451207
 20
126.5920980056227
 30
0.0
 11
49.151137579304446
 21
126.5920980056227
 31
0.0
  0
LINE
  5
13B9
  8
3
 10
50.52282985307923
 20
127.6476116849946
 30
0.0
 11
51.578343532451207
 21
126.5920980056227
 31
0.0
  0
LINE
  5
13BA
  8
3
 10
50.20665125867643
 20
127.6476116849946
 30
0.0
 11
50.52282985307923
 21
127.6476116849946
 31
0.0
  0
LINE
  5
13BB
  8
3
 10
51.651137579304446
 20
126.5920980056227
 30
0.0
 11
52.70665125867643
 21
127.6476116849946
 31
0.0
  0
LINE
  5
13BC
  8
3
 10
54.078343532451207
 20
126.5920980056227
 30
0.0
 11
51.651137579304446
 21
126.5920980056227
 31
0.0
  0
LINE
  5
13BD
  8
3
 10
53.02282985307923
 20
127.6476116849946
 30
0.0
 11
54.078343532451207
 21
126.5920980056227
 31
0.0
  0
LINE
  5
13BE
  8
3
 10
52.70665125867643
 20
127.6476116849946
 30
0.0
 11
53.02282985307923
 21
127.6476116849946
 31
0.0
  0
LINE
  5
13BF
  8
3
 10
54.151137579304446
 20
126.5920980056227
 30
0.0
 11
55.20665125867643
 21
127.6476116849946
 31
0.0
  0
LINE
  5
13C0
  8
3
 10
56.578343532451207
 20
126.5920980056227
 30
0.0
 11
54.151137579304446
 21
126.5920980056227
 31
0.0
  0
LINE
  5
13C1
  8
3
 10
55.52282985307923
 20
127.6476116849946
 30
0.0
 11
56.578343532451207
 21
126.5920980056227
 31
0.0
  0
LINE
  5
13C2
  8
3
 10
55.20665125867643
 20
127.6476116849946
 30
0.0
 11
55.52282985307923
 21
127.6476116849946
 31
0.0
  0
LINE
  5
13C3
  8
3
 10
56.651137579304446
 20
126.5920980056227
 30
0.0
 11
57.70665125867643
 21
127.6476116849946
 31
0.0
  0
LINE
  5
13C4
  8
3
 10
59.078343532451207
 20
126.5920980056227
 30
0.0
 11
56.651137579304446
 21
126.5920980056227
 31
0.0
  0
LINE
  5
13C5
  8
3
 10
58.02282985307923
 20
127.6476116849946
 30
0.0
 11
59.078343532451207
 21
126.5920980056227
 31
0.0
  0
LINE
  5
13C6
  8
3
 10
57.70665125867643
 20
127.6476116849946
 30
0.0
 11
58.02282985307923
 21
127.6476116849946
 31
0.0
  0
LINE
  5
13C7
  8
3
 10
59.151137579304446
 20
126.5920980056227
 30
0.0
 11
60.20665125867643
 21
127.6476116849946
 31
0.0
  0
LINE
  5
13C8
  8
3
 10
61.578343532451207
 20
126.5920980056227
 30
0.0
 11
59.151137579304446
 21
126.5920980056227
 31
0.0
  0
LINE
  5
13C9
  8
3
 10
60.52282985307923
 20
127.6476116849946
 30
0.0
 11
61.578343532451207
 21
126.5920980056227
 31
0.0
  0
LINE
  5
13CA
  8
3
 10
60.20665125867643
 20
127.6476116849946
 30
0.0
 11
60.52282985307923
 21
127.6476116849946
 31
0.0
  0
LINE
  5
13CB
  8
3
 10
61.651137579304446
 20
126.5920980056227
 30
0.0
 11
62.70665125867643
 21
127.6476116849946
 31
0.0
  0
LINE
  5
13CC
  8
3
 10
64.078343532451214
 20
126.5920980056227
 30
0.0
 11
61.651137579304446
 21
126.5920980056227
 31
0.0
  0
LINE
  5
13CD
  8
3
 10
63.02282985307923
 20
127.6476116849946
 30
0.0
 11
64.078343532451214
 21
126.5920980056227
 31
0.0
  0
LINE
  5
13CE
  8
3
 10
62.70665125867643
 20
127.6476116849946
 30
0.0
 11
63.02282985307923
 21
127.6476116849946
 31
0.0
  0
LINE
  5
13CF
  8
3
 10
64.151137579304446
 20
126.5920980056227
 30
0.0
 11
64.744515415737339
 21
127.1854758420555
 31
0.0
  0
LINE
  5
13D0
  8
3
 10
65.304016671873882
 20
126.5920980056227
 30
0.0
 11
64.151137579304446
 21
126.5920980056227
 31
0.0
  0
LINE
  5
13D3
  8
3
 10
44.078343532451207
 20
126.5920980056227
 30
0.0
 11
42.925464439881779
 21
126.5920980056227
 31
0.0
  0
LINE
  5
13D4
  8
3
 10
43.484965696018321
 20
127.1854758420555
 30
0.0
 11
44.078343532451207
 21
126.5920980056227
 31
0.0
  0
LINE
  5
13D5
  8
3
 10
65.20665125867643
 20
125.5365843262507
 30
0.0
 11
64.151137579304446
 21
126.5920980056227
 31
0.0
  0
LINE
  5
13D6
  8
3
 10
65.52282985307923
 20
125.5365843262507
 30
0.0
 11
65.20665125867643
 21
125.5365843262507
 31
0.0
  0
LINE
  5
13D7
  8
3
 10
65.885787251039659
 20
125.8995417242111
 30
0.0
 11
65.52282985307923
 21
125.5365843262507
 31
0.0
  0
LINE
  5
13D9
  8
3
 10
62.70665125867643
 20
125.5365843262507
 30
0.0
 11
61.651137579304446
 21
126.5920980056227
 31
0.0
  0
LINE
  5
13DA
  8
3
 10
63.02282985307923
 20
125.5365843262507
 30
0.0
 11
62.70665125867643
 21
125.5365843262507
 31
0.0
  0
LINE
  5
13DB
  8
3
 10
64.078343532451214
 20
126.5920980056227
 30
0.0
 11
63.02282985307923
 21
125.5365843262507
 31
0.0
  0
LINE
  5
13DC
  8
3
 10
60.20665125867643
 20
125.5365843262507
 30
0.0
 11
59.151137579304446
 21
126.5920980056227
 31
0.0
  0
LINE
  5
13DD
  8
3
 10
60.52282985307923
 20
125.5365843262507
 30
0.0
 11
60.20665125867643
 21
125.5365843262507
 31
0.0
  0
LINE
  5
13DE
  8
3
 10
61.578343532451207
 20
126.5920980056227
 30
0.0
 11
60.52282985307923
 21
125.5365843262507
 31
0.0
  0
LINE
  5
13DF
  8
3
 10
57.70665125867643
 20
125.5365843262507
 30
0.0
 11
56.651137579304446
 21
126.5920980056227
 31
0.0
  0
LINE
  5
13E0
  8
3
 10
58.02282985307923
 20
125.5365843262507
 30
0.0
 11
57.70665125867643
 21
125.5365843262507
 31
0.0
  0
LINE
  5
13E1
  8
3
 10
59.078343532451207
 20
126.5920980056227
 30
0.0
 11
58.02282985307923
 21
125.5365843262507
 31
0.0
  0
LINE
  5
13E2
  8
3
 10
55.20665125867643
 20
125.5365843262507
 30
0.0
 11
54.151137579304446
 21
126.5920980056227
 31
0.0
  0
LINE
  5
13E3
  8
3
 10
55.52282985307923
 20
125.5365843262507
 30
0.0
 11
55.20665125867643
 21
125.5365843262507
 31
0.0
  0
LINE
  5
13E4
  8
3
 10
56.578343532451207
 20
126.5920980056227
 30
0.0
 11
55.52282985307923
 21
125.5365843262507
 31
0.0
  0
LINE
  5
13E5
  8
3
 10
52.70665125867643
 20
125.5365843262507
 30
0.0
 11
51.651137579304446
 21
126.5920980056227
 31
0.0
  0
LINE
  5
13E6
  8
3
 10
53.02282985307923
 20
125.5365843262507
 30
0.0
 11
52.70665125867643
 21
125.5365843262507
 31
0.0
  0
LINE
  5
13E7
  8
3
 10
54.078343532451207
 20
126.5920980056227
 30
0.0
 11
53.02282985307923
 21
125.5365843262507
 31
0.0
  0
LINE
  5
13E8
  8
3
 10
50.20665125867643
 20
125.5365843262507
 30
0.0
 11
49.151137579304446
 21
126.5920980056227
 31
0.0
  0
LINE
  5
13E9
  8
3
 10
50.52282985307923
 20
125.5365843262507
 30
0.0
 11
50.20665125867643
 21
125.5365843262507
 31
0.0
  0
LINE
  5
13EA
  8
3
 10
51.578343532451207
 20
126.5920980056227
 30
0.0
 11
50.52282985307923
 21
125.5365843262507
 31
0.0
  0
LINE
  5
13EB
  8
3
 10
47.70665125867643
 20
125.5365843262507
 30
0.0
 11
46.651137579304439
 21
126.5920980056227
 31
0.0
  0
LINE
  5
13EC
  8
3
 10
48.02282985307923
 20
125.5365843262507
 30
0.0
 11
47.70665125867643
 21
125.5365843262507
 31
0.0
  0
LINE
  5
13ED
  8
3
 10
49.078343532451207
 20
126.5920980056227
 30
0.0
 11
48.02282985307923
 21
125.5365843262507
 31
0.0
  0
LINE
  5
13EE
  8
3
 10
45.20665125867643
 20
125.5365843262507
 30
0.0
 11
44.151137579304439
 21
126.5920980056227
 31
0.0
  0
LINE
  5
13EF
  8
3
 10
45.52282985307923
 20
125.5365843262507
 30
0.0
 11
45.20665125867643
 21
125.5365843262507
 31
0.0
  0
LINE
  5
13F0
  8
3
 10
46.578343532451207
 20
126.5920980056227
 30
0.0
 11
45.52282985307923
 21
125.5365843262507
 31
0.0
  0
LINE
  5
13F1
  8
3
 10
46.651137579304439
 20
129.09209800562269
 30
0.0
 11
47.70665125867643
 21
130.14761168499459
 31
0.0
  0
LINE
  5
13F2
  8
3
 10
49.078343532451207
 20
129.09209800562269
 30
0.0
 11
46.651137579304439
 21
129.09209800562269
 31
0.0
  0
LINE
  5
13F3
  8
3
 10
48.02282985307923
 20
130.14761168499459
 30
0.0
 11
49.078343532451207
 21
129.09209800562269
 31
0.0
  0
LINE
  5
13F4
  8
3
 10
47.70665125867643
 20
130.14761168499459
 30
0.0
 11
48.02282985307923
 21
130.14761168499459
 31
0.0
  0
LINE
  5
13F5
  8
3
 10
49.151137579304446
 20
129.09209800562269
 30
0.0
 11
50.20665125867643
 21
130.14761168499459
 31
0.0
  0
LINE
  5
13F6
  8
3
 10
51.578343532451207
 20
129.09209800562269
 30
0.0
 11
49.151137579304446
 21
129.09209800562269
 31
0.0
  0
LINE
  5
13F7
  8
3
 10
50.52282985307923
 20
130.14761168499459
 30
0.0
 11
51.578343532451207
 21
129.09209800562269
 31
0.0
  0
LINE
  5
13F8
  8
3
 10
50.20665125867643
 20
130.14761168499459
 30
0.0
 11
50.52282985307923
 21
130.14761168499459
 31
0.0
  0
LINE
  5
13F9
  8
3
 10
51.651137579304446
 20
129.09209800562269
 30
0.0
 11
52.70665125867643
 21
130.14761168499459
 31
0.0
  0
LINE
  5
13FA
  8
3
 10
54.078343532451207
 20
129.09209800562269
 30
0.0
 11
51.651137579304446
 21
129.09209800562269
 31
0.0
  0
LINE
  5
13FB
  8
3
 10
53.02282985307923
 20
130.14761168499459
 30
0.0
 11
54.078343532451207
 21
129.09209800562269
 31
0.0
  0
LINE
  5
13FC
  8
3
 10
52.70665125867643
 20
130.14761168499459
 30
0.0
 11
53.02282985307923
 21
130.14761168499459
 31
0.0
  0
LINE
  5
13FD
  8
3
 10
54.151137579304446
 20
129.09209800562269
 30
0.0
 11
55.20665125867643
 21
130.14761168499459
 31
0.0
  0
LINE
  5
13FE
  8
3
 10
56.578343532451207
 20
129.09209800562269
 30
0.0
 11
54.151137579304446
 21
129.09209800562269
 31
0.0
  0
LINE
  5
13FF
  8
3
 10
55.52282985307923
 20
130.14761168499459
 30
0.0
 11
56.578343532451207
 21
129.09209800562269
 31
0.0
  0
LINE
  5
1400
  8
3
 10
55.20665125867643
 20
130.14761168499459
 30
0.0
 11
55.52282985307923
 21
130.14761168499459
 31
0.0
  0
LINE
  5
1401
  8
3
 10
56.651137579304446
 20
129.09209800562269
 30
0.0
 11
57.70665125867643
 21
130.14761168499459
 31
0.0
  0
LINE
  5
1402
  8
3
 10
59.078343532451207
 20
129.09209800562269
 30
0.0
 11
56.651137579304446
 21
129.09209800562269
 31
0.0
  0
LINE
  5
1403
  8
3
 10
58.02282985307923
 20
130.14761168499459
 30
0.0
 11
59.078343532451207
 21
129.09209800562269
 31
0.0
  0
LINE
  5
1404
  8
3
 10
57.70665125867643
 20
130.14761168499459
 30
0.0
 11
58.02282985307923
 21
130.14761168499459
 31
0.0
  0
LINE
  5
1405
  8
3
 10
59.151137579304446
 20
129.09209800562269
 30
0.0
 11
60.20665125867643
 21
130.14761168499459
 31
0.0
  0
LINE
  5
1406
  8
3
 10
61.578343532451207
 20
129.09209800562269
 30
0.0
 11
59.151137579304446
 21
129.09209800562269
 31
0.0
  0
LINE
  5
1407
  8
3
 10
60.52282985307923
 20
130.14761168499459
 30
0.0
 11
61.578343532451207
 21
129.09209800562269
 31
0.0
  0
LINE
  5
1408
  8
3
 10
60.20665125867643
 20
130.14761168499459
 30
0.0
 11
60.52282985307923
 21
130.14761168499459
 31
0.0
  0
LINE
  5
1409
  8
3
 10
61.651137579304446
 20
129.09209800562269
 30
0.0
 11
61.951301971495042
 21
129.3922623978132
 31
0.0
  0
LINE
  5
140A
  8
3
 10
62.421358399501081
 20
129.09209800562269
 30
0.0
 11
61.651137579304446
 21
129.09209800562269
 31
0.0
  0
LINE
  5
140D
  8
3
 10
46.578343532451207
 20
129.09209800562269
 30
0.0
 11
45.808122712254573
 21
129.09209800562269
 31
0.0
  0
LINE
  5
140E
  8
3
 10
46.278179140260619
 20
129.3922623978132
 30
0.0
 11
46.578343532451207
 21
129.09209800562269
 31
0.0
  0
LINE
  5
140F
  8
3
 10
62.70665125867643
 20
128.0365843262507
 30
0.0
 11
61.651137579304446
 21
129.09209800562269
 31
0.0
  0
LINE
  5
1410
  8
3
 10
63.02282985307923
 20
128.0365843262507
 30
0.0
 11
62.70665125867643
 21
128.0365843262507
 31
0.0
  0
LINE
  5
1411
  8
3
 10
63.382654498222017
 20
128.3964089713935
 30
0.0
 11
63.02282985307923
 21
128.0365843262507
 31
0.0
  0
LINE
  5
1413
  8
3
 10
60.20665125867643
 20
128.0365843262507
 30
0.0
 11
59.151137579304446
 21
129.09209800562269
 31
0.0
  0
LINE
  5
1414
  8
3
 10
60.52282985307923
 20
128.0365843262507
 30
0.0
 11
60.20665125867643
 21
128.0365843262507
 31
0.0
  0
LINE
  5
1415
  8
3
 10
61.578343532451207
 20
129.09209800562269
 30
0.0
 11
60.52282985307923
 21
128.0365843262507
 31
0.0
  0
LINE
  5
1416
  8
3
 10
57.70665125867643
 20
128.0365843262507
 30
0.0
 11
56.651137579304446
 21
129.09209800562269
 31
0.0
  0
LINE
  5
1417
  8
3
 10
58.02282985307923
 20
128.0365843262507
 30
0.0
 11
57.70665125867643
 21
128.0365843262507
 31
0.0
  0
LINE
  5
1418
  8
3
 10
59.078343532451207
 20
129.09209800562269
 30
0.0
 11
58.02282985307923
 21
128.0365843262507
 31
0.0
  0
LINE
  5
1419
  8
3
 10
55.20665125867643
 20
128.0365843262507
 30
0.0
 11
54.151137579304446
 21
129.09209800562269
 31
0.0
  0
LINE
  5
141A
  8
3
 10
55.52282985307923
 20
128.0365843262507
 30
0.0
 11
55.20665125867643
 21
128.0365843262507
 31
0.0
  0
LINE
  5
141B
  8
3
 10
56.578343532451207
 20
129.09209800562269
 30
0.0
 11
55.52282985307923
 21
128.0365843262507
 31
0.0
  0
LINE
  5
141C
  8
3
 10
52.70665125867643
 20
128.0365843262507
 30
0.0
 11
51.651137579304446
 21
129.09209800562269
 31
0.0
  0
LINE
  5
141D
  8
3
 10
53.02282985307923
 20
128.0365843262507
 30
0.0
 11
52.70665125867643
 21
128.0365843262507
 31
0.0
  0
LINE
  5
141E
  8
3
 10
54.078343532451207
 20
129.09209800562269
 30
0.0
 11
53.02282985307923
 21
128.0365843262507
 31
0.0
  0
LINE
  5
141F
  8
3
 10
50.20665125867643
 20
128.0365843262507
 30
0.0
 11
49.151137579304446
 21
129.09209800562269
 31
0.0
  0
LINE
  5
1420
  8
3
 10
50.52282985307923
 20
128.0365843262507
 30
0.0
 11
50.20665125867643
 21
128.0365843262507
 31
0.0
  0
LINE
  5
1421
  8
3
 10
51.578343532451207
 20
129.09209800562269
 30
0.0
 11
50.52282985307923
 21
128.0365843262507
 31
0.0
  0
LINE
  5
1422
  8
3
 10
47.70665125867643
 20
128.0365843262507
 30
0.0
 11
46.651137579304439
 21
129.09209800562269
 31
0.0
  0
LINE
  5
1423
  8
3
 10
48.02282985307923
 20
128.0365843262507
 30
0.0
 11
47.70665125867643
 21
128.0365843262507
 31
0.0
  0
LINE
  5
1424
  8
3
 10
49.078343532451207
 20
129.09209800562269
 30
0.0
 11
48.02282985307923
 21
128.0365843262507
 31
0.0
  0
LINE
  5
1425
  8
3
 10
54.151137579304446
 20
131.59209800562269
 30
0.0
 11
54.662371818681457
 21
131.59209800562269
 31
0.0
  0
LINE
  5
1426
  8
3
 10
53.567109293074189
 20
131.59209800562269
 30
0.0
 11
54.078343532451207
 21
131.59209800562269
 31
0.0
  0
LINE
  5
1427
  8
3
 10
58.02282985307923
 20
102.6476116849946
 30
0.0
 11
58.433248350397939
 21
102.2371931876759
 31
0.0
  0
LINE
  5
1428
  8
3
 10
57.70665125867643
 20
102.6476116849946
 30
0.0
 11
58.02282985307923
 21
102.6476116849946
 31
0.0
  0
LINE
  5
1429
  8
3
 10
56.92715154629235
 20
101.86811197261061
 30
0.0
 11
57.70665125867643
 21
102.6476116849946
 31
0.0
  0
LINE
  5
142B
  8
3
 10
55.52282985307923
 20
102.6476116849946
 30
0.0
 11
56.394142843490862
 21
101.77629869458301
 31
0.0
  0
LINE
  5
142C
  8
3
 10
55.20665125867643
 20
102.6476116849946
 30
0.0
 11
55.52282985307923
 21
102.6476116849946
 31
0.0
  0
LINE
  5
142D
  8
3
 10
54.161209558417049
 20
101.6021699847353
 30
0.0
 11
55.20665125867643
 21
102.6476116849946
 31
0.0
  0
LINE
  5
142F
  8
3
 10
53.02282985307923
 20
102.6476116849946
 30
0.0
 11
54.068271553338612
 21
101.6021699847353
 31
0.0
  0
LINE
  5
1430
  8
3
 10
52.70665125867643
 20
102.6476116849946
 30
0.0
 11
53.02282985307923
 21
102.6476116849946
 31
0.0
  0
LINE
  5
1431
  8
3
 10
51.835338268264792
 20
101.77629869458301
 30
0.0
 11
52.70665125867643
 21
102.6476116849946
 31
0.0
  0
LINE
  5
1433
  8
3
 10
58.448618628966607
 20
130.96237310213809
 30
0.0
 11
58.02282985307923
 21
130.5365843262507
 31
0.0
  0
LINE
  5
1435
  8
3
 10
57.70665125867643
 20
130.5365843262507
 30
0.0
 11
56.90245985297534
 21
131.34077573195179
 31
0.0
  0
LINE
  5
1436
  8
3
 10
58.02282985307923
 20
130.5365843262507
 30
0.0
 11
57.70665125867643
 21
130.5365843262507
 31
0.0
  0
LINE
  5
1437
  8
3
 10
51.327021258780348
 20
131.34077573195179
 30
0.0
 11
50.52282985307923
 21
130.5365843262507
 31
0.0
  0
LINE
  5
1439
  8
3
 10
50.20665125867643
 20
130.5365843262507
 30
0.0
 11
49.780862482789047
 21
130.96237310213809
 31
0.0
  0
LINE
  5
143A
  8
3
 10
50.52282985307923
 20
130.5365843262507
 30
0.0
 11
50.20665125867643
 21
130.5365843262507
 31
0.0
  0
LINE
  5
143B
  8
3
 10
55.20665125867643
 20
130.5365843262507
 30
0.0
 11
54.151137579304446
 21
131.59209800562269
 31
0.0
  0
LINE
  5
143C
  8
3
 10
55.52282985307923
 20
130.5365843262507
 30
0.0
 11
55.20665125867643
 21
130.5365843262507
 31
0.0
  0
LINE
  5
143D
  8
3
 10
56.411468702896592
 20
131.4252231760681
 30
0.0
 11
55.52282985307923
 21
130.5365843262507
 31
0.0
  0
LINE
  5
143F
  8
3
 10
50.52282985307923
 20
102.6476116849946
 30
0.0
 11
51.30232956546331
 21
101.86811197261061
 31
0.0
  0
LINE
  5
1440
  8
3
 10
50.20665125867643
 20
102.6476116849946
 30
0.0
 11
50.52282985307923
 21
102.6476116849946
 31
0.0
  0
LINE
  5
1441
  8
3
 10
49.796232761357722
 20
102.2371931876759
 30
0.0
 11
50.20665125867643
 21
102.6476116849946
 31
0.0
  0
LINE
  5
1443
  8
3
 10
47.700584590667091
 20
103.04265099426
 30
0.0
 11
46.651137579304439
 21
104.0920980056227
 31
0.0
  0
LINE
  5
1445
  8
3
 10
48.02282985307923
 20
103.0365843262507
 30
0.0
 11
47.713425174272942
 21
103.0365843262507
 31
0.0
  0
LINE
  5
1446
  8
3
 10
49.078343532451207
 20
104.0920980056227
 30
0.0
 11
48.02282985307923
 21
103.0365843262507
 31
0.0
  0
LINE
  5
1447
  8
3
 10
45.20665125867643
 20
105.5365843262507
 30
0.0
 11
44.151137579304439
 21
106.5920980056227
 31
0.0
  0
LINE
  5
1448
  8
3
 10
45.52282985307923
 20
105.5365843262507
 30
0.0
 11
45.20665125867643
 21
105.5365843262507
 31
0.0
  0
LINE
  5
1449
  8
3
 10
46.578343532451207
 20
106.5920980056227
 30
0.0
 11
45.52282985307923
 21
105.5365843262507
 31
0.0
  0
LINE
  5
144B
  8
3
 10
66.651137579304446
 20
109.0920980056227
 30
0.0
 11
67.607159670952655
 21
110.0481200972709
 31
0.0
  0
LINE
  5
144C
  8
3
 10
42.70665125867643
 20
110.5365843262507
 30
0.0
 11
41.651137579304439
 21
111.5920980056227
 31
0.0
  0
LINE
  5
144D
  8
3
 10
43.02282985307923
 20
110.5365843262507
 30
0.0
 11
42.70665125867643
 21
110.5365843262507
 31
0.0
  0
LINE
  5
144E
  8
3
 10
44.078343532451207
 20
111.5920980056227
 30
0.0
 11
43.02282985307923
 21
110.5365843262507
 31
0.0
  0
LINE
  5
144F
  8
3
 10
42.70665125867643
 20
113.0365843262507
 30
0.0
 11
41.651137579304439
 21
114.0920980056227
 31
0.0
  0
LINE
  5
1450
  8
3
 10
43.02282985307923
 20
113.0365843262507
 30
0.0
 11
42.70665125867643
 21
113.0365843262507
 31
0.0
  0
LINE
  5
1451
  8
3
 10
44.078343532451207
 20
114.0920980056227
 30
0.0
 11
43.02282985307923
 21
113.0365843262507
 31
0.0
  0
LINE
  5
1452
  8
3
 10
40.20665125867643
 20
115.5365843262507
 30
0.0
 11
39.151137579304446
 21
116.5920980056227
 31
0.0
  0
LINE
  5
1453
  8
3
 10
40.52282985307923
 20
115.5365843262507
 30
0.0
 11
40.20665125867643
 21
115.5365843262507
 31
0.0
  0
LINE
  5
1454
  8
3
 10
41.578343532451207
 20
116.5920980056227
 30
0.0
 11
40.52282985307923
 21
115.5365843262507
 31
0.0
  0
LINE
  5
1455
  8
3
 10
42.70665125867643
 20
118.0365843262507
 30
0.0
 11
41.651137579304439
 21
119.0920980056227
 31
0.0
  0
LINE
  5
1456
  8
3
 10
43.02282985307923
 20
118.0365843262507
 30
0.0
 11
42.70665125867643
 21
118.0365843262507
 31
0.0
  0
LINE
  5
1457
  8
3
 10
44.078343532451207
 20
119.0920980056227
 30
0.0
 11
43.02282985307923
 21
118.0365843262507
 31
0.0
  0
LINE
  5
1459
  8
3
 10
40.20665125867643
 20
120.5365843262507
 30
0.0
 11
39.766752662203118
 21
120.976482922724
 31
0.0
  0
LINE
  5
145A
  8
3
 10
40.52282985307923
 20
120.5365843262507
 30
0.0
 11
40.20665125867643
 21
120.5365843262507
 31
0.0
  0
LINE
  5
145B
  8
3
 10
41.578343532451207
 20
121.5920980056227
 30
0.0
 11
40.52282985307923
 21
120.5365843262507
 31
0.0
  0
LINE
  5
145D
  8
3
 10
66.651137579304446
 20
124.0920980056227
 30
0.0
 11
66.940049010243087
 21
124.3810094365613
 31
0.0
  0
LINE
  5
145F
  8
3
 10
42.70665125867643
 20
125.5365843262507
 30
0.0
 11
42.343693860716002
 21
125.8995417242111
 31
0.0
  0
LINE
  5
1460
  8
3
 10
43.02282985307923
 20
125.5365843262507
 30
0.0
 11
42.70665125867643
 21
125.5365843262507
 31
0.0
  0
LINE
  5
1461
  8
3
 10
44.078343532451207
 20
126.5920980056227
 30
0.0
 11
43.02282985307923
 21
125.5365843262507
 31
0.0
  0
LINE
  5
1463
  8
3
 10
45.20665125867643
 20
128.0365843262507
 30
0.0
 11
44.846826613533629
 21
128.3964089713935
 31
0.0
  0
LINE
  5
1464
  8
3
 10
45.52282985307923
 20
128.0365843262507
 30
0.0
 11
45.20665125867643
 21
128.0365843262507
 31
0.0
  0
LINE
  5
1465
  8
3
 10
46.578343532451207
 20
129.09209800562269
 30
0.0
 11
45.52282985307923
 21
128.0365843262507
 31
0.0
  0
LINE
  5
1467
  8
3
 10
52.70665125867643
 20
130.5365843262507
 30
0.0
 11
51.818012408859062
 21
131.4252231760681
 31
0.0
  0
LINE
  5
1468
  8
3
 10
53.02282985307923
 20
130.5365843262507
 30
0.0
 11
52.70665125867643
 21
130.5365843262507
 31
0.0
  0
LINE
  5
1469
  8
3
 10
54.078343532451207
 20
131.59209800562269
 30
0.0
 11
53.02282985307923
 21
130.5365843262507
 31
0.0
  0
LINE
  5
146A
  8
3
 10
40.20665125867643
 20
120.5365843262507
 30
0.0
 11
40.20665125867643
 21
120.1476116849947
 31
0.0
  0
LINE
  5
146C
  8
3
 10
40.20665125867643
 20
115.5365843262507
 30
0.0
 11
40.20665125867643
 21
115.1476116849946
 31
0.0
  0
LINE
  5
146D
  8
3
 10
40.20665125867643
 20
118.0365843262507
 30
0.0
 11
40.20665125867643
 21
117.6476116849946
 31
0.0
  0
LINE
  5
146F
  8
3
 10
40.52282985307923
 20
122.6476116849946
 30
0.0
 11
40.52282985307923
 21
122.94717195689771
 31
0.0
  0
ARC
  5
1470
  8
3
 10
54.114740555919838
 20
116.60209800560369
 30
0.0
 40
15.00000000004608
 50
154.97555282057829
 51
156.23199863955469
  0
LINE
  5
1471
  8
3
 10
40.52282985307923
 20
120.1476116849947
 30
0.0
 11
40.52282985307923
 21
120.5365843262507
 31
0.0
  0
LINE
  5
1472
  8
3
 10
40.52282985307923
 20
117.6476116849946
 30
0.0
 11
40.52282985307923
 21
118.0365843262507
 31
0.0
  0
LINE
  5
1473
  8
3
 10
40.52282985307923
 20
115.1476116849946
 30
0.0
 11
40.52282985307923
 21
115.5365843262507
 31
0.0
  0
LINE
  5
1474
  8
3
 10
40.52282985307923
 20
112.6476116849946
 30
0.0
 11
40.52282985307923
 21
113.0365843262507
 31
0.0
  0
LINE
  5
1475
  8
3
 10
40.20665125867643
 20
113.0365843262507
 30
0.0
 11
40.20665125867643
 21
112.6476116849946
 31
0.0
  0
ARC
  5
1476
  8
3
 10
54.11474055587189
 20
116.60209800561989
 30
0.0
 40
14.99999999999344
 50
203.8515024353718
 51
205.02444717942379
  0
LINE
  5
1477
  8
3
 10
40.52282985307923
 20
110.2570240543476
 30
0.0
 11
40.52282985307923
 21
110.5365843262507
 31
0.0
  0
ARC
  5
1478
  8
3
 10
54.114740555846943
 20
116.6020980056087
 30
0.0
 40
15.0000000000339
 50
23.768001360444551
 51
25.024447179422349
  0
LINE
  5
1479
  8
3
 10
67.70665125867643
 20
122.94717195689771
 30
0.0
 11
67.70665125867643
 21
122.6476116849946
 31
0.0
  0
LINE
  5
147A
  8
3
 10
68.02282985307923
 20
120.1476116849947
 30
0.0
 11
68.02282985307923
 21
120.5365843262507
 31
0.0
  0
LINE
  5
147B
  8
3
 10
67.70665125867643
 20
120.5365843262507
 30
0.0
 11
67.70665125867643
 21
120.1476116849947
 31
0.0
  0
LINE
  5
147C
  8
3
 10
68.02282985307923
 20
117.6476116849946
 30
0.0
 11
68.02282985307923
 21
118.0365843262507
 31
0.0
  0
LINE
  5
147D
  8
3
 10
67.70665125867643
 20
118.0365843262507
 30
0.0
 11
67.70665125867643
 21
117.6476116849946
 31
0.0
  0
LINE
  5
147E
  8
3
 10
68.02282985307923
 20
115.1476116849946
 30
0.0
 11
68.02282985307923
 21
115.5365843262507
 31
0.0
  0
LINE
  5
147F
  8
3
 10
67.70665125867643
 20
115.5365843262507
 30
0.0
 11
67.70665125867643
 21
115.1476116849946
 31
0.0
  0
LINE
  5
1480
  8
3
 10
68.02282985307923
 20
112.6476116849946
 30
0.0
 11
68.02282985307923
 21
113.0365843262507
 31
0.0
  0
LINE
  5
1481
  8
3
 10
67.70665125867643
 20
113.0365843262507
 30
0.0
 11
67.70665125867643
 21
112.6476116849946
 31
0.0
  0
LINE
  5
1485
  8
3
 10
41.61474055587783
 20
108.3105360297341
 30
0.0
 11
41.61474055587783
 21
124.89365998151121
 31
0.0
  0
LINE
  5
1489
  8
3
 10
43.02282985307923
 20
125.1476116849946
 30
0.0
 11
43.02282985307923
 21
125.5365843262507
 31
0.0
  0
LINE
  5
148A
  8
3
 10
42.70665125867643
 20
125.5365843262507
 30
0.0
 11
42.70665125867643
 21
125.1476116849946
 31
0.0
  0
LINE
  5
148B
  8
3
 10
43.02282985307923
 20
122.6476116849946
 30
0.0
 11
43.02282985307923
 21
123.0365843262507
 31
0.0
  0
LINE
  5
148C
  8
3
 10
42.70665125867643
 20
123.0365843262507
 30
0.0
 11
42.70665125867643
 21
122.6476116849946
 31
0.0
  0
LINE
  5
148D
  8
3
 10
43.02282985307923
 20
120.1476116849947
 30
0.0
 11
43.02282985307923
 21
120.5365843262507
 31
0.0
  0
LINE
  5
148E
  8
3
 10
42.70665125867643
 20
120.5365843262507
 30
0.0
 11
42.70665125867643
 21
120.1476116849947
 31
0.0
  0
LINE
  5
148F
  8
3
 10
43.02282985307923
 20
117.6476116849946
 30
0.0
 11
43.02282985307923
 21
118.0365843262507
 31
0.0
  0
LINE
  5
1490
  8
3
 10
42.70665125867643
 20
118.0365843262507
 30
0.0
 11
42.70665125867643
 21
117.6476116849946
 31
0.0
  0
LINE
  5
1491
  8
3
 10
43.02282985307923
 20
115.1476116849946
 30
0.0
 11
43.02282985307923
 21
115.5365843262507
 31
0.0
  0
LINE
  5
1492
  8
3
 10
42.70665125867643
 20
115.5365843262507
 30
0.0
 11
42.70665125867643
 21
115.1476116849946
 31
0.0
  0
LINE
  5
1493
  8
3
 10
43.02282985307923
 20
112.6476116849946
 30
0.0
 11
43.02282985307923
 21
113.0365843262507
 31
0.0
  0
LINE
  5
1494
  8
3
 10
42.70665125867643
 20
113.0365843262507
 30
0.0
 11
42.70665125867643
 21
112.6476116849946
 31
0.0
  0
LINE
  5
1495
  8
3
 10
43.02282985307923
 20
110.1476116849946
 30
0.0
 11
43.02282985307923
 21
110.5365843262507
 31
0.0
  0
LINE
  5
1496
  8
3
 10
42.70665125867643
 20
110.5365843262507
 30
0.0
 11
42.70665125867643
 21
110.1476116849946
 31
0.0
  0
LINE
  5
1497
  8
3
 10
65.20665125867643
 20
108.0365843262507
 30
0.0
 11
65.20665125867643
 21
107.6476116849947
 31
0.0
  0
LINE
  5
1498
  8
3
 10
65.20665125867643
 20
110.5365843262507
 30
0.0
 11
65.20665125867643
 21
110.1476116849946
 31
0.0
  0
LINE
  5
1499
  8
3
 10
65.20665125867643
 20
113.0365843262507
 30
0.0
 11
65.20665125867643
 21
112.6476116849946
 31
0.0
  0
LINE
  5
149A
  8
3
 10
65.20665125867643
 20
115.5365843262507
 30
0.0
 11
65.20665125867643
 21
115.1476116849946
 31
0.0
  0
LINE
  5
149B
  8
3
 10
65.20665125867643
 20
118.0365843262507
 30
0.0
 11
65.20665125867643
 21
117.6476116849946
 31
0.0
  0
LINE
  5
149C
  8
3
 10
65.20665125867643
 20
120.5365843262507
 30
0.0
 11
65.20665125867643
 21
120.1476116849947
 31
0.0
  0
LINE
  5
149D
  8
3
 10
65.20665125867643
 20
123.0365843262507
 30
0.0
 11
65.20665125867643
 21
122.6476116849946
 31
0.0
  0
LINE
  5
149E
  8
3
 10
65.20665125867643
 20
125.5365843262507
 30
0.0
 11
65.20665125867643
 21
125.1476116849946
 31
0.0
  0
LINE
  5
14A0
  8
3
 10
64.11474055587783
 20
105.42175811812371
 30
0.0
 11
64.11474055587783
 21
127.7824378931216
 31
0.0
  0
LINE
  5
14A2
  8
3
 10
65.52282985307923
 20
125.1476116849946
 30
0.0
 11
65.52282985307923
 21
125.5365843262507
 31
0.0
  0
LINE
  5
14A3
  8
3
 10
65.52282985307923
 20
122.6476116849946
 30
0.0
 11
65.52282985307923
 21
123.0365843262507
 31
0.0
  0
LINE
  5
14A4
  8
3
 10
65.52282985307923
 20
120.1476116849947
 30
0.0
 11
65.52282985307923
 21
120.5365843262507
 31
0.0
  0
LINE
  5
14A5
  8
3
 10
65.52282985307923
 20
117.6476116849946
 30
0.0
 11
65.52282985307923
 21
118.0365843262507
 31
0.0
  0
LINE
  5
14A6
  8
3
 10
65.52282985307923
 20
115.1476116849946
 30
0.0
 11
65.52282985307923
 21
115.5365843262507
 31
0.0
  0
LINE
  5
14A7
  8
3
 10
65.52282985307923
 20
112.6476116849946
 30
0.0
 11
65.52282985307923
 21
113.0365843262507
 31
0.0
  0
LINE
  5
14A8
  8
3
 10
65.52282985307923
 20
110.1476116849946
 30
0.0
 11
65.52282985307923
 21
110.5365843262507
 31
0.0
  0
LINE
  5
14A9
  8
3
 10
65.52282985307923
 20
107.6476116849947
 30
0.0
 11
65.52282985307923
 21
108.0365843262507
 31
0.0
  0
LINE
  5
14AA
  8
3
 10
45.52282985307923
 20
127.6476116849946
 30
0.0
 11
45.52282985307923
 21
128.0365843262507
 31
0.0
  0
LINE
  5
14AB
  8
3
 10
45.20665125867643
 20
128.0365843262507
 30
0.0
 11
45.20665125867643
 21
127.6476116849946
 31
0.0
  0
LINE
  5
14AC
  8
3
 10
45.52282985307923
 20
125.1476116849946
 30
0.0
 11
45.52282985307923
 21
125.5365843262507
 31
0.0
  0
LINE
  5
14AD
  8
3
 10
45.20665125867643
 20
125.5365843262507
 30
0.0
 11
45.20665125867643
 21
125.1476116849946
 31
0.0
  0
LINE
  5
14AE
  8
3
 10
45.52282985307923
 20
122.6476116849946
 30
0.0
 11
45.52282985307923
 21
123.0365843262507
 31
0.0
  0
LINE
  5
14AF
  8
3
 10
45.20665125867643
 20
123.0365843262507
 30
0.0
 11
45.20665125867643
 21
122.6476116849946
 31
0.0
  0
LINE
  5
14B0
  8
3
 10
45.52282985307923
 20
120.1476116849947
 30
0.0
 11
45.52282985307923
 21
120.5365843262507
 31
0.0
  0
LINE
  5
14B1
  8
3
 10
45.20665125867643
 20
120.5365843262507
 30
0.0
 11
45.20665125867643
 21
120.1476116849947
 31
0.0
  0
LINE
  5
14B2
  8
3
 10
45.52282985307923
 20
117.6476116849946
 30
0.0
 11
45.52282985307923
 21
118.0365843262507
 31
0.0
  0
LINE
  5
14B3
  8
3
 10
45.20665125867643
 20
118.0365843262507
 30
0.0
 11
45.20665125867643
 21
117.6476116849946
 31
0.0
  0
LINE
  5
14B4
  8
3
 10
45.52282985307923
 20
115.1476116849946
 30
0.0
 11
45.52282985307923
 21
115.5365843262507
 31
0.0
  0
LINE
  5
14B5
  8
3
 10
45.20665125867643
 20
115.5365843262507
 30
0.0
 11
45.20665125867643
 21
115.1476116849946
 31
0.0
  0
LINE
  5
14B6
  8
3
 10
45.52282985307923
 20
112.6476116849946
 30
0.0
 11
45.52282985307923
 21
113.0365843262507
 31
0.0
  0
LINE
  5
14B7
  8
3
 10
45.20665125867643
 20
113.0365843262507
 30
0.0
 11
45.20665125867643
 21
112.6476116849946
 31
0.0
  0
LINE
  5
14B8
  8
3
 10
45.52282985307923
 20
110.1476116849946
 30
0.0
 11
45.52282985307923
 21
110.5365843262507
 31
0.0
  0
LINE
  5
14B9
  8
3
 10
45.20665125867643
 20
110.5365843262507
 30
0.0
 11
45.20665125867643
 21
110.1476116849946
 31
0.0
  0
LINE
  5
14BA
  8
3
 10
45.52282985307923
 20
107.6476116849947
 30
0.0
 11
45.52282985307923
 21
108.0365843262507
 31
0.0
  0
LINE
  5
14BB
  8
3
 10
45.20665125867643
 20
108.0365843262507
 30
0.0
 11
45.20665125867643
 21
107.6476116849947
 31
0.0
  0
LINE
  5
14BC
  8
3
 10
47.70665125867643
 20
105.5365843262507
 30
0.0
 11
47.70665125867643
 21
105.1476116849946
 31
0.0
  0
LINE
  5
14BD
  8
3
 10
47.70665125867643
 20
108.0365843262507
 30
0.0
 11
47.70665125867643
 21
107.6476116849947
 31
0.0
  0
LINE
  5
14BE
  8
3
 10
47.70665125867643
 20
110.5365843262507
 30
0.0
 11
47.70665125867643
 21
110.1476116849946
 31
0.0
  0
LINE
  5
14BF
  8
3
 10
47.70665125867643
 20
113.0365843262507
 30
0.0
 11
47.70665125867643
 21
112.6476116849946
 31
0.0
  0
LINE
  5
14C0
  8
3
 10
47.70665125867643
 20
115.5365843262507
 30
0.0
 11
47.70665125867643
 21
115.1476116849946
 31
0.0
  0
LINE
  5
14C1
  8
3
 10
47.70665125867643
 20
118.0365843262507
 30
0.0
 11
47.70665125867643
 21
117.6476116849946
 31
0.0
  0
LINE
  5
14C2
  8
3
 10
47.70665125867643
 20
120.5365843262507
 30
0.0
 11
47.70665125867643
 21
120.1476116849947
 31
0.0
  0
LINE
  5
14C3
  8
3
 10
47.70665125867643
 20
123.0365843262507
 30
0.0
 11
47.70665125867643
 21
122.6476116849946
 31
0.0
  0
LINE
  5
14C4
  8
3
 10
47.70665125867643
 20
125.5365843262507
 30
0.0
 11
47.70665125867643
 21
125.1476116849946
 31
0.0
  0
LINE
  5
14C5
  8
3
 10
47.70665125867643
 20
128.0365843262507
 30
0.0
 11
47.70665125867643
 21
127.6476116849946
 31
0.0
  0
LINE
  5
14C6
  8
3
 10
47.70665125867643
 20
130.1644131309651
 30
0.0
 11
47.70665125867643
 21
130.14761168499459
 31
0.0
  0
LINE
  5
14C8
  8
3
 10
46.61474055587783
 20
103.6117169488561
 30
0.0
 11
46.61474055587783
 21
129.5924790623892
 31
0.0
  0
LINE
  5
14CA
  8
3
 10
48.02282985307923
 20
130.14761168499459
 30
0.0
 11
48.02282985307923
 21
130.30934513949779
 31
0.0
  0
ARC
  5
14CB
  8
3
 10
54.114740555870348
 20
116.60209800563899
 30
0.0
 40
14.999999999982
 50
113.961793895081
 51
115.29037314672399
  0
LINE
  5
14CC
  8
3
 10
48.02282985307923
 20
127.6476116849946
 30
0.0
 11
48.02282985307923
 21
128.0365843262507
 31
0.0
  0
LINE
  5
14CD
  8
3
 10
48.02282985307923
 20
125.1476116849946
 30
0.0
 11
48.02282985307923
 21
125.5365843262507
 31
0.0
  0
LINE
  5
14CE
  8
3
 10
48.02282985307923
 20
122.6476116849946
 30
0.0
 11
48.02282985307923
 21
123.0365843262507
 31
0.0
  0
LINE
  5
14CF
  8
3
 10
48.02282985307923
 20
120.1476116849947
 30
0.0
 11
48.02282985307923
 21
120.5365843262507
 31
0.0
  0
LINE
  5
14D0
  8
3
 10
48.02282985307923
 20
117.6476116849946
 30
0.0
 11
48.02282985307923
 21
118.0365843262507
 31
0.0
  0
LINE
  5
14D1
  8
3
 10
48.02282985307923
 20
115.1476116849946
 30
0.0
 11
48.02282985307923
 21
115.5365843262507
 31
0.0
  0
LINE
  5
14D2
  8
3
 10
48.02282985307923
 20
112.6476116849946
 30
0.0
 11
48.02282985307923
 21
113.0365843262507
 31
0.0
  0
LINE
  5
14D3
  8
3
 10
48.02282985307923
 20
110.1476116849946
 30
0.0
 11
48.02282985307923
 21
110.5365843262507
 31
0.0
  0
LINE
  5
14D4
  8
3
 10
48.02282985307923
 20
107.6476116849947
 30
0.0
 11
48.02282985307923
 21
108.0365843262507
 31
0.0
  0
ARC
  5
14D5
  8
3
 10
54.114740555877262
 20
116.6020980056214
 30
0.0
 40
14.99999999999863
 50
244.73824077362909
 51
246.038206104919
  0
LINE
  5
14D6
  8
3
 10
48.02282985307923
 20
102.89485087174749
 30
0.0
 11
48.02282985307923
 21
103.0365843262507
 31
0.0
  0
LINE
  5
14D7
  8
3
 10
48.02282985307923
 20
105.1476116849946
 30
0.0
 11
48.02282985307923
 21
105.5365843262507
 31
0.0
  0
LINE
  5
14D9
  8
3
 10
49.11474055587783
 20
102.4599623818917
 30
0.0
 11
49.11474055587783
 21
130.7442336293536
 31
0.0
  0
LINE
  5
14DB
  8
3
 10
60.20665125867643
 20
105.5365843262507
 30
0.0
 11
60.20665125867643
 21
105.1476116849946
 31
0.0
  0
LINE
  5
14DC
  8
3
 10
60.20665125867643
 20
108.0365843262507
 30
0.0
 11
60.20665125867643
 21
107.6476116849947
 31
0.0
  0
LINE
  5
14DD
  8
3
 10
60.20665125867643
 20
110.5365843262507
 30
0.0
 11
60.20665125867643
 21
110.1476116849946
 31
0.0
  0
LINE
  5
14DE
  8
3
 10
60.20665125867643
 20
113.0365843262507
 30
0.0
 11
60.20665125867643
 21
112.6476116849946
 31
0.0
  0
LINE
  5
14DF
  8
3
 10
60.20665125867643
 20
115.5365843262507
 30
0.0
 11
60.20665125867643
 21
115.1476116849946
 31
0.0
  0
LINE
  5
14E0
  8
3
 10
60.20665125867643
 20
118.0365843262507
 30
0.0
 11
60.20665125867643
 21
117.6476116849946
 31
0.0
  0
LINE
  5
14E1
  8
3
 10
60.20665125867643
 20
120.5365843262507
 30
0.0
 11
60.20665125867643
 21
120.1476116849947
 31
0.0
  0
LINE
  5
14E2
  8
3
 10
60.20665125867643
 20
123.0365843262507
 30
0.0
 11
60.20665125867643
 21
122.6476116849946
 31
0.0
  0
LINE
  5
14E3
  8
3
 10
60.20665125867643
 20
125.5365843262507
 30
0.0
 11
60.20665125867643
 21
125.1476116849946
 31
0.0
  0
LINE
  5
14E4
  8
3
 10
60.20665125867643
 20
128.0365843262507
 30
0.0
 11
60.20665125867643
 21
127.6476116849946
 31
0.0
  0
LINE
  5
14E5
  8
3
 10
60.20665125867643
 20
130.30934513949779
 30
0.0
 11
60.20665125867643
 21
130.14761168499459
 31
0.0
  0
LINE
  5
14E7
  8
3
 10
59.11474055587783
 20
102.4599623818917
 30
0.0
 11
59.11474055587783
 21
130.7442336293536
 31
0.0
  0
LINE
  5
14E9
  8
3
 10
60.20665125867643
 20
103.0365843262507
 30
0.0
 11
60.20665125867643
 21
102.89485087174749
 31
0.0
  0
LINE
  5
14EA
  8
3
 10
60.52282985307923
 20
130.14761168499459
 30
0.0
 11
60.52282985307923
 21
130.1644131309651
 31
0.0
  0
ARC
  5
14EB
  8
3
 10
54.11474055589067
 20
116.6020980056508
 30
0.0
 40
14.99999999996909
 50
64.709626853275978
 51
66.038206104920775
  0
LINE
  5
14EC
  8
3
 10
60.52282985307923
 20
127.6476116849946
 30
0.0
 11
60.52282985307923
 21
128.0365843262507
 31
0.0
  0
LINE
  5
14ED
  8
3
 10
60.52282985307923
 20
125.1476116849946
 30
0.0
 11
60.52282985307923
 21
125.5365843262507
 31
0.0
  0
LINE
  5
14EE
  8
3
 10
60.52282985307923
 20
122.6476116849946
 30
0.0
 11
60.52282985307923
 21
123.0365843262507
 31
0.0
  0
LINE
  5
14EF
  8
3
 10
60.52282985307923
 20
120.1476116849947
 30
0.0
 11
60.52282985307923
 21
120.5365843262507
 31
0.0
  0
LINE
  5
14F0
  8
3
 10
60.52282985307923
 20
117.6476116849946
 30
0.0
 11
60.52282985307923
 21
118.0365843262507
 31
0.0
  0
LINE
  5
14F1
  8
3
 10
60.52282985307923
 20
115.1476116849946
 30
0.0
 11
60.52282985307923
 21
115.5365843262507
 31
0.0
  0
LINE
  5
14F2
  8
3
 10
60.52282985307923
 20
112.6476116849946
 30
0.0
 11
60.52282985307923
 21
113.0365843262507
 31
0.0
  0
LINE
  5
14F3
  8
3
 10
60.52282985307923
 20
110.1476116849946
 30
0.0
 11
60.52282985307923
 21
110.5365843262507
 31
0.0
  0
LINE
  5
14F4
  8
3
 10
60.52282985307923
 20
107.6476116849947
 30
0.0
 11
60.52282985307923
 21
108.0365843262507
 31
0.0
  0
LINE
  5
14F5
  8
3
 10
60.52282985307923
 20
105.1476116849946
 30
0.0
 11
60.52282985307923
 21
105.5365843262507
 31
0.0
  0
LINE
  5
14F7
  8
3
 10
61.61474055587783
 20
103.6117169488561
 30
0.0
 11
61.61474055587783
 21
129.5924790623892
 31
0.0
  0
LINE
  5
14F9
  8
3
 10
62.70665125867643
 20
105.5365843262507
 30
0.0
 11
62.70665125867643
 21
105.1476116849946
 31
0.0
  0
LINE
  5
14FA
  8
3
 10
62.70665125867643
 20
108.0365843262507
 30
0.0
 11
62.70665125867643
 21
107.6476116849947
 31
0.0
  0
LINE
  5
14FB
  8
3
 10
62.70665125867643
 20
110.5365843262507
 30
0.0
 11
62.70665125867643
 21
110.1476116849946
 31
0.0
  0
LINE
  5
14FC
  8
3
 10
62.70665125867643
 20
113.0365843262507
 30
0.0
 11
62.70665125867643
 21
112.6476116849946
 31
0.0
  0
LINE
  5
14FD
  8
3
 10
62.70665125867643
 20
115.5365843262507
 30
0.0
 11
62.70665125867643
 21
115.1476116849946
 31
0.0
  0
LINE
  5
14FE
  8
3
 10
62.70665125867643
 20
118.0365843262507
 30
0.0
 11
62.70665125867643
 21
117.6476116849946
 31
0.0
  0
LINE
  5
14FF
  8
3
 10
62.70665125867643
 20
120.5365843262507
 30
0.0
 11
62.70665125867643
 21
120.1476116849947
 31
0.0
  0
LINE
  5
1500
  8
3
 10
62.70665125867643
 20
123.0365843262507
 30
0.0
 11
62.70665125867643
 21
122.6476116849946
 31
0.0
  0
LINE
  5
1501
  8
3
 10
62.70665125867643
 20
125.5365843262507
 30
0.0
 11
62.70665125867643
 21
125.1476116849946
 31
0.0
  0
LINE
  5
1502
  8
3
 10
62.70665125867643
 20
128.0365843262507
 30
0.0
 11
62.70665125867643
 21
127.6476116849946
 31
0.0
  0
LINE
  5
1505
  8
3
 10
63.02282985307923
 20
127.6476116849946
 30
0.0
 11
63.02282985307923
 21
128.0365843262507
 31
0.0
  0
LINE
  5
1506
  8
3
 10
63.02282985307923
 20
125.1476116849946
 30
0.0
 11
63.02282985307923
 21
125.5365843262507
 31
0.0
  0
LINE
  5
1507
  8
3
 10
63.02282985307923
 20
122.6476116849946
 30
0.0
 11
63.02282985307923
 21
123.0365843262507
 31
0.0
  0
LINE
  5
1508
  8
3
 10
63.02282985307923
 20
120.1476116849947
 30
0.0
 11
63.02282985307923
 21
120.5365843262507
 31
0.0
  0
LINE
  5
1509
  8
3
 10
63.02282985307923
 20
117.6476116849946
 30
0.0
 11
63.02282985307923
 21
118.0365843262507
 31
0.0
  0
LINE
  5
150A
  8
3
 10
63.02282985307923
 20
115.1476116849946
 30
0.0
 11
63.02282985307923
 21
115.5365843262507
 31
0.0
  0
LINE
  5
150B
  8
3
 10
63.02282985307923
 20
112.6476116849946
 30
0.0
 11
63.02282985307923
 21
113.0365843262507
 31
0.0
  0
LINE
  5
150C
  8
3
 10
63.02282985307923
 20
110.1476116849946
 30
0.0
 11
63.02282985307923
 21
110.5365843262507
 31
0.0
  0
LINE
  5
150D
  8
3
 10
63.02282985307923
 20
107.6476116849947
 30
0.0
 11
63.02282985307923
 21
108.0365843262507
 31
0.0
  0
LINE
  5
150E
  8
3
 10
63.02282985307923
 20
105.1476116849946
 30
0.0
 11
63.02282985307923
 21
105.5365843262507
 31
0.0
  0
LINE
  5
150F
  8
3
 10
50.52282985307923
 20
130.14761168499459
 30
0.0
 11
50.52282985307923
 21
130.5365843262507
 31
0.0
  0
LINE
  5
1510
  8
3
 10
50.20665125867643
 20
130.5365843262507
 30
0.0
 11
50.20665125867643
 21
130.14761168499459
 31
0.0
  0
LINE
  5
1511
  8
3
 10
50.52282985307923
 20
127.6476116849946
 30
0.0
 11
50.52282985307923
 21
128.0365843262507
 31
0.0
  0
LINE
  5
1512
  8
3
 10
50.20665125867643
 20
128.0365843262507
 30
0.0
 11
50.20665125867643
 21
127.6476116849946
 31
0.0
  0
LINE
  5
1513
  8
3
 10
50.52282985307923
 20
125.1476116849946
 30
0.0
 11
50.52282985307923
 21
125.5365843262507
 31
0.0
  0
LINE
  5
1514
  8
3
 10
50.20665125867643
 20
125.5365843262507
 30
0.0
 11
50.20665125867643
 21
125.1476116849946
 31
0.0
  0
LINE
  5
1515
  8
3
 10
50.52282985307923
 20
122.6476116849946
 30
0.0
 11
50.52282985307923
 21
123.0365843262507
 31
0.0
  0
LINE
  5
1516
  8
3
 10
50.20665125867643
 20
123.0365843262507
 30
0.0
 11
50.20665125867643
 21
122.6476116849946
 31
0.0
  0
LINE
  5
1517
  8
3
 10
50.52282985307923
 20
120.1476116849947
 30
0.0
 11
50.52282985307923
 21
120.5365843262507
 31
0.0
  0
LINE
  5
1518
  8
3
 10
50.20665125867643
 20
120.5365843262507
 30
0.0
 11
50.20665125867643
 21
120.1476116849947
 31
0.0
  0
LINE
  5
1519
  8
3
 10
50.52282985307923
 20
117.6476116849946
 30
0.0
 11
50.52282985307923
 21
118.0365843262507
 31
0.0
  0
LINE
  5
151A
  8
3
 10
50.20665125867643
 20
118.0365843262507
 30
0.0
 11
50.20665125867643
 21
117.6476116849946
 31
0.0
  0
LINE
  5
151B
  8
3
 10
50.52282985307923
 20
115.1476116849946
 30
0.0
 11
50.52282985307923
 21
115.5365843262507
 31
0.0
  0
LINE
  5
151C
  8
3
 10
50.20665125867643
 20
115.5365843262507
 30
0.0
 11
50.20665125867643
 21
115.1476116849946
 31
0.0
  0
LINE
  5
151D
  8
3
 10
50.52282985307923
 20
112.6476116849946
 30
0.0
 11
50.52282985307923
 21
113.0365843262507
 31
0.0
  0
LINE
  5
151E
  8
3
 10
50.20665125867643
 20
113.0365843262507
 30
0.0
 11
50.20665125867643
 21
112.6476116849946
 31
0.0
  0
LINE
  5
151F
  8
3
 10
50.52282985307923
 20
110.1476116849946
 30
0.0
 11
50.52282985307923
 21
110.5365843262507
 31
0.0
  0
LINE
  5
1520
  8
3
 10
50.20665125867643
 20
110.5365843262507
 30
0.0
 11
50.20665125867643
 21
110.1476116849946
 31
0.0
  0
LINE
  5
1521
  8
3
 10
50.52282985307923
 20
107.6476116849947
 30
0.0
 11
50.52282985307923
 21
108.0365843262507
 31
0.0
  0
LINE
  5
1522
  8
3
 10
50.20665125867643
 20
108.0365843262507
 30
0.0
 11
50.20665125867643
 21
107.6476116849947
 31
0.0
  0
LINE
  5
1523
  8
3
 10
50.52282985307923
 20
105.1476116849946
 30
0.0
 11
50.52282985307923
 21
105.5365843262507
 31
0.0
  0
LINE
  5
1524
  8
3
 10
50.20665125867643
 20
105.5365843262507
 30
0.0
 11
50.20665125867643
 21
105.1476116849946
 31
0.0
  0
LINE
  5
1525
  8
3
 10
50.52282985307923
 20
102.6476116849946
 30
0.0
 11
50.52282985307923
 21
103.0365843262507
 31
0.0
  0
LINE
  5
1526
  8
3
 10
50.20665125867643
 20
103.0365843262507
 30
0.0
 11
50.20665125867643
 21
102.6476116849946
 31
0.0
  0
LINE
  5
1529
  8
3
 10
52.70665125867643
 20
103.0365843262507
 30
0.0
 11
52.70665125867643
 21
102.6476116849946
 31
0.0
  0
LINE
  5
152A
  8
3
 10
52.70665125867643
 20
105.5365843262507
 30
0.0
 11
52.70665125867643
 21
105.1476116849946
 31
0.0
  0
LINE
  5
152B
  8
3
 10
52.70665125867643
 20
108.0365843262507
 30
0.0
 11
52.70665125867643
 21
107.6476116849947
 31
0.0
  0
LINE
  5
152C
  8
3
 10
52.70665125867643
 20
110.5365843262507
 30
0.0
 11
52.70665125867643
 21
110.1476116849946
 31
0.0
  0
LINE
  5
152D
  8
3
 10
52.70665125867643
 20
113.0365843262507
 30
0.0
 11
52.70665125867643
 21
112.6476116849946
 31
0.0
  0
LINE
  5
152E
  8
3
 10
52.70665125867643
 20
115.5365843262507
 30
0.0
 11
52.70665125867643
 21
115.1476116849946
 31
0.0
  0
LINE
  5
152F
  8
3
 10
52.70665125867643
 20
118.0365843262507
 30
0.0
 11
52.70665125867643
 21
117.6476116849946
 31
0.0
  0
LINE
  5
1530
  8
3
 10
52.70665125867643
 20
120.5365843262507
 30
0.0
 11
52.70665125867643
 21
120.1476116849947
 31
0.0
  0
LINE
  5
1531
  8
3
 10
52.70665125867643
 20
123.0365843262507
 30
0.0
 11
52.70665125867643
 21
122.6476116849946
 31
0.0
  0
LINE
  5
1532
  8
3
 10
52.70665125867643
 20
125.5365843262507
 30
0.0
 11
52.70665125867643
 21
125.1476116849946
 31
0.0
  0
LINE
  5
1533
  8
3
 10
52.70665125867643
 20
128.0365843262507
 30
0.0
 11
52.70665125867643
 21
127.6476116849946
 31
0.0
  0
LINE
  5
1534
  8
3
 10
52.70665125867643
 20
130.5365843262507
 30
0.0
 11
52.70665125867643
 21
130.14761168499459
 31
0.0
  0
LINE
  5
1536
  8
3
 10
51.61474055587783
 20
101.8118985478736
 30
0.0
 11
51.61474055587783
 21
131.3922974633717
 31
0.0
  0
LINE
  5
1538
  8
3
 10
53.02282985307923
 20
130.14761168499459
 30
0.0
 11
53.02282985307923
 21
130.5365843262507
 31
0.0
  0
LINE
  5
1539
  8
3
 10
53.02282985307923
 20
127.6476116849946
 30
0.0
 11
53.02282985307923
 21
128.0365843262507
 31
0.0
  0
LINE
  5
153A
  8
3
 10
53.02282985307923
 20
125.1476116849946
 30
0.0
 11
53.02282985307923
 21
125.5365843262507
 31
0.0
  0
LINE
  5
153B
  8
3
 10
53.02282985307923
 20
122.6476116849946
 30
0.0
 11
53.02282985307923
 21
123.0365843262507
 31
0.0
  0
LINE
  5
153C
  8
3
 10
53.02282985307923
 20
120.1476116849947
 30
0.0
 11
53.02282985307923
 21
120.5365843262507
 31
0.0
  0
LINE
  5
153D
  8
3
 10
53.02282985307923
 20
117.6476116849946
 30
0.0
 11
53.02282985307923
 21
118.0365843262507
 31
0.0
  0
LINE
  5
153E
  8
3
 10
53.02282985307923
 20
115.1476116849946
 30
0.0
 11
53.02282985307923
 21
115.5365843262507
 31
0.0
  0
LINE
  5
153F
  8
3
 10
53.02282985307923
 20
112.6476116849946
 30
0.0
 11
53.02282985307923
 21
113.0365843262507
 31
0.0
  0
LINE
  5
1540
  8
3
 10
53.02282985307923
 20
110.1476116849946
 30
0.0
 11
53.02282985307923
 21
110.5365843262507
 31
0.0
  0
LINE
  5
1541
  8
3
 10
53.02282985307923
 20
107.6476116849947
 30
0.0
 11
53.02282985307923
 21
108.0365843262507
 31
0.0
  0
LINE
  5
1542
  8
3
 10
53.02282985307923
 20
105.1476116849946
 30
0.0
 11
53.02282985307923
 21
105.5365843262507
 31
0.0
  0
LINE
  5
1543
  8
3
 10
53.02282985307923
 20
102.6476116849946
 30
0.0
 11
53.02282985307923
 21
103.0365843262507
 31
0.0
  0
LINE
  5
1544
  8
3
 10
55.20665125867643
 20
103.0365843262507
 30
0.0
 11
55.20665125867643
 21
102.6476116849946
 31
0.0
  0
LINE
  5
1545
  8
3
 10
55.20665125867643
 20
105.5365843262507
 30
0.0
 11
55.20665125867643
 21
105.1476116849946
 31
0.0
  0
LINE
  5
1546
  8
3
 10
55.20665125867643
 20
108.0365843262507
 30
0.0
 11
55.20665125867643
 21
107.6476116849947
 31
0.0
  0
LINE
  5
1547
  8
3
 10
55.20665125867643
 20
110.5365843262507
 30
0.0
 11
55.20665125867643
 21
110.1476116849946
 31
0.0
  0
LINE
  5
1548
  8
3
 10
55.20665125867643
 20
113.0365843262507
 30
0.0
 11
55.20665125867643
 21
112.6476116849946
 31
0.0
  0
LINE
  5
1549
  8
3
 10
55.20665125867643
 20
115.5365843262507
 30
0.0
 11
55.20665125867643
 21
115.1476116849946
 31
0.0
  0
LINE
  5
154A
  8
3
 10
55.20665125867643
 20
118.0365843262507
 30
0.0
 11
55.20665125867643
 21
117.6476116849946
 31
0.0
  0
LINE
  5
154B
  8
3
 10
55.20665125867643
 20
120.5365843262507
 30
0.0
 11
55.20665125867643
 21
120.1476116849947
 31
0.0
  0
LINE
  5
154C
  8
3
 10
55.20665125867643
 20
123.0365843262507
 30
0.0
 11
55.20665125867643
 21
122.6476116849946
 31
0.0
  0
LINE
  5
154D
  8
3
 10
55.20665125867643
 20
125.5365843262507
 30
0.0
 11
55.20665125867643
 21
125.1476116849946
 31
0.0
  0
LINE
  5
154E
  8
3
 10
55.20665125867643
 20
128.0365843262507
 30
0.0
 11
55.20665125867643
 21
127.6476116849946
 31
0.0
  0
LINE
  5
154F
  8
3
 10
55.20665125867643
 20
130.5365843262507
 30
0.0
 11
55.20665125867643
 21
130.14761168499459
 31
0.0
  0
LINE
  5
1551
  8
3
 10
54.11474055587783
 20
101.60209800562259
 30
0.0
 11
54.11474055587783
 21
131.60209800562271
 31
0.0
  0
LINE
  5
1553
  8
3
 10
55.52282985307923
 20
130.14761168499459
 30
0.0
 11
55.52282985307923
 21
130.5365843262507
 31
0.0
  0
LINE
  5
1554
  8
3
 10
55.52282985307923
 20
127.6476116849946
 30
0.0
 11
55.52282985307923
 21
128.0365843262507
 31
0.0
  0
LINE
  5
1555
  8
3
 10
55.52282985307923
 20
125.1476116849946
 30
0.0
 11
55.52282985307923
 21
125.5365843262507
 31
0.0
  0
LINE
  5
1556
  8
3
 10
55.52282985307923
 20
122.6476116849946
 30
0.0
 11
55.52282985307923
 21
123.0365843262507
 31
0.0
  0
LINE
  5
1557
  8
3
 10
55.52282985307923
 20
120.1476116849947
 30
0.0
 11
55.52282985307923
 21
120.5365843262507
 31
0.0
  0
LINE
  5
1558
  8
3
 10
55.52282985307923
 20
117.6476116849946
 30
0.0
 11
55.52282985307923
 21
118.0365843262507
 31
0.0
  0
LINE
  5
1559
  8
3
 10
55.52282985307923
 20
115.1476116849946
 30
0.0
 11
55.52282985307923
 21
115.5365843262507
 31
0.0
  0
LINE
  5
155A
  8
3
 10
55.52282985307923
 20
112.6476116849946
 30
0.0
 11
55.52282985307923
 21
113.0365843262507
 31
0.0
  0
LINE
  5
155B
  8
3
 10
55.52282985307923
 20
110.1476116849946
 30
0.0
 11
55.52282985307923
 21
110.5365843262507
 31
0.0
  0
LINE
  5
155C
  8
3
 10
55.52282985307923
 20
107.6476116849947
 30
0.0
 11
55.52282985307923
 21
108.0365843262507
 31
0.0
  0
LINE
  5
155D
  8
3
 10
55.52282985307923
 20
105.1476116849946
 30
0.0
 11
55.52282985307923
 21
105.5365843262507
 31
0.0
  0
LINE
  5
155E
  8
3
 10
55.52282985307923
 20
102.6476116849946
 30
0.0
 11
55.52282985307923
 21
103.0365843262507
 31
0.0
  0
LINE
  5
155F
  8
3
 10
58.02282985307923
 20
130.14761168499459
 30
0.0
 11
58.02282985307923
 21
130.5365843262507
 31
0.0
  0
LINE
  5
1560
  8
3
 10
57.70665125867643
 20
130.5365843262507
 30
0.0
 11
57.70665125867643
 21
130.14761168499459
 31
0.0
  0
LINE
  5
1561
  8
3
 10
58.02282985307923
 20
127.6476116849946
 30
0.0
 11
58.02282985307923
 21
128.0365843262507
 31
0.0
  0
LINE
  5
1562
  8
3
 10
57.70665125867643
 20
128.0365843262507
 30
0.0
 11
57.70665125867643
 21
127.6476116849946
 31
0.0
  0
LINE
  5
1563
  8
3
 10
58.02282985307923
 20
125.1476116849946
 30
0.0
 11
58.02282985307923
 21
125.5365843262507
 31
0.0
  0
LINE
  5
1564
  8
3
 10
57.70665125867643
 20
125.5365843262507
 30
0.0
 11
57.70665125867643
 21
125.1476116849946
 31
0.0
  0
LINE
  5
1565
  8
3
 10
58.02282985307923
 20
122.6476116849946
 30
0.0
 11
58.02282985307923
 21
123.0365843262507
 31
0.0
  0
LINE
  5
1566
  8
3
 10
57.70665125867643
 20
123.0365843262507
 30
0.0
 11
57.70665125867643
 21
122.6476116849946
 31
0.0
  0
LINE
  5
1567
  8
3
 10
58.02282985307923
 20
120.1476116849947
 30
0.0
 11
58.02282985307923
 21
120.5365843262507
 31
0.0
  0
LINE
  5
1568
  8
3
 10
57.70665125867643
 20
120.5365843262507
 30
0.0
 11
57.70665125867643
 21
120.1476116849947
 31
0.0
  0
LINE
  5
1569
  8
3
 10
58.02282985307923
 20
117.6476116849946
 30
0.0
 11
58.02282985307923
 21
118.0365843262507
 31
0.0
  0
LINE
  5
156A
  8
3
 10
57.70665125867643
 20
118.0365843262507
 30
0.0
 11
57.70665125867643
 21
117.6476116849946
 31
0.0
  0
LINE
  5
156B
  8
3
 10
58.02282985307923
 20
115.1476116849946
 30
0.0
 11
58.02282985307923
 21
115.5365843262507
 31
0.0
  0
LINE
  5
156C
  8
3
 10
57.70665125867643
 20
115.5365843262507
 30
0.0
 11
57.70665125867643
 21
115.1476116849946
 31
0.0
  0
LINE
  5
156D
  8
3
 10
58.02282985307923
 20
112.6476116849946
 30
0.0
 11
58.02282985307923
 21
113.0365843262507
 31
0.0
  0
LINE
  5
156E
  8
3
 10
57.70665125867643
 20
113.0365843262507
 30
0.0
 11
57.70665125867643
 21
112.6476116849946
 31
0.0
  0
LINE
  5
156F
  8
3
 10
58.02282985307923
 20
110.1476116849946
 30
0.0
 11
58.02282985307923
 21
110.5365843262507
 31
0.0
  0
LINE
  5
1570
  8
3
 10
57.70665125867643
 20
110.5365843262507
 30
0.0
 11
57.70665125867643
 21
110.1476116849946
 31
0.0
  0
LINE
  5
1571
  8
3
 10
58.02282985307923
 20
107.6476116849947
 30
0.0
 11
58.02282985307923
 21
108.0365843262507
 31
0.0
  0
LINE
  5
1572
  8
3
 10
57.70665125867643
 20
108.0365843262507
 30
0.0
 11
57.70665125867643
 21
107.6476116849947
 31
0.0
  0
LINE
  5
1573
  8
3
 10
58.02282985307923
 20
105.1476116849946
 30
0.0
 11
58.02282985307923
 21
105.5365843262507
 31
0.0
  0
LINE
  5
1574
  8
3
 10
57.70665125867643
 20
105.5365843262507
 30
0.0
 11
57.70665125867643
 21
105.1476116849946
 31
0.0
  0
LINE
  5
1575
  8
3
 10
58.02282985307923
 20
102.6476116849946
 30
0.0
 11
58.02282985307923
 21
103.0365843262507
 31
0.0
  0
LINE
  5
1576
  8
3
 10
57.70665125867643
 20
103.0365843262507
 30
0.0
 11
57.70665125867643
 21
102.6476116849946
 31
0.0
  0
LINE
  5
1578
  8
3
 10
56.61474055587783
 20
101.8118985478736
 30
0.0
 11
56.61474055587783
 21
131.3922974633717
 31
0.0
  0
LINE
  5
157A
  8
3
 10
42.70665125867643
 20
108.0365843262507
 30
0.0
 11
42.70665125867643
 21
107.6476116849947
 31
0.0
  0
LINE
  5
157D
  8
3
 10
45.20665125867643
 20
105.5365843262507
 30
0.0
 11
45.20665125867643
 21
105.1476116849946
 31
0.0
  0
LINE
  5
157F
  8
3
 10
44.11474055587783
 20
105.42175811812371
 30
0.0
 11
44.11474055587783
 21
127.7824378931216
 31
0.0
  0
LINE
  5
1582
  8
3
 10
67.70665125867643
 20
110.5365843262507
 30
0.0
 11
67.70665125867643
 21
110.2570240543476
 31
0.0
  0
LINE
  5
1585
  8
3
 10
66.61474055587783
 20
108.3105360297341
 30
0.0
 11
66.61474055587783
 21
124.89365998151121
 31
0.0
  0
LINE
  5
158A
  8
3
 10
43.02282985307923
 20
107.6476116849947
 30
0.0
 11
43.02282985307923
 21
108.0365843262507
 31
0.0
  0
LINE
  5
158D
  8
3
 10
45.52282985307923
 20
105.1476116849946
 30
0.0
 11
45.52282985307923
 21
105.5365843262507
 31
0.0
  0
ARC
  5
159B
  8
3
 10
54.114740555942433
 20
116.60209800559331
 30
0.0
 40
14.999999999929059
 50
334.97555282057328
 51
336.1484975646303
  0
ARC
  5
159C
  8
3
 10
54.114740555872572
 20
116.6020980056343
 30
0.0
 40
15.00000000001279
 50
293.96179389508097
 51
295.26175922636941
  0
LINE
  5
15A3
  8
0
 10
54.114740555877802
 20
133.92260608131139
 30
0.0
 11
39.11474055587783
 21
125.262352043467
 31
0.0
  0
LINE
  5
15A7
  8
0
 10
39.11474055587783
 20
125.262352043467
 30
0.0
 11
39.11474055587783
 21
107.9218439677783
 31
0.0
  0
LINE
  5
15AB
  8
0
 10
69.114740555877873
 20
125.2623520434671
 30
0.0
 11
54.114740555877802
 21
133.9226060813115
 31
0.0
  0
LINE
  5
15AF
  8
0
 10
69.11474055587783
 20
107.9218439677782
 30
0.0
 11
69.114740555877859
 21
125.2623520434671
 31
0.0
  0
LINE
  5
169E
  8
1
 10
54.11474055587783
 20
61.024687382204903
 30
0.0
 11
54.11474055587783
 21
12.02468738220489
 31
0.0
  0
LINE
  5
16A0
  8
3
 10
47.341740555877799
 20
17.024687382204888
 30
0.0
 11
47.341740555877799
 21
33.151687382204919
 31
0.0
  0
LINE
  5
16A3
  8
3
 10
60.887740555877798
 20
17.024687382204888
 30
0.0
 11
60.887740555877834
 21
33.151687382204919
 31
0.0
  0
LINE
  5
16B4
  8
0
 10
64.11474055587783
 20
53.024687382204831
 30
0.0
 11
65.206651258676402
 21
56.024687382204888
 31
0.0
  0
LINE
  5
16B6
  8
0
 10
65.522829853079202
 20
56.024687382204888
 30
0.0
 11
66.61474055587783
 21
53.024687382204903
 31
0.0
  0
LINE
  5
16B7
  8
0
 10
65.206651258676402
 20
56.024687382204888
 30
0.0
 11
65.522829853079202
 21
56.024687382204888
 31
0.0
  0
LINE
  5
16BD
  8
0
 10
40.522829853079202
 20
56.024687382204888
 30
0.0
 11
41.614740555877802
 21
53.02468738220486
 31
0.0
  0
LINE
  5
16C6
  8
0
 10
68.022829853079202
 20
56.024687382204888
 30
0.0
 11
69.114740555877802
 21
53.024687382204888
 31
0.0
  0
LINE
  5
16C7
  8
0
 10
39.114740555877802
 20
53.024687382204888
 30
0.0
 11
40.206651258676402
 21
56.024687382204888
 31
0.0
  0
LINE
  5
1713
  8
0
 10
66.614740555877802
 20
53.024687382204881
 30
0.0
 11
67.70665125867643
 21
56.024687382204888
 31
0.0
  0
LINE
  5
171F
  8
0
 10
40.206651258676402
 20
56.024687382204888
 30
0.0
 11
40.522829853079202
 21
56.024687382204888
 31
0.0
  0
LINE
  5
1756
  8
0
 10
67.706651258676402
 20
56.024687382204888
 30
0.0
 11
68.022829853079202
 21
56.024687382204888
 31
0.0
  0
LINE
  5
1758
  8
0
 10
54.114740555877802
 20
51.236205774125111
 30
0.0
 11
54.114740555877802
 21
36.024687382204888
 31
0.0
  0
POLYLINE
  5
1759
  8
0
 66
     1
 10
0.0
 20
0.0
 30
0.0
  0
VERTEX
  5
1F4B
  8
0
 10
51.436565936374279
 20
52.024687382204881
 30
0.0
  0
VERTEX
  5
1F4C
  8
0
 10
51.51630166428415
 20
52.024340188351303
 30
0.0
  0
VERTEX
  5
1F4D
  8
0
 10
51.676604208513879
 20
52.02144656935792
 30
0.0
  0
VERTEX
  5
1F4E
  8
0
 10
51.837372241869502
 20
52.015376077270219
 30
0.0
  0
VERTEX
  5
1F4F
  8
0
 10
51.917690724124242
 20
52.011064735324581
 30
0.0
  0
VERTEX
  5
1F50
  8
0
 10
51.997838390671717
 20
52.005861712282609
 30
0.0
  0
VERTEX
  5
1F51
  8
0
 10
52.157238032696029
 20
51.992672929198577
 30
0.0
  0
VERTEX
  5
1F52
  8
0
 10
52.314801972515909
 20
51.97562369689205
 30
0.0
  0
VERTEX
  5
1F53
  8
0
 10
52.469759693376488
 20
51.954580676607911
 30
0.0
  0
VERTEX
  5
1F54
  8
0
 10
52.621344876548761
 20
51.929471296480031
 30
0.0
  0
VERTEX
  5
1F55
  8
0
 10
52.768803191002398
 20
51.900291350384947
 30
0.0
  0
VERTEX
  5
1F56
  8
0
 10
52.841372979817123
 20
51.884050066814702
 30
0.0
  0
VERTEX
  5
1F57
  8
0
 10
52.915613053996388
 20
51.866052004078362
 30
0.0
  0
VERTEX
  5
1F58
  8
0
 10
53.06799097815508
 20
51.824355305582628
 30
0.0
  0
VERTEX
  5
1F59
  8
0
 10
53.222326476057837
 20
51.77482352652742
 30
0.0
  0
VERTEX
  5
1F5A
  8
0
 10
53.374821236246618
 20
51.717494311398738
 30
0.0
  0
VERTEX
  5
1F5B
  8
0
 10
53.521803148727876
 20
51.652878943157482
 30
0.0
  0
VERTEX
  5
1F5C
  8
0
 10
53.659747989732523
 20
51.582112841014457
 30
0.0
  0
VERTEX
  5
1F5D
  8
0
 10
53.727066298071797
 20
51.543326187260107
 30
0.0
  0
VERTEX
  5
1F5E
  8
0
 10
53.738448703921648
 20
51.536456498314898
 30
0.0
  0
VERTEX
  5
1F5F
  8
0
 10
53.761297352601531
 20
51.5223768060468
 30
0.0
  0
VERTEX
  5
1F60
  8
0
 10
53.784217022727233
 20
51.507849868351158
 30
0.0
  0
VERTEX
  5
1F61
  8
0
 10
53.795688320697991
 20
51.500421409442481
 30
0.0
  0
VERTEX
  5
1F62
  8
0
 10
53.807159240776173
 20
51.492884570893231
 30
0.0
  0
VERTEX
  5
1F63
  8
0
 10
53.830076135504498
 20
51.47749109390044
 30
0.0
  0
VERTEX
  5
1F64
  8
0
 10
53.852920560499712
 20
51.461680973230102
 30
0.0
  0
VERTEX
  5
1F65
  8
0
 10
53.875646231775079
 20
51.44546714777961
 30
0.0
  0
VERTEX
  5
1F66
  8
0
 10
53.898207882679152
 20
51.428863988848647
 30
0.0
  0
VERTEX
  5
1F67
  8
0
 10
53.920561539882698
 20
51.411887227787837
 30
0.0
  0
VERTEX
  5
1F68
  8
0
 10
53.93164702108092
 20
51.403264033625369
 30
0.0
  0
VERTEX
  5
1F69
  8
0
 10
53.942664534133847
 20
51.39455406712375
 30
0.0
  0
VERTEX
  5
1F6A
  8
0
 10
53.964474682440937
 20
51.376883983925708
 30
0.0
  0
VERTEX
  5
1F6B
  8
0
 10
53.985950559739528
 20
51.358898756334803
 30
0.0
  0
VERTEX
  5
1F6C
  8
0
 10
54.00705173285769
 20
51.340622509227558
 30
0.0
  0
VERTEX
  5
1F6D
  8
0
 10
54.027738990195701
 20
51.322081753448373
 30
0.0
  0
VERTEX
  5
1F6E
  8
0
 10
54.047974580542103
 20
51.303305404261287
 30
0.0
  0
VERTEX
  5
1F6F
  8
0
 10
54.05791166411489
 20
51.293838573781898
 30
0.0
  0
VERTEX
  5
1F70
  8
0
 10
54.067722463971137
 20
51.284324770837131
 30
0.0
  0
VERTEX
  5
1F71
  8
0
 10
54.086948577695409
 20
51.265173506614047
 30
0.0
  0
VERTEX
  5
1F72
  8
0
 10
54.105621119733399
 20
51.245887507901493
 30
0.0
  0
VERTEX
  5
1F73
  8
0
 10
54.114740555877802
 20
51.236205774125111
 30
0.0
  0
SEQEND
  5
1F74
  8
0
  0
POLYLINE
  5
175A
  8
0
 66
     1
 10
0.0
 20
0.0
 30
0.0
  0
VERTEX
  5
1F75
  8
0
 10
39.114740555877802
 20
51.236205774125096
 30
0.0
  0
VERTEX
  5
1F76
  8
0
 10
39.123859992022197
 20
51.245887507901493
 30
0.0
  0
VERTEX
  5
1F77
  8
0
 10
39.142532534060201
 20
51.265173506614062
 30
0.0
  0
VERTEX
  5
1F78
  8
0
 10
39.161758647784502
 20
51.284324770837159
 30
0.0
  0
VERTEX
  5
1F79
  8
0
 10
39.171569447640771
 20
51.29383857378194
 30
0.0
  0
VERTEX
  5
1F7A
  8
0
 10
39.181506531213557
 20
51.303305404261351
 30
0.0
  0
VERTEX
  5
1F7B
  8
0
 10
39.201742121559988
 20
51.322081753448451
 30
0.0
  0
VERTEX
  5
1F7C
  8
0
 10
39.222429378898028
 20
51.340622509227671
 30
0.0
  0
VERTEX
  5
1F7D
  8
0
 10
39.243530552016239
 20
51.358898756334924
 30
0.0
  0
VERTEX
  5
1F7E
  8
0
 10
39.265006429314838
 20
51.37688398392585
 30
0.0
  0
VERTEX
  5
1F7F
  8
0
 10
39.286816577621948
 20
51.394554067123899
 30
0.0
  0
VERTEX
  5
1F80
  8
0
 10
39.297834090674883
 20
51.403264033625533
 30
0.0
  0
VERTEX
  5
1F81
  8
0
 10
39.308919571873133
 20
51.411887227788
 30
0.0
  0
VERTEX
  5
1F82
  8
0
 10
39.331273229076658
 20
51.428863988848818
 30
0.0
  0
VERTEX
  5
1F83
  8
0
 10
39.353834879980717
 20
51.445467147779773
 30
0.0
  0
VERTEX
  5
1F84
  8
0
 10
39.376560551256119
 20
51.461680973230237
 30
0.0
  0
VERTEX
  5
1F85
  8
0
 10
39.399404976251297
 20
51.477491093900582
 30
0.0
  0
VERTEX
  5
1F86
  8
0
 10
39.422321870979658
 20
51.492884570893366
 30
0.0
  0
VERTEX
  5
1F87
  8
0
 10
39.433792791057812
 20
51.500421409442609
 30
0.0
  0
VERTEX
  5
1F88
  8
0
 10
39.445264089028598
 20
51.507849868351293
 30
0.0
  0
VERTEX
  5
1F89
  8
0
 10
39.468183759154272
 20
51.522376806046928
 30
0.0
  0
VERTEX
  5
1F8A
  8
0
 10
39.491032407834147
 20
51.536456498315019
 30
0.0
  0
VERTEX
  5
1F8B
  8
0
 10
39.502414813683998
 20
51.543326187260227
 30
0.0
  0
VERTEX
  5
1F8C
  8
0
 10
39.569733122023251
 20
51.582112841014549
 30
0.0
  0
VERTEX
  5
1F8D
  8
0
 10
39.707677963027891
 20
51.65287894315756
 30
0.0
  0
VERTEX
  5
1F8E
  8
0
 10
39.854659875509157
 20
51.717494311398809
 30
0.0
  0
VERTEX
  5
1F8F
  8
0
 10
40.007154635697923
 20
51.774823526527491
 30
0.0
  0
VERTEX
  5
1F90
  8
0
 10
40.161490133600687
 20
51.824355305582678
 30
0.0
  0
VERTEX
  5
1F91
  8
0
 10
40.31386805775935
 20
51.866052004078377
 30
0.0
  0
VERTEX
  5
1F92
  8
0
 10
40.388108131938587
 20
51.884050066814737
 30
0.0
  0
VERTEX
  5
1F93
  8
0
 10
40.460677920753341
 20
51.900291350384968
 30
0.0
  0
VERTEX
  5
1F94
  8
0
 10
40.608136235206949
 20
51.929471296480052
 30
0.0
  0
VERTEX
  5
1F95
  8
0
 10
40.7597214183792
 20
51.954580676607911
 30
0.0
  0
VERTEX
  5
1F96
  8
0
 10
40.91467913923978
 20
51.975623696892058
 30
0.0
  0
VERTEX
  5
1F97
  8
0
 10
41.072243079059632
 20
51.992672929198591
 30
0.0
  0
VERTEX
  5
1F98
  8
0
 10
41.231642721083936
 20
52.005861712282609
 30
0.0
  0
VERTEX
  5
1F99
  8
0
 10
41.311790387631419
 20
52.011064735324581
 30
0.0
  0
VERTEX
  5
1F9A
  8
0
 10
41.392108869886158
 20
52.015376077270219
 30
0.0
  0
VERTEX
  5
1F9B
  8
0
 10
41.552876903241753
 20
52.02144656935792
 30
0.0
  0
VERTEX
  5
1F9C
  8
0
 10
41.71317944747144
 20
52.024340188351303
 30
0.0
  0
VERTEX
  5
1F9D
  8
0
 10
41.792915175381317
 20
52.024687382204881
 30
0.0
  0
SEQEND
  5
1F9E
  8
0
  0
LINE
  5
175B
  8
0
 10
39.114740555877802
 20
53.024687382204888
 30
0.0
 11
39.114740555877802
 21
36.024687382204888
 31
0.0
  0
LINE
  5
1764
  8
0
 10
69.114740555877802
 20
53.024687382204888
 30
0.0
 11
69.114740555877802
 21
36.024687382204888
 31
0.0
  0
LINE
  5
1765
  8
0
 10
69.114740555877802
 20
36.024687382204888
 30
0.0
 11
39.114740555877802
 21
36.024687382204888
 31
0.0
  0
POLYLINE
  5
1766
  8
0
 66
     1
 10
0.0
 20
0.0
 30
0.0
  0
VERTEX
  5
1F9F
  8
0
 10
66.436565936374279
 20
52.024687382204881
 30
0.0
  0
VERTEX
  5
1FA0
  8
0
 10
66.516301664284157
 20
52.024340188351303
 30
0.0
  0
VERTEX
  5
1FA1
  8
0
 10
66.676604208513879
 20
52.02144656935792
 30
0.0
  0
VERTEX
  5
1FA2
  8
0
 10
66.837372241869502
 20
52.015376077270219
 30
0.0
  0
VERTEX
  5
1FA3
  8
0
 10
66.917690724124242
 20
52.011064735324581
 30
0.0
  0
VERTEX
  5
1FA4
  8
0
 10
66.997838390671689
 20
52.005861712282609
 30
0.0
  0
VERTEX
  5
1FA5
  8
0
 10
67.157238032696029
 20
51.992672929198577
 30
0.0
  0
VERTEX
  5
1FA6
  8
0
 10
67.314801972515909
 20
51.97562369689205
 30
0.0
  0
VERTEX
  5
1FA7
  8
0
 10
67.469759693376488
 20
51.954580676607911
 30
0.0
  0
VERTEX
  5
1FA8
  8
0
 10
67.621344876548761
 20
51.929471296480031
 30
0.0
  0
VERTEX
  5
1FA9
  8
0
 10
67.768803191002405
 20
51.900291350384947
 30
0.0
  0
VERTEX
  5
1FAA
  8
0
 10
67.841372979817123
 20
51.884050066814702
 30
0.0
  0
VERTEX
  5
1FAB
  8
0
 10
67.915613053996395
 20
51.866052004078362
 30
0.0
  0
VERTEX
  5
1FAC
  8
0
 10
68.06799097815508
 20
51.824355305582628
 30
0.0
  0
VERTEX
  5
1FAD
  8
0
 10
68.222326476057845
 20
51.774823526527427
 30
0.0
  0
VERTEX
  5
1FAE
  8
0
 10
68.374821236246618
 20
51.717494311398738
 30
0.0
  0
VERTEX
  5
1FAF
  8
0
 10
68.521803148727884
 20
51.652878943157468
 30
0.0
  0
VERTEX
  5
1FB0
  8
0
 10
68.659747989732523
 20
51.582112841014457
 30
0.0
  0
VERTEX
  5
1FB1
  8
0
 10
68.727066298071804
 20
51.543326187260107
 30
0.0
  0
VERTEX
  5
1FB2
  8
0
 10
68.738448703921648
 20
51.536456498314898
 30
0.0
  0
VERTEX
  5
1FB3
  8
0
 10
68.761297352601531
 20
51.5223768060468
 30
0.0
  0
VERTEX
  5
1FB4
  8
0
 10
68.784217022727205
 20
51.507849868351158
 30
0.0
  0
VERTEX
  5
1FB5
  8
0
 10
68.795688320697991
 20
51.500421409442481
 30
0.0
  0
VERTEX
  5
1FB6
  8
0
 10
68.807159240776173
 20
51.492884570893231
 30
0.0
  0
VERTEX
  5
1FB7
  8
0
 10
68.830076135504498
 20
51.47749109390044
 30
0.0
  0
VERTEX
  5
1FB8
  8
0
 10
68.852920560499712
 20
51.461680973230088
 30
0.0
  0
VERTEX
  5
1FB9
  8
0
 10
68.875646231775079
 20
51.44546714777961
 30
0.0
  0
VERTEX
  5
1FBA
  8
0
 10
68.898207882679145
 20
51.428863988848647
 30
0.0
  0
VERTEX
  5
1FBB
  8
0
 10
68.920561539882698
 20
51.411887227787837
 30
0.0
  0
VERTEX
  5
1FBC
  8
0
 10
68.93164702108092
 20
51.403264033625369
 30
0.0
  0
VERTEX
  5
1FBD
  8
0
 10
68.942664534133854
 20
51.39455406712375
 30
0.0
  0
VERTEX
  5
1FBE
  8
0
 10
68.964474682440937
 20
51.376883983925708
 30
0.0
  0
VERTEX
  5
1FBF
  8
0
 10
68.985950559739535
 20
51.358898756334803
 30
0.0
  0
VERTEX
  5
1FC0
  8
0
 10
69.00705173285769
 20
51.340622509227558
 30
0.0
  0
VERTEX
  5
1FC1
  8
0
 10
69.027738990195701
 20
51.322081753448373
 30
0.0
  0
VERTEX
  5
1FC2
  8
0
 10
69.047974580542075
 20
51.303305404261287
 30
0.0
  0
VERTEX
  5
1FC3
  8
0
 10
69.057911664114883
 20
51.293838573781898
 30
0.0
  0
VERTEX
  5
1FC4
  8
0
 10
69.067722463971137
 20
51.284324770837131
 30
0.0
  0
VERTEX
  5
1FC5
  8
0
 10
69.086948577695409
 20
51.265173506614047
 30
0.0
  0
VERTEX
  5
1FC6
  8
0
 10
69.105621119733399
 20
51.245887507901493
 30
0.0
  0
VERTEX
  5
1FC7
  8
0
 10
69.114740555877802
 20
51.236205774125096
 30
0.0
  0
SEQEND
  5
1FC8
  8
0
  0
POLYLINE
  5
1767
  8
0
 66
     1
 10
0.0
 20
0.0
 30
0.0
  0
VERTEX
  5
1FC9
  8
0
 10
54.114740555877802
 20
51.236205774125111
 30
0.0
  0
VERTEX
  5
1FCA
  8
0
 10
54.123859992022197
 20
51.245887507901493
 30
0.0
  0
VERTEX
  5
1FCB
  8
0
 10
54.142532534060223
 20
51.265173506614062
 30
0.0
  0
VERTEX
  5
1FCC
  8
0
 10
54.161758647784488
 20
51.284324770837159
 30
0.0
  0
VERTEX
  5
1FCD
  8
0
 10
54.171569447640771
 20
51.293838573781947
 30
0.0
  0
VERTEX
  5
1FCE
  8
0
 10
54.181506531213579
 20
51.303305404261359
 30
0.0
  0
VERTEX
  5
1FCF
  8
0
 10
54.201742121559981
 20
51.322081753448458
 30
0.0
  0
VERTEX
  5
1FD0
  8
0
 10
54.222429378898021
 20
51.340622509227671
 30
0.0
  0
VERTEX
  5
1FD1
  8
0
 10
54.243530552016239
 20
51.358898756334931
 30
0.0
  0
VERTEX
  5
1FD2
  8
0
 10
54.26500642931483
 20
51.376883983925858
 30
0.0
  0
VERTEX
  5
1FD3
  8
0
 10
54.286816577621948
 20
51.394554067123913
 30
0.0
  0
VERTEX
  5
1FD4
  8
0
 10
54.297834090674883
 20
51.403264033625533
 30
0.0
  0
VERTEX
  5
1FD5
  8
0
 10
54.308919571873133
 20
51.411887227788007
 30
0.0
  0
VERTEX
  5
1FD6
  8
0
 10
54.331273229076693
 20
51.428863988848818
 30
0.0
  0
VERTEX
  5
1FD7
  8
0
 10
54.353834879980717
 20
51.445467147779773
 30
0.0
  0
VERTEX
  5
1FD8
  8
0
 10
54.376560551256119
 20
51.461680973230251
 30
0.0
  0
VERTEX
  5
1FD9
  8
0
 10
54.399404976251333
 20
51.477491093900589
 30
0.0
  0
VERTEX
  5
1FDA
  8
0
 10
54.422321870979658
 20
51.492884570893366
 30
0.0
  0
VERTEX
  5
1FDB
  8
0
 10
54.43379279105784
 20
51.500421409442609
 30
0.0
  0
VERTEX
  5
1FDC
  8
0
 10
54.445264089028591
 20
51.507849868351293
 30
0.0
  0
VERTEX
  5
1FDD
  8
0
 10
54.4681837591543
 20
51.522376806046928
 30
0.0
  0
VERTEX
  5
1FDE
  8
0
 10
54.491032407834147
 20
51.536456498315033
 30
0.0
  0
VERTEX
  5
1FDF
  8
0
 10
54.502414813683998
 20
51.543326187260227
 30
0.0
  0
VERTEX
  5
1FE0
  8
0
 10
54.56973312202328
 20
51.582112841014563
 30
0.0
  0
VERTEX
  5
1FE1
  8
0
 10
54.707677963027891
 20
51.65287894315756
 30
0.0
  0
VERTEX
  5
1FE2
  8
0
 10
54.854659875509157
 20
51.717494311398823
 30
0.0
  0
VERTEX
  5
1FE3
  8
0
 10
55.00715463569793
 20
51.774823526527499
 30
0.0
  0
VERTEX
  5
1FE4
  8
0
 10
55.161490133600687
 20
51.824355305582678
 30
0.0
  0
VERTEX
  5
1FE5
  8
0
 10
55.31386805775935
 20
51.866052004078391
 30
0.0
  0
VERTEX
  5
1FE6
  8
0
 10
55.388108131938587
 20
51.884050066814737
 30
0.0
  0
VERTEX
  5
1FE7
  8
0
 10
55.460677920753341
 20
51.900291350384983
 30
0.0
  0
VERTEX
  5
1FE8
  8
0
 10
55.608136235206949
 20
51.929471296480052
 30
0.0
  0
VERTEX
  5
1FE9
  8
0
 10
55.7597214183792
 20
51.954580676607918
 30
0.0
  0
VERTEX
  5
1FEA
  8
0
 10
55.91467913923978
 20
51.975623696892058
 30
0.0
  0
VERTEX
  5
1FEB
  8
0
 10
56.072243079059632
 20
51.992672929198591
 30
0.0
  0
VERTEX
  5
1FEC
  8
0
 10
56.231642721083936
 20
52.005861712282609
 30
0.0
  0
VERTEX
  5
1FED
  8
0
 10
56.311790387631419
 20
52.011064735324581
 30
0.0
  0
VERTEX
  5
1FEE
  8
0
 10
56.392108869886158
 20
52.015376077270219
 30
0.0
  0
VERTEX
  5
1FEF
  8
0
 10
56.552876903241753
 20
52.02144656935792
 30
0.0
  0
VERTEX
  5
1FF0
  8
0
 10
56.71317944747144
 20
52.024340188351303
 30
0.0
  0
VERTEX
  5
1FF1
  8
0
 10
56.792915175381317
 20
52.024687382204881
 30
0.0
  0
SEQEND
  5
1FF2
  8
0
  0
LINE
  5
1768
  8
0
 10
39.114740555877802
 20
52.024687382204881
 30
0.0
 11
69.114740555877802
 21
52.024687382204881
 31
0.0
  0
LINE
  5
1769
  8
0
 10
60.887740555877798
 20
17.024687382204888
 30
0.0
 11
47.341740555877799
 21
17.024687382204888
 31
0.0
  0
LINE
  5
176A
  8
0
 10
62.114740555877802
 20
18.251687382204889
 30
0.0
 11
46.114740555877802
 21
18.251687382204889
 31
0.0
  0
LINE
  5
176B
  8
0
 10
62.114740555877802
 20
31.92468738220489
 30
0.0
 11
46.114740555877802
 21
31.92468738220489
 31
0.0
  0
LINE
  5
176C
  8
0
 10
60.514740555877808
 20
33.524687382204888
 30
0.0
 11
47.714740555877803
 21
33.524687382204888
 31
0.0
  0
LINE
  5
1770
  8
0
 10
46.114740555877802
 20
18.251687382204889
 30
0.0
 11
47.341740555877799
 21
17.024687382204888
 31
0.0
  0
LINE
  5
1771
  8
0
 10
60.887740555877798
 20
17.024687382204888
 30
0.0
 11
62.114740555877802
 21
18.251687382204889
 31
0.0
  0
LINE
  5
1772
  8
0
 10
46.114740555877802
 20
31.92468738220489
 30
0.0
 11
46.114740555877802
 21
18.251687382204889
 31
0.0
  0
LINE
  5
1773
  8
0
 10
62.114740555877802
 20
18.251687382204889
 30
0.0
 11
62.114740555877802
 21
31.92468738220489
 31
0.0
  0
LINE
  5
1774
  8
0
 10
47.714740555877803
 20
33.524687382204888
 30
0.0
 11
46.114740555877802
 21
31.92468738220489
 31
0.0
  0
LINE
  5
1775
  8
0
 10
62.114740555877802
 20
31.92468738220489
 30
0.0
 11
60.514740555877808
 21
33.524687382204888
 31
0.0
  0
LINE
  5
1776
  8
0
 10
47.714740555877803
 20
36.024687382204888
 30
0.0
 11
47.714740555877803
 21
33.524687382204888
 31
0.0
  0
LINE
  5
1777
  8
0
 10
60.514740555877808
 20
33.524687382204888
 30
0.0
 11
60.514740555877808
 21
36.024687382204888
 31
0.0
  0
LINE
  5
184C
  8
1
 10
128.85862458065219
 20
61.024687382204888
 30
0.0
 11
128.85862458065219
 21
12.02468738220489
 31
0.0
  0
LINE
  5
184E
  8
3
 10
122.08562458065209
 20
17.024687382204888
 30
0.0
 11
122.08562458065219
 21
33.151687382204877
 31
0.0
  0
LINE
  5
1851
  8
3
 10
135.63162458065219
 20
17.024687382204888
 30
0.0
 11
135.63162458065219
 21
33.151687382204813
 31
0.0
  0
LINE
  5
1855
  8
0
 10
116.3486245806522
 20
53.124687382204883
 30
0.0
 11
115.2931109012802
 21
56.024687382204888
 31
0.0
  0
LINE
  5
188F
  8
0
 10
139.90413826002421
 20
56.024687382204888
 30
0.0
 11
138.8486245806522
 21
53.124687382204883
 31
0.0
  0
LINE
  5
1895
  8
0
 10
142.40413826002421
 20
56.024687382204888
 30
0.0
 11
141.3486245806522
 21
53.12468738220489
 31
0.0
  0
LINE
  5
1898
  8
0
 10
141.34862458065211
 20
53.124687382204812
 30
0.0
 11
140.29311090128019
 21
56.024687382204888
 31
0.0
  0
LINE
  5
189B
  8
0
 10
114.9041382600242
 20
56.024687382204888
 30
0.0
 11
113.85869655976479
 21
53.152359917385979
 31
0.0
  0
LINE
  5
18A1
  8
0
 10
143.85862458065219
 20
53.097212608010381
 30
0.0
 11
142.79311090128019
 21
56.024687382204888
 31
0.0
  0
LINE
  5
18C9
  8
0
 10
142.40413826002421
 20
56.024687382204888
 30
0.0
 11
142.79311090128019
 21
56.024687382204888
 31
0.0
  0
LINE
  5
18CE
  8
0
 10
139.90413826002421
 20
56.024687382204888
 30
0.0
 11
140.29311090128019
 21
56.024687382204888
 31
0.0
  0
LINE
  5
18F4
  8
0
 10
114.9041382600242
 20
56.024687382204888
 30
0.0
 11
115.2931109012802
 21
56.024687382204888
 31
0.0
  0
LINE
  5
18F6
  8
0
 10
111.5381165049634
 20
51.236205774125111
 30
0.0
 11
111.5381165049634
 21
36.024687382204888
 31
0.0
  0
LINE
  5
18FB
  8
0
 10
146.17913265634101
 20
51.236205774125111
 30
0.0
 11
146.17913265634101
 21
36.024687382204888
 31
0.0
  0
LINE
  5
18FE
  8
0
 10
146.17913265634101
 20
36.024687382204888
 30
0.0
 11
111.5381165049634
 21
36.024687382204888
 31
0.0
  0
POLYLINE
  5
1900
  8
0
 66
     1
 10
0.0
 20
0.0
 30
0.0
  0
VERTEX
  5
1FF3
  8
0
 10
137.5188786184965
 20
51.236205774125096
 30
0.0
  0
VERTEX
  5
1FF4
  8
0
 10
137.52414372740941
 20
51.245887507901493
 30
0.0
  0
VERTEX
  5
1FF5
  8
0
 10
137.5349243245814
 20
51.265173506614062
 30
0.0
  0
VERTEX
  5
1FF6
  8
0
 10
137.54602452651559
 20
51.284324770837159
 30
0.0
  0
VERTEX
  5
1FF7
  8
0
 10
137.55168879445361
 20
51.29383857378194
 30
0.0
  0
VERTEX
  5
1FF8
  8
0
 10
137.55742597232941
 20
51.303305404261351
 30
0.0
  0
VERTEX
  5
1FF9
  8
0
 10
137.56910899586299
 20
51.322081753448451
 30
0.0
  0
VERTEX
  5
1FFA
  8
0
 10
137.58105278945601
 20
51.340622509227671
 30
0.0
  0
VERTEX
  5
1FFB
  8
0
 10
137.593235557436
 20
51.358898756334924
 30
0.0
  0
VERTEX
  5
1FFC
  8
0
 10
137.6056346609754
 20
51.37688398392585
 30
0.0
  0
VERTEX
  5
1FFD
  8
0
 10
137.61822675597159
 20
51.394554067123899
 30
0.0
  0
VERTEX
  5
1FFE
  8
0
 10
137.6245877200985
 20
51.403264033625533
 30
0.0
  0
VERTEX
  5
1FFF
  8
0
 10
137.63098792565239
 20
51.411887227788
 30
0.0
  0
VERTEX
  5
2000
  8
0
 10
137.64389381565621
 20
51.428863988848818
 30
0.0
  0
VERTEX
  5
2001
  8
0
 10
137.6569197908791
 20
51.445467147779773
 30
0.0
  0
VERTEX
  5
2002
  8
0
 10
137.67004046330749
 20
51.461680973230237
 30
0.0
  0
VERTEX
  5
2003
  8
0
 10
137.6832296982279
 20
51.477491093900582
 30
0.0
  0
VERTEX
  5
2004
  8
0
 10
137.6964607735683
 20
51.492884570893366
 30
0.0
  0
VERTEX
  5
2005
  8
0
 10
137.70308351236329
 20
51.500421409442609
 30
0.0
  0
VERTEX
  5
2006
  8
0
 10
137.70970646933469
 20
51.507849868351293
 30
0.0
  0
VERTEX
  5
2007
  8
0
 10
137.72293914705139
 20
51.522376806046928
 30
0.0
  0
VERTEX
  5
2008
  8
0
 10
137.73613082051739
 20
51.536456498315019
 30
0.0
  0
VERTEX
  5
2009
  8
0
 10
137.74270245559879
 20
51.543326187260227
 30
0.0
  0
VERTEX
  5
200A
  8
0
 10
137.78156869903989
 20
51.582112841014549
 30
0.0
  0
VERTEX
  5
200B
  8
0
 10
137.86121119012731
 20
51.65287894315756
 30
0.0
  0
VERTEX
  5
200C
  8
0
 10
137.9460712368643
 20
51.717494311398809
 30
0.0
  0
VERTEX
  5
200D
  8
0
 10
138.0341141277093
 20
51.774823526527491
 30
0.0
  0
VERTEX
  5
200E
  8
0
 10
138.12321976896899
 20
51.824355305582678
 30
0.0
  0
VERTEX
  5
200F
  8
0
 10
138.21119520450051
 20
51.866052004078377
 30
0.0
  0
VERTEX
  5
2010
  8
0
 10
138.2540577313126
 20
51.884050066814737
 30
0.0
  0
VERTEX
  5
2011
  8
0
 10
138.29595591841979
 20
51.900291350384968
 30
0.0
  0
VERTEX
  5
2012
  8
0
 10
138.38109101596379
 20
51.929471296480052
 30
0.0
  0
VERTEX
  5
2013
  8
0
 10
138.4686087622735
 20
51.954580676607911
 30
0.0
  0
VERTEX
  5
2014
  8
0
 10
138.55807364412539
 20
51.975623696892058
 30
0.0
  0
VERTEX
  5
2015
  8
0
 10
138.64904322719499
 20
51.992672929198591
 30
0.0
  0
VERTEX
  5
2016
  8
0
 10
138.74107265342639
 20
52.005861712282609
 30
0.0
  0
VERTEX
  5
2017
  8
0
 10
138.7873459302825
 20
52.011064735324581
 30
0.0
  0
VERTEX
  5
2018
  8
0
 10
138.83371782763319
 20
52.015376077270219
 30
0.0
  0
VERTEX
  5
2019
  8
0
 10
138.92653729496811
 20
52.02144656935792
 30
0.0
  0
VERTEX
  5
201A
  8
0
 10
139.01908801203101
 20
52.024340188351303
 30
0.0
  0
VERTEX
  5
201B
  8
0
 10
139.06512345600379
 20
52.024687382204881
 30
0.0
  0
SEQEND
  5
201C
  8
0
  0
LINE
  5
1901
  8
0
 10
137.5188786184965
 20
51.236205774125096
 30
0.0
 11
137.5188786184965
 21
36.024687382204888
 31
0.0
  0
POLYLINE
  5
1902
  8
0
 66
     1
 10
0.0
 20
0.0
 30
0.0
  0
VERTEX
  5
201D
  8
0
 10
134.42638894348221
 20
52.024687382204881
 30
0.0
  0
VERTEX
  5
201E
  8
0
 10
134.5184598314278
 20
52.024340188351303
 30
0.0
  0
VERTEX
  5
201F
  8
0
 10
134.70356126555339
 20
52.02144656935792
 30
0.0
  0
VERTEX
  5
2020
  8
0
 10
134.88920020022331
 20
52.015376077270219
 30
0.0
  0
VERTEX
  5
2021
  8
0
 10
134.98194399492459
 20
52.011064735324581
 30
0.0
  0
VERTEX
  5
2022
  8
0
 10
135.0744905486369
 20
52.005861712282609
 30
0.0
  0
VERTEX
  5
2023
  8
0
 10
135.2585494010998
 20
51.992672929198577
 30
0.0
  0
VERTEX
  5
2024
  8
0
 10
135.44048856723899
 20
51.97562369689205
 30
0.0
  0
VERTEX
  5
2025
  8
0
 10
135.61941833094269
 20
51.954580676607911
 30
0.0
  0
VERTEX
  5
2026
  8
0
 10
135.79445382356209
 20
51.929471296480031
 30
0.0
  0
VERTEX
  5
2027
  8
0
 10
135.9647240186502
 20
51.900291350384947
 30
0.0
  0
VERTEX
  5
2028
  8
0
 10
136.04852039286459
 20
51.884050066814702
 30
0.0
  0
VERTEX
  5
2029
  8
0
 10
136.13424544648871
 20
51.866052004078362
 30
0.0
  0
VERTEX
  5
202A
  8
0
 10
136.31019631755191
 20
51.824355305582628
 30
0.0
  0
VERTEX
  5
202B
  8
0
 10
136.48840760007121
 20
51.77482352652742
 30
0.0
  0
VERTEX
  5
202C
  8
0
 10
136.66449338176119
 20
51.717494311398738
 30
0.0
  0
VERTEX
  5
202D
  8
0
 10
136.8342134752354
 20
51.652878943157468
 30
0.0
  0
VERTEX
  5
202E
  8
0
 10
136.99349845741
 20
51.582112841014457
 30
0.0
  0
VERTEX
  5
202F
  8
0
 10
137.07123094429221
 20
51.543326187260107
 30
0.0
  0
VERTEX
  5
2030
  8
0
 10
137.08437421445501
 20
51.536456498314891
 30
0.0
  0
VERTEX
  5
2031
  8
0
 10
137.11075756138689
 20
51.5223768060468
 30
0.0
  0
VERTEX
  5
2032
  8
0
 10
137.1372229168206
 20
51.507849868351158
 30
0.0
  0
VERTEX
  5
2033
  8
0
 10
137.1504688307634
 20
51.500421409442481
 30
0.0
  0
VERTEX
  5
2034
  8
0
 10
137.16371430835329
 20
51.492884570893231
 30
0.0
  0
VERTEX
  5
2035
  8
0
 10
137.19017645903409
 20
51.47749109390044
 30
0.0
  0
VERTEX
  5
2036
  8
0
 10
137.21655492887501
 20
51.461680973230088
 30
0.0
  0
VERTEX
  5
2037
  8
0
 10
137.2427962737317
 20
51.44546714777961
 30
0.0
  0
VERTEX
  5
2038
  8
0
 10
137.26884822417739
 20
51.428863988848647
 30
0.0
  0
VERTEX
  5
2039
  8
0
 10
137.294660004185
 20
51.411887227787837
 30
0.0
  0
VERTEX
  5
203A
  8
0
 10
137.30746041529289
 20
51.403264033625369
 30
0.0
  0
VERTEX
  5
203B
  8
0
 10
137.32018234354661
 20
51.39455406712375
 30
0.0
  0
VERTEX
  5
203C
  8
0
 10
137.34536653353899
 20
51.376883983925708
 30
0.0
  0
VERTEX
  5
203D
  8
0
 10
137.37016474061781
 20
51.358898756334803
 30
0.0
  0
VERTEX
  5
203E
  8
0
 10
137.3945302765778
 20
51.340622509227558
 30
0.0
  0
VERTEX
  5
203F
  8
0
 10
137.41841786376361
 20
51.322081753448373
 30
0.0
  0
VERTEX
  5
2040
  8
0
 10
137.44178391083099
 20
51.303305404261287
 30
0.0
  0
VERTEX
  5
2041
  8
0
 10
137.4532582665824
 20
51.293838573781898
 30
0.0
  0
VERTEX
  5
2042
  8
0
 10
137.46458680245831
 20
51.284324770837131
 30
0.0
  0
VERTEX
  5
2043
  8
0
 10
137.48678720632671
 20
51.265173506614047
 30
0.0
  0
VERTEX
  5
2044
  8
0
 10
137.50834840067091
 20
51.245887507901493
 30
0.0
  0
VERTEX
  5
2045
  8
0
 10
137.5188786184965
 20
51.236205774125096
 30
0.0
  0
SEQEND
  5
2046
  8
0
  0
POLYLINE
  5
1903
  8
0
 66
     1
 10
0.0
 20
0.0
 30
0.0
  0
VERTEX
  5
2047
  8
0
 10
120.19837054280779
 20
51.236205774125096
 30
0.0
  0
VERTEX
  5
2048
  8
0
 10
120.2089007606334
 20
51.245887507901493
 30
0.0
  0
VERTEX
  5
2049
  8
0
 10
120.2304619549776
 20
51.265173506614047
 30
0.0
  0
VERTEX
  5
204A
  8
0
 10
120.252662358846
 20
51.284324770837159
 30
0.0
  0
VERTEX
  5
204B
  8
0
 10
120.263990894722
 20
51.29383857378194
 30
0.0
  0
VERTEX
  5
204C
  8
0
 10
120.2754652504734
 20
51.303305404261351
 30
0.0
  0
VERTEX
  5
204D
  8
0
 10
120.2988312975408
 20
51.322081753448451
 30
0.0
  0
VERTEX
  5
204E
  8
0
 10
120.3227188847266
 20
51.340622509227657
 30
0.0
  0
VERTEX
  5
204F
  8
0
 10
120.3470844206867
 20
51.358898756334924
 30
0.0
  0
VERTEX
  5
2050
  8
0
 10
120.3718826277655
 20
51.37688398392585
 30
0.0
  0
VERTEX
  5
2051
  8
0
 10
120.3970668177579
 20
51.394554067123899
 30
0.0
  0
VERTEX
  5
2052
  8
0
 10
120.4097887460118
 20
51.403264033625533
 30
0.0
  0
VERTEX
  5
2053
  8
0
 10
120.4225891571195
 20
51.411887227788
 30
0.0
  0
VERTEX
  5
2054
  8
0
 10
120.4484009371272
 20
51.428863988848818
 30
0.0
  0
VERTEX
  5
2055
  8
0
 10
120.4744528875728
 20
51.445467147779773
 30
0.0
  0
VERTEX
  5
2056
  8
0
 10
120.5006942324295
 20
51.461680973230237
 30
0.0
  0
VERTEX
  5
2057
  8
0
 10
120.5270727022705
 20
51.477491093900582
 30
0.0
  0
VERTEX
  5
2058
  8
0
 10
120.5535348529513
 20
51.492884570893366
 30
0.0
  0
VERTEX
  5
2059
  8
0
 10
120.56678033054131
 20
51.500421409442609
 30
0.0
  0
VERTEX
  5
205A
  8
0
 10
120.580026244484
 20
51.507849868351293
 30
0.0
  0
VERTEX
  5
205B
  8
0
 10
120.6064915999176
 20
51.522376806046928
 30
0.0
  0
VERTEX
  5
205C
  8
0
 10
120.6328749468495
 20
51.536456498315033
 30
0.0
  0
VERTEX
  5
205D
  8
0
 10
120.6460182170124
 20
51.543326187260227
 30
0.0
  0
VERTEX
  5
205E
  8
0
 10
120.7237507038945
 20
51.582112841014563
 30
0.0
  0
VERTEX
  5
205F
  8
0
 10
120.88303568606921
 20
51.65287894315756
 30
0.0
  0
VERTEX
  5
2060
  8
0
 10
121.0527557795433
 20
51.717494311398809
 30
0.0
  0
VERTEX
  5
2061
  8
0
 10
121.2288415612333
 20
51.774823526527491
 30
0.0
  0
VERTEX
  5
2062
  8
0
 10
121.40705284375269
 20
51.824355305582678
 30
0.0
  0
VERTEX
  5
2063
  8
0
 10
121.5830037148158
 20
51.866052004078391
 30
0.0
  0
VERTEX
  5
2064
  8
0
 10
121.66872876843991
 20
51.884050066814737
 30
0.0
  0
VERTEX
  5
2065
  8
0
 10
121.75252514265431
 20
51.900291350384983
 30
0.0
  0
VERTEX
  5
2066
  8
0
 10
121.9227953377424
 20
51.929471296480052
 30
0.0
  0
VERTEX
  5
2067
  8
0
 10
122.0978308303617
 20
51.954580676607911
 30
0.0
  0
VERTEX
  5
2068
  8
0
 10
122.27676059406549
 20
51.975623696892058
 30
0.0
  0
VERTEX
  5
2069
  8
0
 10
122.4586997602046
 20
51.992672929198591
 30
0.0
  0
VERTEX
  5
206A
  8
0
 10
122.64275861266751
 20
52.005861712282609
 30
0.0
  0
VERTEX
  5
206B
  8
0
 10
122.7353051663797
 20
52.011064735324581
 30
0.0
  0
VERTEX
  5
206C
  8
0
 10
122.82804896108109
 20
52.015376077270219
 30
0.0
  0
VERTEX
  5
206D
  8
0
 10
123.013687895751
 20
52.02144656935792
 30
0.0
  0
VERTEX
  5
206E
  8
0
 10
123.1987893298766
 20
52.024340188351303
 30
0.0
  0
VERTEX
  5
206F
  8
0
 10
123.2908602178222
 20
52.024687382204881
 30
0.0
  0
SEQEND
  5
2070
  8
0
  0
LINE
  5
1904
  8
0
 10
120.19837054280779
 20
51.236205774125096
 30
0.0
 11
120.19837054280779
 21
36.024687382204888
 31
0.0
  0
POLYLINE
  5
1905
  8
0
 66
     1
 10
0.0
 20
0.0
 30
0.0
  0
VERTEX
  5
2071
  8
0
 10
118.65212570530061
 20
52.024687382204881
 30
0.0
  0
VERTEX
  5
2072
  8
0
 10
118.6981611492734
 20
52.024340188351303
 30
0.0
  0
VERTEX
  5
2073
  8
0
 10
118.7907118663362
 20
52.02144656935792
 30
0.0
  0
VERTEX
  5
2074
  8
0
 10
118.8835313336711
 20
52.015376077270219
 30
0.0
  0
VERTEX
  5
2075
  8
0
 10
118.9299032310218
 20
52.011064735324581
 30
0.0
  0
VERTEX
  5
2076
  8
0
 10
118.9761765078779
 20
52.005861712282609
 30
0.0
  0
VERTEX
  5
2077
  8
0
 10
119.0682059341094
 20
51.992672929198577
 30
0.0
  0
VERTEX
  5
2078
  8
0
 10
119.15917551717899
 20
51.97562369689205
 30
0.0
  0
VERTEX
  5
2079
  8
0
 10
119.2486403990308
 20
51.954580676607911
 30
0.0
  0
VERTEX
  5
207A
  8
0
 10
119.33615814534051
 20
51.929471296480031
 30
0.0
  0
VERTEX
  5
207B
  8
0
 10
119.4212932428846
 20
51.900291350384947
 30
0.0
  0
VERTEX
  5
207C
  8
0
 10
119.4631914299918
 20
51.884050066814702
 30
0.0
  0
VERTEX
  5
207D
  8
0
 10
119.5060539568039
 20
51.866052004078362
 30
0.0
  0
VERTEX
  5
207E
  8
0
 10
119.5940293923355
 20
51.824355305582628
 30
0.0
  0
VERTEX
  5
207F
  8
0
 10
119.68313503359509
 20
51.774823526527427
 30
0.0
  0
VERTEX
  5
2080
  8
0
 10
119.7711779244401
 20
51.717494311398738
 30
0.0
  0
VERTEX
  5
2081
  8
0
 10
119.8560379711772
 20
51.652878943157468
 30
0.0
  0
VERTEX
  5
2082
  8
0
 10
119.9356804622645
 20
51.582112841014457
 30
0.0
  0
VERTEX
  5
2083
  8
0
 10
119.97454670570561
 20
51.543326187260107
 30
0.0
  0
VERTEX
  5
2084
  8
0
 10
119.98111834078711
 20
51.536456498314898
 30
0.0
  0
VERTEX
  5
2085
  8
0
 10
119.994310014253
 20
51.5223768060468
 30
0.0
  0
VERTEX
  5
2086
  8
0
 10
120.0075426919698
 20
51.507849868351158
 30
0.0
  0
VERTEX
  5
2087
  8
0
 10
120.0141656489412
 20
51.500421409442481
 30
0.0
  0
VERTEX
  5
2088
  8
0
 10
120.0207883877361
 20
51.492884570893231
 30
0.0
  0
VERTEX
  5
2089
  8
0
 10
120.0340194630765
 20
51.47749109390044
 30
0.0
  0
VERTEX
  5
208A
  8
0
 10
120.04720869799699
 20
51.461680973230088
 30
0.0
  0
VERTEX
  5
208B
  8
0
 10
120.06032937042541
 20
51.44546714777961
 30
0.0
  0
VERTEX
  5
208C
  8
0
 10
120.0733553456482
 20
51.428863988848647
 30
0.0
  0
VERTEX
  5
208D
  8
0
 10
120.086261235652
 20
51.411887227787837
 30
0.0
  0
VERTEX
  5
208E
  8
0
 10
120.09266144120591
 20
51.403264033625369
 30
0.0
  0
VERTEX
  5
208F
  8
0
 10
120.0990224053328
 20
51.39455406712375
 30
0.0
  0
VERTEX
  5
2090
  8
0
 10
120.111614500329
 20
51.376883983925708
 30
0.0
  0
VERTEX
  5
2091
  8
0
 10
120.12401360386841
 20
51.358898756334803
 30
0.0
  0
VERTEX
  5
2092
  8
0
 10
120.1361963718484
 20
51.340622509227558
 30
0.0
  0
VERTEX
  5
2093
  8
0
 10
120.1481401654413
 20
51.322081753448373
 30
0.0
  0
VERTEX
  5
2094
  8
0
 10
120.159823188975
 20
51.303305404261287
 30
0.0
  0
VERTEX
  5
2095
  8
0
 10
120.1655603668507
 20
51.293838573781898
 30
0.0
  0
VERTEX
  5
2096
  8
0
 10
120.1712246347887
 20
51.284324770837131
 30
0.0
  0
VERTEX
  5
2097
  8
0
 10
120.1823248367229
 20
51.265173506614047
 30
0.0
  0
VERTEX
  5
2098
  8
0
 10
120.1931054338949
 20
51.245887507901493
 30
0.0
  0
VERTEX
  5
2099
  8
0
 10
120.19837054280779
 20
51.236205774125096
 30
0.0
  0
SEQEND
  5
209A
  8
0
  0
LINE
  5
1907
  8
0
 10
112.8586245806522
 20
52.024687382204881
 30
0.0
 11
144.85862458065219
 21
52.024687382204881
 31
0.0
  0
LINE
  5
1908
  8
0
 10
135.63162458065219
 20
17.024687382204888
 30
0.0
 11
122.08562458065209
 21
17.024687382204888
 31
0.0
  0
LINE
  5
1909
  8
0
 10
136.85862458065219
 20
18.251687382204889
 30
0.0
 11
120.8586245806522
 21
18.251687382204889
 31
0.0
  0
LINE
  5
190A
  8
0
 10
136.85862458065219
 20
31.92468738220489
 30
0.0
 11
120.8586245806522
 21
31.92468738220489
 31
0.0
  0
LINE
  5
190B
  8
0
 10
135.25862458065211
 20
33.524687382204888
 30
0.0
 11
122.4586245806522
 21
33.524687382204888
 31
0.0
  0
LINE
  5
190D
  8
0
 10
113.85869655976479
 20
53.152359917385979
 30
0.0
 11
113.8586245806522
 21
52.024687382204881
 31
0.0
  0
LINE
  5
190E
  8
0
 10
143.85862458065219
 20
52.024687382204881
 30
0.0
 11
143.85862458065219
 21
53.097212608010338
 31
0.0
  0
ARC
  5
190F
  8
0
 10
144.85862458065219
 20
50.524687382204903
 30
0.0
 40
1.4999999999999889
 50
28.316750308906911
 51
90.0
  0
ARC
  5
1910
  8
0
 10
112.8586245806522
 20
50.524687382204903
 30
0.0
 40
1.4999999999999889
 50
90.0
 51
151.6832496910931
  0
LINE
  5
1911
  8
0
 10
120.8586245806522
 20
18.251687382204889
 30
0.0
 11
122.08562458065209
 21
17.024687382204888
 31
0.0
  0
LINE
  5
1912
  8
0
 10
135.63162458065219
 20
17.024687382204888
 30
0.0
 11
136.85862458065219
 21
18.251687382204889
 31
0.0
  0
LINE
  5
1913
  8
0
 10
120.8586245806522
 20
31.92468738220489
 30
0.0
 11
120.8586245806522
 21
18.251687382204889
 31
0.0
  0
LINE
  5
1914
  8
0
 10
136.85862458065219
 20
18.251687382204889
 30
0.0
 11
136.85862458065219
 21
31.92468738220489
 31
0.0
  0
LINE
  5
1915
  8
0
 10
122.4586245806522
 20
33.524687382204888
 30
0.0
 11
120.8586245806522
 21
31.92468738220489
 31
0.0
  0
LINE
  5
1916
  8
0
 10
136.85862458065219
 20
31.92468738220489
 30
0.0
 11
135.25862458065211
 21
33.524687382204888
 31
0.0
  0
LINE
  5
1917
  8
0
 10
122.4586245806522
 20
36.024687382204888
 30
0.0
 11
122.4586245806522
 21
33.524687382204888
 31
0.0
  0
LINE
  5
1918
  8
0
 10
135.25862458065211
 20
33.524687382204888
 30
0.0
 11
135.25862458065211
 21
36.024687382204888
 31
0.0
  0
LINE
  5
192F
  8
1
 10
76.445248631566585
 20
116.5920980056227
 30
0.0
 11
31.784232480189079
 21
116.5920980056227
 31
0.0
  0
LINE
  5
1930
  8
1
 10
54.114740555877802
 20
138.9226060813115
 30
0.0
 11
54.114740555877802
 21
94.261589929933933
 31
0.0
  0
CIRCLE
  5
1931
  8
0
 10
54.11474055587783
 20
116.5920980056227
 30
0.0
 40
15.00000000000003
  0
LINE
  5
1932
  8
0
 10
69.114740555877873
 20
107.9218439677783
 30
0.0
 11
54.114740555877802
 21
99.261589929933905
 31
0.0
  0
LINE
  5
1933
  8
0
 10
54.114740555877802
 20
99.261589929933933
 30
0.0
 11
39.11474055587783
 21
107.9218439677783
 31
0.0
  0
LINE
  5
1D72
  8
0
 10
69.078343532451186
 20
53.12468738220489
 30
0.0
 11
66.65113757930439
 21
53.12468738220489
 31
0.0
  0
LINE
  5
1D74
  8
0
 10
62.706651258676402
 20
56.024687382204888
 30
0.0
 11
63.022829853079202
 21
56.024687382204888
 31
0.0
  0
LINE
  5
1D75
  8
0
 10
63.022829853079202
 20
56.024687382204888
 30
0.0
 11
64.11474055587783
 21
53.024687382204903
 31
0.0
  0
LINE
  5
1D76
  8
0
 10
61.61474055587783
 20
53.024687382204831
 30
0.0
 11
62.706651258676402
 21
56.024687382204888
 31
0.0
  0
LINE
  5
1D77
  8
0
 10
60.206651258676402
 20
56.024687382204888
 30
0.0
 11
60.522829853079202
 21
56.024687382204888
 31
0.0
  0
LINE
  5
1D78
  8
0
 10
60.522829853079202
 20
56.024687382204888
 30
0.0
 11
61.61474055587783
 21
53.024687382204903
 31
0.0
  0
LINE
  5
1D79
  8
0
 10
59.11474055587783
 20
53.024687382204831
 30
0.0
 11
60.206651258676402
 21
56.024687382204888
 31
0.0
  0
LINE
  5
1D7A
  8
0
 10
57.706651258676402
 20
56.024687382204888
 30
0.0
 11
58.022829853079202
 21
56.024687382204888
 31
0.0
  0
LINE
  5
1D7B
  8
0
 10
58.022829853079202
 20
56.024687382204888
 30
0.0
 11
59.11474055587783
 21
53.024687382204903
 31
0.0
  0
LINE
  5
1D7C
  8
0
 10
56.61474055587783
 20
53.024687382204831
 30
0.0
 11
57.706651258676402
 21
56.024687382204888
 31
0.0
  0
LINE
  5
1D7D
  8
0
 10
55.206651258676402
 20
56.024687382204888
 30
0.0
 11
55.522829853079202
 21
56.024687382204888
 31
0.0
  0
LINE
  5
1D7E
  8
0
 10
55.522829853079202
 20
56.024687382204888
 30
0.0
 11
56.61474055587783
 21
53.024687382204903
 31
0.0
  0
LINE
  5
1D7F
  8
0
 10
54.11474055587783
 20
53.024687382204831
 30
0.0
 11
55.206651258676402
 21
56.024687382204888
 31
0.0
  0
LINE
  5
1D80
  8
0
 10
52.706651258676402
 20
56.024687382204888
 30
0.0
 11
53.022829853079202
 21
56.024687382204888
 31
0.0
  0
LINE
  5
1D81
  8
0
 10
53.022829853079202
 20
56.024687382204888
 30
0.0
 11
54.11474055587783
 21
53.024687382204903
 31
0.0
  0
LINE
  5
1D82
  8
0
 10
51.61474055587783
 20
53.024687382204831
 30
0.0
 11
52.706651258676402
 21
56.024687382204888
 31
0.0
  0
LINE
  5
1D83
  8
0
 10
50.206651258676402
 20
56.024687382204888
 30
0.0
 11
50.522829853079202
 21
56.024687382204888
 31
0.0
  0
LINE
  5
1D84
  8
0
 10
50.522829853079202
 20
56.024687382204888
 30
0.0
 11
51.61474055587783
 21
53.024687382204903
 31
0.0
  0
LINE
  5
1D85
  8
0
 10
49.11474055587783
 20
53.024687382204831
 30
0.0
 11
50.206651258676402
 21
56.024687382204888
 31
0.0
  0
LINE
  5
1D86
  8
0
 10
47.706651258676402
 20
56.024687382204888
 30
0.0
 11
48.022829853079202
 21
56.024687382204888
 31
0.0
  0
LINE
  5
1D87
  8
0
 10
48.022829853079202
 20
56.024687382204888
 30
0.0
 11
49.11474055587783
 21
53.024687382204903
 31
0.0
  0
LINE
  5
1D88
  8
0
 10
46.61474055587783
 20
53.024687382204831
 30
0.0
 11
47.706651258676402
 21
56.024687382204888
 31
0.0
  0
LINE
  5
1D89
  8
0
 10
45.206651258676402
 20
56.024687382204888
 30
0.0
 11
45.522829853079202
 21
56.024687382204888
 31
0.0
  0
LINE
  5
1D8A
  8
0
 10
45.522829853079202
 20
56.024687382204888
 30
0.0
 11
46.61474055587783
 21
53.024687382204903
 31
0.0
  0
LINE
  5
1D8B
  8
0
 10
44.11474055587783
 20
53.024687382204831
 30
0.0
 11
45.206651258676402
 21
56.024687382204888
 31
0.0
  0
LINE
  5
1D8C
  8
0
 10
42.706651258676402
 20
56.024687382204888
 30
0.0
 11
43.022829853079202
 21
56.024687382204888
 31
0.0
  0
LINE
  5
1D8D
  8
0
 10
43.022829853079202
 20
56.024687382204888
 30
0.0
 11
44.11474055587783
 21
53.024687382204903
 31
0.0
  0
LINE
  5
1D8E
  8
0
 10
41.61474055587783
 20
53.024687382204831
 30
0.0
 11
42.706651258676402
 21
56.024687382204888
 31
0.0
  0
LINE
  5
1D8F
  8
0
 10
41.578343532451129
 20
53.124687382204883
 30
0.0
 11
39.151137579304418
 21
53.12468738220489
 31
0.0
  0
LINE
  5
1D90
  8
0
 10
44.078343532451157
 20
53.12468738220489
 30
0.0
 11
41.651137579304439
 21
53.12468738220489
 31
0.0
  0
LINE
  5
1D91
  8
0
 10
46.578343532451157
 20
53.124687382204868
 30
0.0
 11
44.151137579304482
 21
53.124687382204883
 31
0.0
  0
LINE
  5
1D92
  8
0
 10
49.078343532451179
 20
53.124687382204883
 30
0.0
 11
46.651137579304482
 21
53.12468738220489
 31
0.0
  0
LINE
  5
1D93
  8
0
 10
51.578343532451207
 20
53.12468738220489
 30
0.0
 11
49.151137579304446
 21
53.124687382204883
 31
0.0
  0
LINE
  5
1D94
  8
0
 10
54.078343532451157
 20
53.124687382204883
 30
0.0
 11
51.651137579304503
 21
53.124687382204897
 31
0.0
  0
LINE
  5
1D95
  8
0
 10
56.578343532451207
 20
53.124687382204883
 30
0.0
 11
54.151137579304503
 21
53.12468738220489
 31
0.0
  0
LINE
  5
1D96
  8
0
 10
59.078343532451129
 20
53.12468738220489
 30
0.0
 11
56.651137579304482
 21
53.12468738220489
 31
0.0
  0
LINE
  5
1D97
  8
0
 10
61.578343532451207
 20
53.124687382204897
 30
0.0
 11
59.151137579304532
 21
53.124687382204897
 31
0.0
  0
LINE
  5
1D98
  8
0
 10
64.078343532451186
 20
53.124687382204897
 30
0.0
 11
61.651137579304446
 21
53.124687382204897
 31
0.0
  0
LINE
  5
1D99
  8
0
 10
66.578343532451214
 20
53.124687382204897
 30
0.0
 11
64.151137579304475
 21
53.124687382204897
 31
0.0
  0
LINE
  5
1DE5
  8
0
 10
143.85862458065219
 20
53.024687382204888
 30
0.0
 11
113.8586245806522
 21
53.024687382204888
 31
0.0
  0
LINE
  5
1E29
  8
0
 10
137.4041382600243
 20
56.024687382204888
 30
0.0
 11
137.7931109012803
 21
56.024687382204888
 31
0.0
  0
LINE
  5
1E2A
  8
0
 10
138.8486245806522
 20
53.124687382204812
 30
0.0
 11
137.7931109012803
 21
56.024687382204888
 31
0.0
  0
LINE
  5
1E2B
  8
0
 10
137.4041382600243
 20
56.024687382204888
 30
0.0
 11
136.34862458065231
 21
53.124687382204883
 31
0.0
  0
LINE
  5
1E2C
  8
0
 10
134.90413826002441
 20
56.024687382204888
 30
0.0
 11
135.29311090128039
 21
56.024687382204888
 31
0.0
  0
LINE
  5
1E2D
  8
0
 10
136.34862458065231
 20
53.124687382204812
 30
0.0
 11
135.29311090128039
 21
56.024687382204888
 31
0.0
  0
LINE
  5
1E2E
  8
0
 10
134.90413826002441
 20
56.024687382204888
 30
0.0
 11
133.8486245806524
 21
53.124687382204883
 31
0.0
  0
LINE
  5
1E2F
  8
0
 10
132.4041382600245
 20
56.024687382204888
 30
0.0
 11
132.7931109012805
 21
56.024687382204888
 31
0.0
  0
LINE
  5
1E30
  8
0
 10
133.8486245806524
 20
53.124687382204812
 30
0.0
 11
132.7931109012805
 21
56.024687382204888
 31
0.0
  0
LINE
  5
1E31
  8
0
 10
132.4041382600245
 20
56.024687382204888
 30
0.0
 11
131.34862458065251
 21
53.124687382204883
 31
0.0
  0
LINE
  5
1E32
  8
0
 10
129.90413826002461
 20
56.024687382204888
 30
0.0
 11
130.29311090128061
 21
56.024687382204888
 31
0.0
  0
LINE
  5
1E33
  8
0
 10
131.34862458065251
 20
53.124687382204812
 30
0.0
 11
130.29311090128061
 21
56.024687382204888
 31
0.0
  0
LINE
  5
1E34
  8
0
 10
129.90413826002461
 20
56.024687382204888
 30
0.0
 11
128.8486245806526
 21
53.124687382204883
 31
0.0
  0
LINE
  5
1E35
  8
0
 10
127.40413826002469
 20
56.024687382204888
 30
0.0
 11
127.7931109012808
 21
56.024687382204888
 31
0.0
  0
LINE
  5
1E36
  8
0
 10
128.8486245806526
 20
53.124687382204812
 30
0.0
 11
127.7931109012808
 21
56.024687382204888
 31
0.0
  0
LINE
  5
1E37
  8
0
 10
127.40413826002469
 20
56.024687382204888
 30
0.0
 11
126.3486245806527
 21
53.124687382204883
 31
0.0
  0
LINE
  5
1E38
  8
0
 10
124.90413826002479
 20
56.024687382204888
 30
0.0
 11
125.2931109012809
 21
56.024687382204888
 31
0.0
  0
LINE
  5
1E39
  8
0
 10
126.3486245806527
 20
53.124687382204812
 30
0.0
 11
125.2931109012809
 21
56.024687382204888
 31
0.0
  0
LINE
  5
1E3A
  8
0
 10
124.90413826002479
 20
56.024687382204888
 30
0.0
 11
123.8486245806529
 21
53.124687382204883
 31
0.0
  0
LINE
  5
1E3B
  8
0
 10
122.40413826002499
 20
56.024687382204888
 30
0.0
 11
122.793110901281
 21
56.024687382204888
 31
0.0
  0
LINE
  5
1E3C
  8
0
 10
123.8486245806529
 20
53.124687382204812
 30
0.0
 11
122.793110901281
 21
56.024687382204888
 31
0.0
  0
LINE
  5
1E3D
  8
0
 10
122.40413826002499
 20
56.024687382204888
 30
0.0
 11
121.348624580653
 21
53.124687382204883
 31
0.0
  0
LINE
  5
1E3E
  8
0
 10
119.90413826002511
 20
56.024687382204888
 30
0.0
 11
120.2931109012811
 21
56.024687382204888
 31
0.0
  0
LINE
  5
1E3F
  8
0
 10
121.348624580653
 20
53.124687382204812
 30
0.0
 11
120.2931109012811
 21
56.024687382204888
 31
0.0
  0
LINE
  5
1E40
  8
0
 10
119.90413826002511
 20
56.024687382204888
 30
0.0
 11
118.84862458065309
 21
53.124687382204883
 31
0.0
  0
LINE
  5
1E41
  8
0
 10
117.40413826002521
 20
56.024687382204888
 30
0.0
 11
117.7931109012812
 21
56.024687382204888
 31
0.0
  0
LINE
  5
1E42
  8
0
 10
118.84862458065309
 20
53.124687382204812
 30
0.0
 11
117.7931109012812
 21
56.024687382204888
 31
0.0
  0
LINE
  5
1E43
  8
0
 10
117.40413826002521
 20
56.024687382204888
 30
0.0
 11
116.34862458065319
 21
53.124687382204883
 31
0.0
  0
TEXT
  5
1EEF
  8
0
 62
     3
 10
0.0
 20
0.0
 30
0.0
 40
5.0
  1
BJ811-16020-S
  7
STANDARD1
  0
ENDSEC
  0
EOF
