  0
SECTION
  2
HEADER
  9
$ACADVER
  1
AC1009
  9
$INSBASE
 10
0.0
 20
0.0
 30
0.0
  9
$EXTMIN
 10
0.0
 20
-1.4802182810368341
 30
0.0
  9
$EXTMAX
 10
132.93397051120451
 20
148.50150269879961
 30
0.0
  9
$LIMMIN
 10
0.0
 20
0.0
  9
$LIMMAX
 10
12.0
 20
9.0
  9
$ORTHOMODE
 70
     1
  9
$REGENMODE
 70
     1
  9
$FILLMODE
 70
     1
  9
$QTEXTMODE
 70
     0
  9
$MIRRTEXT
 70
     0
  9
$DRAGMODE
 70
     2
  9
$LTSCALE
 40
5.0
  9
$OSMODE
 70
  3071
  9
$ATTMODE
 70
     1
  9
$TEXTSIZE
 40
0.2
  9
$TRACEWID
 40
0.05
  9
$TEXTSTYLE
  7
STANDARD
  9
$CLAYER
  8
0
  9
$CELTYPE
  6
BYLAYER
  9
$CECOLOR
 62
   256
  9
$DIMSCALE
 40
1.0
  9
$DIMASZ
 40
0.18
  9
$DIMEXO
 40
0.0625
  9
$DIMDLI
 40
0.38
  9
$DIMRND
 40
0.0
  9
$DIMDLE
 40
0.0
  9
$DIMEXE
 40
0.18
  9
$DIMTP
 40
0.0
  9
$DIMTM
 40
0.0
  9
$DIMTXT
 40
0.18
  9
$DIMCEN
 40
0.09
  9
$DIMTSZ
 40
0.0
  9
$DIMTOL
 70
     0
  9
$DIMLIM
 70
     0
  9
$DIMTIH
 70
     1
  9
$DIMTOH
 70
     1
  9
$DIMSE1
 70
     0
  9
$DIMSE2
 70
     0
  9
$DIMTAD
 70
     0
  9
$DIMZIN
 70
     0
  9
$DIMBLK
  1

  9
$DIMASO
 70
     1
  9
$DIMSHO
 70
     1
  9
$DIMPOST
  1

  9
$DIMAPOST
  1

  9
$DIMALT
 70
     0
  9
$DIMALTD
 70
     2
  9
$DIMALTF
 40
25.399999999999999
  9
$DIMLFAC
 40
1.0
  9
$DIMTOFL
 70
     0
  9
$DIMTVP
 40
0.0
  9
$DIMTIX
 70
     0
  9
$DIMSOXD
 70
     0
  9
$DIMSAH
 70
     0
  9
$DIMBLK1
  1

  9
$DIMBLK2
  1

  9
$DIMSTYLE
  2
STANDARD
  9
$DIMCLRD
 70
     0
  9
$DIMCLRE
 70
     0
  9
$DIMCLRT
 70
     0
  9
$DIMTFAC
 40
1.0
  9
$DIMGAP
 40
0.09
  9
$LUNITS
 70
     2
  9
$LUPREC
 70
     4
  9
$SKETCHINC
 40
0.1
  9
$FILLETRAD
 40
0.0
  9
$AUNITS
 70
     0
  9
$AUPREC
 70
     0
  9
$MENU
  1
.
  9
$ELEVATION
 40
0.0
  9
$PELEVATION
 40
0.0
  9
$THICKNESS
 40
0.0
  9
$LIMCHECK
 70
     0
  9
$BLIPMODE
 70
     0
  9
$CHAMFERA
 40
0.0
  9
$CHAMFERB
 40
0.0
  9
$SKPOLY
 70
     0
  9
$TDCREATE
 40
2453083.4120647679
  9
$TDUPDATE
 40
2456602.612743218
  9
$TDINDWG
 40
0.2361240394
  9
$TDUSRTIMER
 40
2456598.4117569681
  9
$USRTIMER
 70
     1
  9
$ANGBASE
 50
0.0
  9
$ANGDIR
 70
     0
  9
$PDMODE
 70
     0
  9
$PDSIZE
 40
0.0
  9
$PLINEWID
 40
0.0
  9
$COORDS
 70
     1
  9
$SPLFRAME
 70
     0
  9
$SPLINETYPE
 70
     6
  9
$SPLINESEGS
 70
     8
  9
$ATTDIA
 70
     0
  9
$ATTREQ
 70
     1
  9
$HANDLING
 70
     1
  9
$HANDSEED
  5
8FB
  9
$SURFTAB1
 70
     6
  9
$SURFTAB2
 70
     6
  9
$SURFTYPE
 70
     6
  9
$SURFU
 70
     6
  9
$SURFV
 70
     6
  9
$UCSNAME
  2

  9
$UCSORG
 10
0.0
 20
0.0
 30
0.0
  9
$UCSXDIR
 10
1.0
 20
0.0
 30
0.0
  9
$UCSYDIR
 10
0.0
 20
1.0
 30
0.0
  9
$PUCSNAME
  2

  9
$PUCSORG
 10
0.0
 20
0.0
 30
0.0
  9
$PUCSXDIR
 10
1.0
 20
0.0
 30
0.0
  9
$PUCSYDIR
 10
0.0
 20
1.0
 30
0.0
  9
$USERI1
 70
     0
  9
$USERI2
 70
     1
  9
$USERI3
 70
     0
  9
$USERI4
 70
     0
  9
$USERI5
 70
     0
  9
$USERR1
 40
0.0
  9
$USERR2
 40
0.0
  9
$USERR3
 40
0.0
  9
$USERR4
 40
0.0
  9
$USERR5
 40
0.0
  9
$WORLDVIEW
 70
     1
  9
$SHADEDGE
 70
     3
  9
$SHADEDIF
 70
    70
  9
$TILEMODE
 70
     1
  9
$MAXACTVP
 70
    64
  9
$PLIMCHECK
 70
     0
  9
$PEXTMIN
 10
0.0
 20
0.0
 30
0.0
  9
$PEXTMAX
 10
0.0
 20
0.0
 30
0.0
  9
$PLIMMIN
 10
0.0
 20
0.0
  9
$PLIMMAX
 10
12.0
 20
9.0
  9
$UNITMODE
 70
     0
  9
$VISRETAIN
 70
     1
  9
$PLINEGEN
 70
     0
  9
$PSLTSCALE
 70
     1
  0
ENDSEC
  0
SECTION
  2
TABLES
  0
TABLE
  2
VPORT
 70
     1
  0
VPORT
  2
*ACTIVE
 70
     0
 10
0.0
 20
0.0
 11
1.0
 21
1.0
 12
267.56432636503359
 22
96.073643771630856
 13
0.0
 23
0.0
 14
0.5
 24
0.5
 15
0.5
 25
0.5
 16
0.0
 26
0.0
 36
1.0
 17
0.0
 27
0.0
 37
0.0
 40
325.62139949330708
 41
1.831871345029239
 42
50.0
 43
0.0
 44
0.0
 50
0.0
 51
0.0
 71
    16
 72
  1000
 73
     1
 74
     2
 75
     0
 76
     0
 77
     0
 78
     0
  0
ENDTAB
  0
TABLE
  2
LTYPE
 70
     5
  0
LTYPE
  2
CONTINUOUS
 70
     0
  3
Solid Line
 72
    65
 73
     0
 40
0.0
  0
LTYPE
  2
CENTER
 70
     0
  3
____ _ ____ _ ____ _ ____ _ ____ _ ____ _ ____
 72
    65
 73
     4
 40
2.0
 49
1.25
 49
-0.25
 49
0.25
 49
-0.25
  0
LTYPE
  2
GESTRICHELT
 70
     0
  3

 72
    65
 73
     2
 40
2.0
 49
1.0
 49
-1.0
  0
LTYPE
  2
MITTE
 70
     0
  3

 72
    65
 73
     4
 40
2.0
 49
0.45
 49
-0.5
 49
0.05
 49
-0.5
  0
LTYPE
  2
PHANTOM2
 70
     0
  3
___ _ _ ___ _ _ ___ _ _ ___ _ _
 72
    65
 73
     6
 40
1.25
 49
0.625
 49
-0.125
 49
0.125
 49
-0.125
 49
0.125
 49
-0.125
  0
ENDTAB
  0
TABLE
  2
LAYER
 70
     3
  0
LAYER
  2
0
 70
     0
 62
     7
  6
CONTINUOUS
  0
LAYER
  2
1
 70
     0
 62
     1
  6
CENTER
  0
LAYER
  2
3
 70
     0
 62
     3
  6
CONTINUOUS
  0
ENDTAB
  0
TABLE
  2
STYLE
 70
     2
  0
STYLE
  2
STANDARD
 70
     0
 40
0.0
 41
1.0
 50
0.0
 71
     0
 42
0.2
  3
simplex.shx
  4
bigfont.shx
  0
STYLE
  2
STANDARD1
 70
     0
 40
0.0
 41
1.0
 50
0.0
 71
     0
 42
3.0
  3
txt
  4

  0
ENDTAB
  0
TABLE
  2
VIEW
 70
     0
  0
ENDTAB
  0
TABLE
  2
UCS
 70
     0
  0
ENDTAB
  0
TABLE
  2
APPID
 70
     3
  0
APPID
  2
ACAD
 70
     0
  0
APPID
  2
ACAD_MLEADERVER
 70
     0
  0
APPID
  2
ACAD_NAV_VCDISPLAY
 70
     0
  0
ENDTAB
  0
TABLE
  2
DIMSTYLE
 70
     2
  0
DIMSTYLE
  2
STANDARD
 70
     0
  3

  4

  5

  6

  7

 40
1.0
 41
0.18
 42
0.0625
 43
0.38
 44
0.18
 45
0.0
 46
0.0
 47
0.0
 48
0.0
140
0.18
141
0.09
142
0.0
143
25.399999999999999
144
1.0
145
0.0
146
1.0
147
0.09
 71
     0
 72
     0
 73
     1
 74
     1
 75
     0
 76
     0
 77
     0
 78
     0
170
     0
171
     2
172
     0
173
     0
174
     0
175
     0
176
     0
177
     0
178
     0
  0
DIMSTYLE
  2
ISO-25
 70
     0
  3

  4

  5

  6

  7

 40
1.0
 41
2.5
 42
0.625
 43
3.75
 44
1.25
 45
0.0
 46
0.0
 47
0.0
 48
0.0
140
2.5
141
2.5
142
0.0
143
0.03937007874016
144
1.0
145
0.0
146
1.0
147
0.625
 71
     0
 72
     0
 73
     0
 74
     0
 75
     0
 76
     0
 77
     1
 78
     8
170
     0
171
     3
172
     1
173
     0
174
     0
175
     0
176
     0
177
     0
178
     0
  0
ENDTAB
  0
ENDSEC
  0
SECTION
  2
BLOCKS
  0
BLOCK
  8
0
  2
$MODEL_SPACE
 70
     0
 10
0.0
 20
0.0
 30
0.0
  3
$MODEL_SPACE
  1

  0
ENDBLK
  5
21
  8
0
  0
BLOCK
 67
     1
  8
0
  2
$PAPER_SPACE
 70
     0
 10
0.0
 20
0.0
 30
0.0
  3
$PAPER_SPACE
  1

  0
ENDBLK
  5
5B
 67
     1
  8
0
  0
ENDSEC
  0
SECTION
  2
ENTITIES
  0
POINT
  5
2E6
  8
0
 10
115.6134624355158
 20
46.666983264175968
 30
0.0
210
0.0
220
1.0
230
0.0
  0
LINE
  5
2E7
  8
1
 10
115.6134624355158
 20
71.667555290364902
 30
0.0
 11
115.6134624355158
 21
22.666983264175961
 31
0.0
  0
LINE
  5
2E9
  8
3
 10
108.8404624355157
 20
27.666983264175968
 30
0.0
 11
108.8404624355157
 21
43.793983264175893
 31
0.0
  0
LINE
  5
2EC
  8
3
 10
122.3864624355158
 20
27.666983264175968
 30
0.0
 11
122.3864624355157
 21
43.793983264175893
 31
0.0
  0
POLYLINE
  5
2ED
  8
0
 66
     1
 10
0.0
 20
0.0
 30
0.0
  0
VERTEX
  5
57D
  8
0
 10
106.9532083976714
 20
63.894148677288022
 30
0.0
  0
VERTEX
  5
57E
  8
0
 10
106.9642021417516
 20
63.906122532229027
 30
0.0
  0
VERTEX
  5
57F
  8
0
 10
106.986740362272
 20
63.930008043664792
 30
0.0
  0
VERTEX
  5
580
  8
0
 10
107.0099731948785
 20
63.953761639417763
 30
0.0
  0
VERTEX
  5
581
  8
0
 10
107.0218341936354
 20
63.965571328959101
 30
0.0
  0
VERTEX
  5
582
  8
0
 10
107.0338492711587
 20
63.977327282534787
 30
0.0
  0
VERTEX
  5
583
  8
0
 10
107.0583133792104
 20
64.00065227714498
 30
0.0
  0
VERTEX
  5
584
  8
0
 10
107.08330692251749
 20
64.023687416075575
 30
0.0
  0
VERTEX
  5
585
  8
0
 10
107.1087683736082
 20
64.046387061796196
 30
0.0
  0
VERTEX
  5
586
  8
0
 10
107.13463378498071
 20
64.068709227855294
 30
0.0
  0
VERTEX
  5
587
  8
0
 10
107.1608381414415
 20
64.090616306082268
 30
0.0
  0
VERTEX
  5
588
  8
0
 10
107.1740463266886
 20
64.10140310839455
 30
0.0
  0
VERTEX
  5
589
  8
0
 10
107.1873135117545
 20
64.112073077009541
 30
0.0
  0
VERTEX
  5
58A
  8
0
 10
107.21398890828451
 20
64.133046365125466
 30
0.0
  0
VERTEX
  5
58B
  8
0
 10
107.2407909683704
 20
64.153505348065949
 30
0.0
  0
VERTEX
  5
58C
  8
0
 10
107.2676442960335
 20
64.173421541919964
 30
0.0
  0
VERTEX
  5
58D
  8
0
 10
107.29447177206021
 20
64.192768742360983
 30
0.0
  0
VERTEX
  5
58E
  8
0
 10
107.3211948369612
 20
64.21152293252365
 30
0.0
  0
VERTEX
  5
58F
  8
0
 10
107.3344923360292
 20
64.220670713309985
 30
0.0
  0
VERTEX
  5
590
  8
0
 10
107.34773375129799
 20
64.229662166439425
 30
0.0
  0
VERTEX
  5
591
  8
0
 10
107.37400783796529
 20
64.247166435198068
 30
0.0
  0
VERTEX
  5
592
  8
0
 10
107.4003375124579
 20
64.264275457806065
 30
0.0
  0
VERTEX
  5
593
  8
0
 10
107.4136983969882
 20
64.272798031257281
 30
0.0
  0
VERTEX
  5
594
  8
0
 10
107.4964206700427
 20
64.323330378404336
 30
0.0
  0
VERTEX
  5
595
  8
0
 10
107.6726461772441
 20
64.419762118308853
 30
0.0
  0
VERTEX
  5
596
  8
0
 10
107.8578240840381
 20
64.507555275207395
 30
0.0
  0
VERTEX
  5
597
  8
0
 10
108.0449819645367
 20
64.584849261038414
 30
0.0
  0
VERTEX
  5
598
  8
0
 10
108.2267425273694
 20
64.650730626546135
 30
0.0
  0
VERTEX
  5
599
  8
0
 10
108.41050284714279
 20
64.709482955507823
 30
0.0
  0
VERTEX
  5
59A
  8
0
 10
108.50608735233681
 20
64.737273751791889
 30
0.0
  0
VERTEX
  5
59B
  8
0
 10
108.6035470523417
 20
64.763827131123577
 30
0.0
  0
VERTEX
  5
59C
  8
0
 10
108.80225964356551
 20
64.812855429494931
 30
0.0
  0
VERTEX
  5
59D
  8
0
 10
109.0029337647227
 20
64.856092488440112
 30
0.0
  0
VERTEX
  5
59E
  8
0
 10
109.2017917592662
 20
64.893410448206737
 30
0.0
  0
VERTEX
  5
59F
  8
0
 10
109.39498719427949
 20
64.924946257587067
 30
0.0
  0
VERTEX
  5
5A0
  8
0
 10
109.5839904013545
 20
64.951738233120423
 30
0.0
  0
VERTEX
  5
5A1
  8
0
 10
109.682392474694
 20
64.964224466705076
 30
0.0
  0
VERTEX
  5
5A2
  8
0
 10
109.7829316870789
 20
64.976013208614006
 30
0.0
  0
VERTEX
  5
5A3
  8
0
 10
109.98726507486219
 20
64.997150310474126
 30
0.0
  0
VERTEX
  5
5A4
  8
0
 10
110.1906555744131
 20
65.014734379570854
 30
0.0
  0
VERTEX
  5
5A5
  8
0
 10
110.29000655669751
 20
65.022171326994993
 30
0.0
  0
SEQEND
  5
5A6
  8
0
  0
LINE
  5
2EE
  8
0
 10
106.9532083976714
 20
63.894148677288022
 30
0.0
 11
106.9532083976714
 21
47.838882819572802
 31
0.0
  0
POLYLINE
  5
2EF
  8
0
 66
     1
 10
0.0
 20
0.0
 30
0.0
  0
VERTEX
  5
5A7
  8
0
 10
111.70833759756241
 20
46.666983264175968
 30
0.0
  0
VERTEX
  5
5A8
  8
0
 10
111.56871353512879
 20
46.667303073282312
 30
0.0
  0
VERTEX
  5
5A9
  8
0
 10
111.28392137026989
 20
46.670140403238257
 30
0.0
  0
VERTEX
  5
5AA
  8
0
 10
110.99736946371409
 20
46.67643524873597
 30
0.0
  0
VERTEX
  5
5AB
  8
0
 10
110.85554392853381
 20
46.681016901018438
 30
0.0
  0
VERTEX
  5
5AC
  8
0
 10
110.715811024898
 20
46.686584451253822
 30
0.0
  0
VERTEX
  5
5AD
  8
0
 10
110.4459960831532
 20
46.700597790710589
 30
0.0
  0
VERTEX
  5
5AE
  8
0
 10
110.1747803187919
 20
46.719553387767057
 30
0.0
  0
VERTEX
  5
5AF
  8
0
 10
109.8904194403741
 20
46.745443824833814
 30
0.0
  0
VERTEX
  5
5B0
  8
0
 10
109.6100458859346
 20
46.777893122362137
 30
0.0
  0
VERTEX
  5
5B1
  8
0
 10
109.3455168573737
 20
46.81574412072959
 30
0.0
  0
VERTEX
  5
5B2
  8
0
 10
109.21027406227461
 20
46.838142491409847
 30
0.0
  0
VERTEX
  5
5B3
  8
0
 10
109.0722010824132
 20
46.863347363596368
 30
0.0
  0
VERTEX
  5
5B4
  8
0
 10
108.7927730272751
 20
46.922370110335322
 30
0.0
  0
VERTEX
  5
5B5
  8
0
 10
108.5174884096691
 20
46.99256079195731
 30
0.0
  0
VERTEX
  5
5B6
  8
0
 10
108.2563230670833
 20
47.072339967238378
 30
0.0
  0
VERTEX
  5
5B7
  8
0
 10
108.002437125706
 20
47.16485191039839
 30
0.0
  0
VERTEX
  5
5B8
  8
0
 10
107.85006794518721
 20
47.22891211672686
 30
0.0
  0
VERTEX
  5
5B9
  8
0
 10
107.8066437586109
 20
47.248519214770113
 30
0.0
  0
VERTEX
  5
5BA
  8
0
 10
107.7634343294023
 20
47.2686752000456
 30
0.0
  0
VERTEX
  5
5BB
  8
0
 10
107.7419375915412
 20
47.278952564324243
 30
0.0
  0
VERTEX
  5
5BC
  8
0
 10
107.72052728446999
 20
47.289359019302481
 30
0.0
  0
VERTEX
  5
5BD
  8
0
 10
107.6780090083314
 20
47.310546378715372
 30
0.0
  0
VERTEX
  5
5BE
  8
0
 10
107.63596496334669
 20
47.332209284142998
 30
0.0
  0
VERTEX
  5
5BF
  8
0
 10
107.6151471506587
 20
47.343209266110698
 30
0.0
  0
VERTEX
  5
5C0
  8
0
 10
107.5944793547006
 20
47.354315878693733
 30
0.0
  0
VERTEX
  5
5C1
  8
0
 10
107.5536347658026
 20
47.376830305389831
 30
0.0
  0
VERTEX
  5
5C2
  8
0
 10
107.51351177994439
 20
47.399712592597147
 30
0.0
  0
VERTEX
  5
5C3
  8
0
 10
107.4937454257926
 20
47.411278046718763
 30
0.0
  0
VERTEX
  5
5C4
  8
0
 10
107.4741885808934
 20
47.422918572518732
 30
0.0
  0
VERTEX
  5
5C5
  8
0
 10
107.4357405244666
 20
47.446399845814419
 30
0.0
  0
VERTEX
  5
5C6
  8
0
 10
107.3982396720469
 20
47.470103808990011
 30
0.0
  0
VERTEX
  5
5C7
  8
0
 10
107.3616279786517
 20
47.494057836671139
 30
0.0
  0
VERTEX
  5
5C8
  8
0
 10
107.32475504440259
 20
47.519047600520508
 30
0.0
  0
VERTEX
  5
5C9
  8
0
 10
107.2875034332089
 20
47.545236942511679
 30
0.0
  0
VERTEX
  5
5CA
  8
0
 10
107.2688031661478
 20
47.558763071671791
 30
0.0
  0
VERTEX
  5
5CB
  8
0
 10
107.2500887426886
 20
47.572566068024173
 30
0.0
  0
VERTEX
  5
5CC
  8
0
 10
107.21272185930169
 20
47.600967259102497
 30
0.0
  0
VERTEX
  5
5CD
  8
0
 10
107.175607533459
 20
47.630364323240173
 30
0.0
  0
VERTEX
  5
5CE
  8
0
 10
107.1389427672769
 20
47.660672265270563
 30
0.0
  0
VERTEX
  5
5CF
  8
0
 10
107.1029144849074
 20
47.691797719449049
 30
0.0
  0
VERTEX
  5
5D0
  8
0
 10
107.06769932284659
 20
47.723637761755953
 30
0.0
  0
VERTEX
  5
5D1
  8
0
 10
107.050450241029
 20
47.739789474363363
 30
0.0
  0
VERTEX
  5
5D2
  8
0
 10
107.03346755140809
 20
47.756074577516671
 30
0.0
  0
VERTEX
  5
5D3
  8
0
 10
107.0003791759774
 20
47.788976721521259
 30
0.0
  0
VERTEX
  5
5D4
  8
0
 10
106.96858140238
 20
47.822199632858648
 30
0.0
  0
VERTEX
  5
5D5
  8
0
 10
106.9532083976714
 20
47.838882819572802
 30
0.0
  0
SEQEND
  5
5D6
  8
0
  0
POLYLINE
  5
2F0
  8
0
 66
     1
 10
0.0
 20
0.0
 30
0.0
  0
VERTEX
  5
5D7
  8
0
 10
124.2737164733601
 20
47.838882819572802
 30
0.0
  0
VERTEX
  5
5D8
  8
0
 10
124.2583434686515
 20
47.822199632858648
 30
0.0
  0
VERTEX
  5
5D9
  8
0
 10
124.2265456950541
 20
47.788976721521259
 30
0.0
  0
VERTEX
  5
5DA
  8
0
 10
124.19345731962341
 20
47.756074577516671
 30
0.0
  0
VERTEX
  5
5DB
  8
0
 10
124.1764746300024
 20
47.739789474363363
 30
0.0
  0
VERTEX
  5
5DC
  8
0
 10
124.15922554818491
 20
47.723637761755953
 30
0.0
  0
VERTEX
  5
5DD
  8
0
 10
124.1240103861241
 20
47.691797719449049
 30
0.0
  0
VERTEX
  5
5DE
  8
0
 10
124.0879821037546
 20
47.660672265270563
 30
0.0
  0
VERTEX
  5
5DF
  8
0
 10
124.0513173375725
 20
47.630364323240173
 30
0.0
  0
VERTEX
  5
5E0
  8
0
 10
124.0142030117298
 20
47.600967259102497
 30
0.0
  0
VERTEX
  5
5E1
  8
0
 10
123.9768361283429
 20
47.572566068024173
 30
0.0
  0
VERTEX
  5
5E2
  8
0
 10
123.95812170488369
 20
47.558763071671791
 30
0.0
  0
VERTEX
  5
5E3
  8
0
 10
123.9394214378226
 20
47.545236942511679
 30
0.0
  0
VERTEX
  5
5E4
  8
0
 10
123.90216982662891
 20
47.519047600520508
 30
0.0
  0
VERTEX
  5
5E5
  8
0
 10
123.8652968923797
 20
47.494057836671139
 30
0.0
  0
VERTEX
  5
5E6
  8
0
 10
123.8286851989846
 20
47.470103808990011
 30
0.0
  0
VERTEX
  5
5E7
  8
0
 10
123.7911843465649
 20
47.446399845814419
 30
0.0
  0
VERTEX
  5
5E8
  8
0
 10
123.7527362901381
 20
47.422918572518732
 30
0.0
  0
VERTEX
  5
5E9
  8
0
 10
123.733179445239
 20
47.411278046718763
 30
0.0
  0
VERTEX
  5
5EA
  8
0
 10
123.71341309108711
 20
47.399712592597147
 30
0.0
  0
VERTEX
  5
5EB
  8
0
 10
123.6732901052289
 20
47.376830305389831
 30
0.0
  0
VERTEX
  5
5EC
  8
0
 10
123.6324455163309
 20
47.354315878693733
 30
0.0
  0
VERTEX
  5
5ED
  8
0
 10
123.6117777203728
 20
47.343209266110698
 30
0.0
  0
VERTEX
  5
5EE
  8
0
 10
123.59095990768481
 20
47.332209284142998
 30
0.0
  0
VERTEX
  5
5EF
  8
0
 10
123.5489158627001
 20
47.310546378715387
 30
0.0
  0
VERTEX
  5
5F0
  8
0
 10
123.5063975865615
 20
47.289359019302481
 30
0.0
  0
VERTEX
  5
5F1
  8
0
 10
123.4849872794902
 20
47.278952564324243
 30
0.0
  0
VERTEX
  5
5F2
  8
0
 10
123.4634905416292
 20
47.2686752000456
 30
0.0
  0
VERTEX
  5
5F3
  8
0
 10
123.4202811124206
 20
47.248519214770113
 30
0.0
  0
VERTEX
  5
5F4
  8
0
 10
123.37685692584429
 20
47.22891211672686
 30
0.0
  0
VERTEX
  5
5F5
  8
0
 10
123.2244877453254
 20
47.16485191039839
 30
0.0
  0
VERTEX
  5
5F6
  8
0
 10
122.9706018039482
 20
47.072339967238378
 30
0.0
  0
VERTEX
  5
5F7
  8
0
 10
122.7094364613624
 20
46.99256079195731
 30
0.0
  0
VERTEX
  5
5F8
  8
0
 10
122.4341518437564
 20
46.922370110335322
 30
0.0
  0
VERTEX
  5
5F9
  8
0
 10
122.1547237886183
 20
46.863347363596368
 30
0.0
  0
VERTEX
  5
5FA
  8
0
 10
122.01665080875691
 20
46.838142491409847
 30
0.0
  0
VERTEX
  5
5FB
  8
0
 10
121.8814080136578
 20
46.81574412072959
 30
0.0
  0
VERTEX
  5
5FC
  8
0
 10
121.6168789850969
 20
46.777893122362137
 30
0.0
  0
VERTEX
  5
5FD
  8
0
 10
121.3365054306574
 20
46.745443824833814
 30
0.0
  0
VERTEX
  5
5FE
  8
0
 10
121.0521445522396
 20
46.719553387767057
 30
0.0
  0
VERTEX
  5
5FF
  8
0
 10
120.7809287878783
 20
46.700597790710589
 30
0.0
  0
VERTEX
  5
600
  8
0
 10
120.5111138461334
 20
46.686584451253822
 30
0.0
  0
VERTEX
  5
601
  8
0
 10
120.37138094249769
 20
46.681016901018438
 30
0.0
  0
VERTEX
  5
602
  8
0
 10
120.22955540731741
 20
46.67643524873597
 30
0.0
  0
VERTEX
  5
603
  8
0
 10
119.94300350076161
 20
46.670140403238257
 30
0.0
  0
VERTEX
  5
604
  8
0
 10
119.65821133590271
 20
46.667303073282312
 30
0.0
  0
VERTEX
  5
605
  8
0
 10
119.51858727346909
 20
46.666983264175968
 30
0.0
  0
SEQEND
  5
606
  8
0
  0
LINE
  5
2F1
  8
0
 10
124.2737164733601
 20
63.894148677288022
 30
0.0
 11
124.2737164733601
 21
47.838882819572802
 31
0.0
  0
POLYLINE
  5
2F2
  8
0
 66
     1
 10
0.0
 20
0.0
 30
0.0
  0
VERTEX
  5
607
  8
0
 10
120.93691831433389
 20
65.022171326994993
 30
0.0
  0
VERTEX
  5
608
  8
0
 10
121.0362692966184
 20
65.014734379570854
 30
0.0
  0
VERTEX
  5
609
  8
0
 10
121.23965979616931
 20
64.997150310474126
 30
0.0
  0
VERTEX
  5
60A
  8
0
 10
121.4439931839525
 20
64.976013208614006
 30
0.0
  0
VERTEX
  5
60B
  8
0
 10
121.5445323963375
 20
64.964224466705076
 30
0.0
  0
VERTEX
  5
60C
  8
0
 10
121.642934469677
 20
64.951738233120423
 30
0.0
  0
VERTEX
  5
60D
  8
0
 10
121.83193767675201
 20
64.924946257587067
 30
0.0
  0
VERTEX
  5
60E
  8
0
 10
122.0251331117653
 20
64.893410448206737
 30
0.0
  0
VERTEX
  5
60F
  8
0
 10
122.2239911063087
 20
64.856092488440112
 30
0.0
  0
VERTEX
  5
610
  8
0
 10
122.42466522746599
 20
64.812855429494931
 30
0.0
  0
VERTEX
  5
611
  8
0
 10
122.6233778186898
 20
64.763827131123577
 30
0.0
  0
VERTEX
  5
612
  8
0
 10
122.72083751869469
 20
64.737273751791889
 30
0.0
  0
VERTEX
  5
613
  8
0
 10
122.81642202388871
 20
64.709482955507823
 30
0.0
  0
VERTEX
  5
614
  8
0
 10
123.0001823436621
 20
64.650730626546135
 30
0.0
  0
VERTEX
  5
615
  8
0
 10
123.1819429064948
 20
64.584849261038414
 30
0.0
  0
VERTEX
  5
616
  8
0
 10
123.3691007869934
 20
64.507555275207395
 30
0.0
  0
VERTEX
  5
617
  8
0
 10
123.5542786937875
 20
64.419762118308853
 30
0.0
  0
VERTEX
  5
618
  8
0
 10
123.7305042009889
 20
64.323330378404336
 30
0.0
  0
VERTEX
  5
619
  8
0
 10
123.8132264740433
 20
64.272798031257281
 30
0.0
  0
VERTEX
  5
61A
  8
0
 10
123.8265873585736
 20
64.264275457806065
 30
0.0
  0
VERTEX
  5
61B
  8
0
 10
123.85291703306621
 20
64.247166435198096
 30
0.0
  0
VERTEX
  5
61C
  8
0
 10
123.87919111973351
 20
64.229662166439454
 30
0.0
  0
VERTEX
  5
61D
  8
0
 10
123.8924325350023
 20
64.220670713309985
 30
0.0
  0
VERTEX
  5
61E
  8
0
 10
123.9057300340703
 20
64.21152293252365
 30
0.0
  0
VERTEX
  5
61F
  8
0
 10
123.93245309897129
 20
64.192768742360983
 30
0.0
  0
VERTEX
  5
620
  8
0
 10
123.959280574998
 20
64.173421541919964
 30
0.0
  0
VERTEX
  5
621
  8
0
 10
123.98613390266109
 20
64.153505348065949
 30
0.0
  0
VERTEX
  5
622
  8
0
 10
124.01293596274699
 20
64.133046365125466
 30
0.0
  0
VERTEX
  5
623
  8
0
 10
124.039611359277
 20
64.112073077009541
 30
0.0
  0
VERTEX
  5
624
  8
0
 10
124.0528785443429
 20
64.10140310839455
 30
0.0
  0
VERTEX
  5
625
  8
0
 10
124.06608672959
 20
64.090616306082268
 30
0.0
  0
VERTEX
  5
626
  8
0
 10
124.09229108605081
 20
64.068709227855294
 30
0.0
  0
VERTEX
  5
627
  8
0
 10
124.1181564974233
 20
64.046387061796196
 30
0.0
  0
VERTEX
  5
628
  8
0
 10
124.14361794851401
 20
64.023687416075575
 30
0.0
  0
VERTEX
  5
629
  8
0
 10
124.1686114918211
 20
64.00065227714498
 30
0.0
  0
VERTEX
  5
62A
  8
0
 10
124.1930755998728
 20
63.977327282534759
 30
0.0
  0
VERTEX
  5
62B
  8
0
 10
124.2050906773961
 20
63.965571328959101
 30
0.0
  0
VERTEX
  5
62C
  8
0
 10
124.216951676153
 20
63.953761639417763
 30
0.0
  0
VERTEX
  5
62D
  8
0
 10
124.2401845087595
 20
63.930008043664792
 30
0.0
  0
VERTEX
  5
62E
  8
0
 10
124.2627227292799
 20
63.906122532229027
 30
0.0
  0
VERTEX
  5
62F
  8
0
 10
124.2737164733601
 20
63.894148677288022
 30
0.0
  0
SEQEND
  5
630
  8
0
  0
POLYLINE
  5
2F3
  8
0
 66
     1
 10
0.0
 20
0.0
 30
0.0
  0
VERTEX
  5
631
  8
0
 10
110.29000655669751
 20
65.022171326994936
 30
0.0
  0
VERTEX
  5
632
  8
0
 10
112.0872679202111
 20
65.128479415460305
 30
0.0
  0
VERTEX
  5
633
  8
0
 10
115.6134624355158
 20
65.211432478865234
 30
0.0
  0
VERTEX
  5
634
  8
0
 10
119.1396569508204
 20
65.128479415460305
 30
0.0
  0
VERTEX
  5
635
  8
0
 10
120.93691831433389
 20
65.022171326994936
 30
0.0
  0
SEQEND
  5
636
  8
0
  0
POLYLINE
  5
2F4
  8
0
 66
     1
 10
0.0
 20
0.0
 30
0.0
  0
VERTEX
  5
637
  8
0
 10
124.2737164733601
 20
63.894148677288022
 30
0.0
  0
VERTEX
  5
638
  8
0
 10
124.27921334540029
 20
63.906122532229027
 30
0.0
  0
VERTEX
  5
639
  8
0
 10
124.2904824556605
 20
63.930008043664792
 30
0.0
  0
VERTEX
  5
63A
  8
0
 10
124.30209887196369
 20
63.953761639417763
 30
0.0
  0
VERTEX
  5
63B
  8
0
 10
124.3080293713421
 20
63.965571328959101
 30
0.0
  0
VERTEX
  5
63C
  8
0
 10
124.31403691010379
 20
63.977327282534759
 30
0.0
  0
VERTEX
  5
63D
  8
0
 10
124.3262689641296
 20
64.00065227714498
 30
0.0
  0
VERTEX
  5
63E
  8
0
 10
124.3387657357832
 20
64.023687416075575
 30
0.0
  0
VERTEX
  5
63F
  8
0
 10
124.35149646132849
 20
64.046387061796196
 30
0.0
  0
VERTEX
  5
640
  8
0
 10
124.3644291670148
 20
64.068709227855294
 30
0.0
  0
VERTEX
  5
641
  8
0
 10
124.3775313452452
 20
64.090616306082268
 30
0.0
  0
VERTEX
  5
642
  8
0
 10
124.38413543786869
 20
64.10140310839455
 30
0.0
  0
VERTEX
  5
643
  8
0
 10
124.3907690304018
 20
64.112073077009541
 30
0.0
  0
VERTEX
  5
644
  8
0
 10
124.4041067286667
 20
64.133046365125466
 30
0.0
  0
VERTEX
  5
645
  8
0
 10
124.4175077587097
 20
64.153505348065949
 30
0.0
  0
VERTEX
  5
646
  8
0
 10
124.4309344225412
 20
64.173421541919964
 30
0.0
  0
VERTEX
  5
647
  8
0
 10
124.4443481605545
 20
64.192768742360983
 30
0.0
  0
VERTEX
  5
648
  8
0
 10
124.4577096930051
 20
64.21152293252365
 30
0.0
  0
VERTEX
  5
649
  8
0
 10
124.46435844253909
 20
64.220670713309985
 30
0.0
  0
VERTEX
  5
64A
  8
0
 10
124.47097915017351
 20
64.229662166439454
 30
0.0
  0
VERTEX
  5
64B
  8
0
 10
124.48411619350711
 20
64.247166435198068
 30
0.0
  0
VERTEX
  5
64C
  8
0
 10
124.4972810307535
 20
64.264275457806065
 30
0.0
  0
VERTEX
  5
64D
  8
0
 10
124.50396147301851
 20
64.272798031257281
 30
0.0
  0
VERTEX
  5
64E
  8
0
 10
124.54532260954581
 20
64.323330378404336
 30
0.0
  0
VERTEX
  5
64F
  8
0
 10
124.6334353631465
 20
64.419762118308853
 30
0.0
  0
VERTEX
  5
650
  8
0
 10
124.7260243165435
 20
64.507555275207395
 30
0.0
  0
VERTEX
  5
651
  8
0
 10
124.8196032567928
 20
64.584849261038414
 30
0.0
  0
VERTEX
  5
652
  8
0
 10
124.91048353820911
 20
64.650730626546135
 30
0.0
  0
VERTEX
  5
653
  8
0
 10
125.00236369809591
 20
64.709482955507823
 30
0.0
  0
VERTEX
  5
654
  8
0
 10
125.0501559506929
 20
64.737273751791889
 30
0.0
  0
VERTEX
  5
655
  8
0
 10
125.0988858006953
 20
64.763827131123577
 30
0.0
  0
VERTEX
  5
656
  8
0
 10
125.1982420963072
 20
64.812855429494931
 30
0.0
  0
VERTEX
  5
657
  8
0
 10
125.29857915688579
 20
64.856092488440112
 30
0.0
  0
VERTEX
  5
658
  8
0
 10
125.39800815415759
 20
64.893410448206737
 30
0.0
  0
VERTEX
  5
659
  8
0
 10
125.49460587166421
 20
64.924946257587067
 30
0.0
  0
VERTEX
  5
65A
  8
0
 10
125.5891074752017
 20
64.951738233120423
 30
0.0
  0
VERTEX
  5
65B
  8
0
 10
125.6383085118715
 20
64.964224466705076
 30
0.0
  0
VERTEX
  5
65C
  8
0
 10
125.6885781180639
 20
64.976013208614006
 30
0.0
  0
VERTEX
  5
65D
  8
0
 10
125.79074481195561
 20
64.997150310474126
 30
0.0
  0
VERTEX
  5
65E
  8
0
 10
125.89244006173099
 20
65.014734379570854
 30
0.0
  0
VERTEX
  5
65F
  8
0
 10
125.9421155528732
 20
65.022171326994993
 30
0.0
  0
SEQEND
  5
660
  8
0
  0
POLYLINE
  5
2F5
  8
0
 66
     1
 10
0.0
 20
0.0
 30
0.0
  0
VERTEX
  5
661
  8
0
 10
126.6512810733056
 20
46.666983264175968
 30
0.0
  0
VERTEX
  5
662
  8
0
 10
126.5814690420889
 20
46.667303073282312
 30
0.0
  0
VERTEX
  5
663
  8
0
 10
126.4390729596594
 20
46.670140403238257
 30
0.0
  0
VERTEX
  5
664
  8
0
 10
126.29579700638141
 20
46.67643524873597
 30
0.0
  0
VERTEX
  5
665
  8
0
 10
126.2248842387913
 20
46.681016901018438
 30
0.0
  0
VERTEX
  5
666
  8
0
 10
126.1550177869734
 20
46.686584451253822
 30
0.0
  0
VERTEX
  5
667
  8
0
 10
126.020110316101
 20
46.700597790710589
 30
0.0
  0
VERTEX
  5
668
  8
0
 10
125.8845024339204
 20
46.719553387767057
 30
0.0
  0
VERTEX
  5
669
  8
0
 10
125.7423219947115
 20
46.745443824833814
 30
0.0
  0
VERTEX
  5
66A
  8
0
 10
125.60213521749171
 20
46.777893122362137
 30
0.0
  0
VERTEX
  5
66B
  8
0
 10
125.4698707032113
 20
46.81574412072959
 30
0.0
  0
VERTEX
  5
66C
  8
0
 10
125.4022493056617
 20
46.838142491409847
 30
0.0
  0
VERTEX
  5
66D
  8
0
 10
125.333212815731
 20
46.863347363596368
 30
0.0
  0
VERTEX
  5
66E
  8
0
 10
125.193498788162
 20
46.922370110335322
 30
0.0
  0
VERTEX
  5
66F
  8
0
 10
125.05585647935899
 20
46.99256079195731
 30
0.0
  0
VERTEX
  5
670
  8
0
 10
124.92527380806609
 20
47.072339967238378
 30
0.0
  0
VERTEX
  5
671
  8
0
 10
124.79833083737751
 20
47.16485191039839
 30
0.0
  0
VERTEX
  5
672
  8
0
 10
124.7221462471181
 20
47.22891211672686
 30
0.0
  0
VERTEX
  5
673
  8
0
 10
124.7004341538299
 20
47.248519214770113
 30
0.0
  0
VERTEX
  5
674
  8
0
 10
124.67882943922559
 20
47.2686752000456
 30
0.0
  0
VERTEX
  5
675
  8
0
 10
124.6680810702951
 20
47.278952564324243
 30
0.0
  0
VERTEX
  5
676
  8
0
 10
124.65737591675941
 20
47.289359019302481
 30
0.0
  0
VERTEX
  5
677
  8
0
 10
124.63611677869009
 20
47.310546378715372
 30
0.0
  0
VERTEX
  5
678
  8
0
 10
124.61509475619781
 20
47.332209284142998
 30
0.0
  0
VERTEX
  5
679
  8
0
 10
124.60468584985379
 20
47.343209266110698
 30
0.0
  0
VERTEX
  5
67A
  8
0
 10
124.5943519518748
 20
47.354315878693733
 30
0.0
  0
VERTEX
  5
67B
  8
0
 10
124.57392965742569
 20
47.376830305389831
 30
0.0
  0
VERTEX
  5
67C
  8
0
 10
124.55386816449671
 20
47.399712592597147
 30
0.0
  0
VERTEX
  5
67D
  8
0
 10
124.5439849874207
 20
47.411278046718763
 30
0.0
  0
VERTEX
  5
67E
  8
0
 10
124.5342065649711
 20
47.422918572518732
 30
0.0
  0
VERTEX
  5
67F
  8
0
 10
124.5149825367577
 20
47.446399845814419
 30
0.0
  0
VERTEX
  5
680
  8
0
 10
124.49623211054789
 20
47.470103808990011
 30
0.0
  0
VERTEX
  5
681
  8
0
 10
124.47792626385031
 20
47.494057836671139
 30
0.0
  0
VERTEX
  5
682
  8
0
 10
124.4594897967258
 20
47.519047600520508
 30
0.0
  0
VERTEX
  5
683
  8
0
 10
124.44086399112889
 20
47.545236942511679
 30
0.0
  0
VERTEX
  5
684
  8
0
 10
124.4315138575983
 20
47.558763071671791
 30
0.0
  0
VERTEX
  5
685
  8
0
 10
124.4221566458687
 20
47.572566068024173
 30
0.0
  0
VERTEX
  5
686
  8
0
 10
124.4034732041753
 20
47.600967259102497
 30
0.0
  0
VERTEX
  5
687
  8
0
 10
124.3849160412539
 20
47.630364323240173
 30
0.0
  0
VERTEX
  5
688
  8
0
 10
124.3665836581629
 20
47.660672265270563
 30
0.0
  0
VERTEX
  5
689
  8
0
 10
124.3485695169781
 20
47.691797719449049
 30
0.0
  0
VERTEX
  5
68A
  8
0
 10
124.3309619359478
 20
47.723637761755953
 30
0.0
  0
VERTEX
  5
68B
  8
0
 10
124.3223373950389
 20
47.739789474363327
 30
0.0
  0
VERTEX
  5
68C
  8
0
 10
124.31384605022851
 20
47.756074577516671
 30
0.0
  0
VERTEX
  5
68D
  8
0
 10
124.29730186251309
 20
47.788976721521259
 30
0.0
  0
VERTEX
  5
68E
  8
0
 10
124.2814029757144
 20
47.822199632858648
 30
0.0
  0
VERTEX
  5
68F
  8
0
 10
124.2737164733601
 20
47.838882819572802
 30
0.0
  0
SEQEND
  5
690
  8
0
  0
LINE
  5
2F7
  8
0
 10
132.93397051120451
 20
63.894148677288022
 30
0.0
 11
132.93397051120451
 21
47.838882819572802
 31
0.0
  0
POLYLINE
  5
2F8
  8
0
 66
     1
 10
0.0
 20
0.0
 30
0.0
  0
VERTEX
  5
691
  8
0
 10
131.2655714316914
 20
65.022171326994993
 30
0.0
  0
VERTEX
  5
692
  8
0
 10
131.31524692283369
 20
65.014734379570854
 30
0.0
  0
VERTEX
  5
693
  8
0
 10
131.41694217260911
 20
64.997150310474126
 30
0.0
  0
VERTEX
  5
694
  8
0
 10
131.51910886650069
 20
64.976013208614006
 30
0.0
  0
VERTEX
  5
695
  8
0
 10
131.56937847269319
 20
64.964224466705076
 30
0.0
  0
VERTEX
  5
696
  8
0
 10
131.61857950936289
 20
64.951738233120423
 30
0.0
  0
VERTEX
  5
697
  8
0
 10
131.7130811129004
 20
64.924946257587067
 30
0.0
  0
VERTEX
  5
698
  8
0
 10
131.80967883040711
 20
64.893410448206737
 30
0.0
  0
VERTEX
  5
699
  8
0
 10
131.90910782767881
 20
64.856092488440112
 30
0.0
  0
VERTEX
  5
69A
  8
0
 10
132.00944488825741
 20
64.812855429494931
 30
0.0
  0
VERTEX
  5
69B
  8
0
 10
132.10880118386939
 20
64.763827131123577
 30
0.0
  0
VERTEX
  5
69C
  8
0
 10
132.15753103387181
 20
64.737273751791889
 30
0.0
  0
VERTEX
  5
69D
  8
0
 10
132.2053232864688
 20
64.709482955507823
 30
0.0
  0
VERTEX
  5
69E
  8
0
 10
132.2972034463555
 20
64.650730626546135
 30
0.0
  0
VERTEX
  5
69F
  8
0
 10
132.3880837277718
 20
64.584849261038414
 30
0.0
  0
VERTEX
  5
6A0
  8
0
 10
132.4816626680211
 20
64.507555275207395
 30
0.0
  0
VERTEX
  5
6A1
  8
0
 10
132.5742516214182
 20
64.419762118308853
 30
0.0
  0
VERTEX
  5
6A2
  8
0
 10
132.66236437501891
 20
64.323330378404336
 30
0.0
  0
VERTEX
  5
6A3
  8
0
 10
132.70372551154611
 20
64.272798031257281
 30
0.0
  0
VERTEX
  5
6A4
  8
0
 10
132.7104059538112
 20
64.264275457806065
 30
0.0
  0
VERTEX
  5
6A5
  8
0
 10
132.72357079105751
 20
64.247166435198096
 30
0.0
  0
VERTEX
  5
6A6
  8
0
 10
132.73670783439121
 20
64.229662166439454
 30
0.0
  0
VERTEX
  5
6A7
  8
0
 10
132.74332854202561
 20
64.220670713310028
 30
0.0
  0
VERTEX
  5
6A8
  8
0
 10
132.74997729155959
 20
64.21152293252365
 30
0.0
  0
VERTEX
  5
6A9
  8
0
 10
132.76333882401011
 20
64.192768742361011
 30
0.0
  0
VERTEX
  5
6AA
  8
0
 10
132.77675256202349
 20
64.173421541919964
 30
0.0
  0
VERTEX
  5
6AB
  8
0
 10
132.79017922585501
 20
64.153505348065949
 30
0.0
  0
VERTEX
  5
6AC
  8
0
 10
132.803580255898
 20
64.133046365125466
 30
0.0
  0
VERTEX
  5
6AD
  8
0
 10
132.8169179541629
 20
64.112073077009541
 30
0.0
  0
VERTEX
  5
6AE
  8
0
 10
132.82355154669591
 20
64.10140310839455
 30
0.0
  0
VERTEX
  5
6AF
  8
0
 10
132.8301556393194
 20
64.090616306082268
 30
0.0
  0
VERTEX
  5
6B0
  8
0
 10
132.84325781754981
 20
64.068709227855294
 30
0.0
  0
VERTEX
  5
6B1
  8
0
 10
132.85619052323611
 20
64.046387061796196
 30
0.0
  0
VERTEX
  5
6B2
  8
0
 10
132.86892124878139
 20
64.023687416075575
 30
0.0
  0
VERTEX
  5
6B3
  8
0
 10
132.88141802043501
 20
64.00065227714498
 30
0.0
  0
VERTEX
  5
6B4
  8
0
 10
132.89365007446091
 20
63.977327282534787
 30
0.0
  0
VERTEX
  5
6B5
  8
0
 10
132.8996576132225
 20
63.965571328959101
 30
0.0
  0
VERTEX
  5
6B6
  8
0
 10
132.90558811260101
 20
63.953761639417763
 30
0.0
  0
VERTEX
  5
6B7
  8
0
 10
132.91720452890419
 20
63.930008043664792
 30
0.0
  0
VERTEX
  5
6B8
  8
0
 10
132.92847363916439
 20
63.906122532229027
 30
0.0
  0
VERTEX
  5
6B9
  8
0
 10
132.93397051120451
 20
63.894148677288022
 30
0.0
  0
SEQEND
  5
6BA
  8
0
  0
POLYLINE
  5
2F9
  8
0
 66
     1
 10
0.0
 20
0.0
 30
0.0
  0
VERTEX
  5
6BB
  8
0
 10
125.9421155528732
 20
65.022171326994908
 30
0.0
  0
VERTEX
  5
6BC
  8
0
 10
126.84074623463
 20
65.128479415460305
 30
0.0
  0
VERTEX
  5
6BD
  8
0
 10
128.60384349228229
 20
65.211432478865234
 30
0.0
  0
VERTEX
  5
6BE
  8
0
 10
130.3669407499346
 20
65.128479415460305
 30
0.0
  0
VERTEX
  5
6BF
  8
0
 10
131.2655714316914
 20
65.022171326994908
 30
0.0
  0
SEQEND
  5
6C0
  8
0
  0
POLYLINE
  5
2FF
  8
0
 66
     1
 10
0.0
 20
0.0
 30
0.0
  0
VERTEX
  5
6C1
  8
0
 10
105.2848093181583
 20
65.022171326994993
 30
0.0
  0
VERTEX
  5
6C2
  8
0
 10
105.33448480930051
 20
65.014734379570854
 30
0.0
  0
VERTEX
  5
6C3
  8
0
 10
105.43618005907589
 20
64.997150310474126
 30
0.0
  0
VERTEX
  5
6C4
  8
0
 10
105.5383467529676
 20
64.976013208614006
 30
0.0
  0
VERTEX
  5
6C5
  8
0
 10
105.58861635916
 20
64.964224466705076
 30
0.0
  0
VERTEX
  5
6C6
  8
0
 10
105.6378173958298
 20
64.951738233120423
 30
0.0
  0
VERTEX
  5
6C7
  8
0
 10
105.73231899936729
 20
64.924946257587067
 30
0.0
  0
VERTEX
  5
6C8
  8
0
 10
105.82891671687391
 20
64.893410448206737
 30
0.0
  0
VERTEX
  5
6C9
  8
0
 10
105.92834571414571
 20
64.856092488440112
 30
0.0
  0
VERTEX
  5
6CA
  8
0
 10
106.0286827747243
 20
64.812855429494931
 30
0.0
  0
VERTEX
  5
6CB
  8
0
 10
106.1280390703362
 20
64.763827131123577
 30
0.0
  0
VERTEX
  5
6CC
  8
0
 10
106.1767689203386
 20
64.737273751791889
 30
0.0
  0
VERTEX
  5
6CD
  8
0
 10
106.22456117293559
 20
64.709482955507823
 30
0.0
  0
VERTEX
  5
6CE
  8
0
 10
106.31644133282229
 20
64.650730626546135
 30
0.0
  0
VERTEX
  5
6CF
  8
0
 10
106.4073216142387
 20
64.584849261038414
 30
0.0
  0
VERTEX
  5
6D0
  8
0
 10
106.500900554488
 20
64.507555275207395
 30
0.0
  0
VERTEX
  5
6D1
  8
0
 10
106.593489507885
 20
64.419762118308853
 30
0.0
  0
VERTEX
  5
6D2
  8
0
 10
106.68160226148569
 20
64.323330378404336
 30
0.0
  0
VERTEX
  5
6D3
  8
0
 10
106.72296339801299
 20
64.272798031257281
 30
0.0
  0
VERTEX
  5
6D4
  8
0
 10
106.729643840278
 20
64.264275457806065
 30
0.0
  0
VERTEX
  5
6D5
  8
0
 10
106.74280867752439
 20
64.247166435198068
 30
0.0
  0
VERTEX
  5
6D6
  8
0
 10
106.75594572085799
 20
64.229662166439454
 30
0.0
  0
VERTEX
  5
6D7
  8
0
 10
106.76256642849241
 20
64.220670713309985
 30
0.0
  0
VERTEX
  5
6D8
  8
0
 10
106.7692151780264
 20
64.211522932523621
 30
0.0
  0
VERTEX
  5
6D9
  8
0
 10
106.7825767104769
 20
64.192768742360983
 30
0.0
  0
VERTEX
  5
6DA
  8
0
 10
106.7959904484903
 20
64.173421541919964
 30
0.0
  0
VERTEX
  5
6DB
  8
0
 10
106.8094171123218
 20
64.153505348065949
 30
0.0
  0
VERTEX
  5
6DC
  8
0
 10
106.8228181423648
 20
64.133046365125466
 30
0.0
  0
VERTEX
  5
6DD
  8
0
 10
106.8361558406297
 20
64.112073077009541
 30
0.0
  0
VERTEX
  5
6DE
  8
0
 10
106.84278943316281
 20
64.10140310839455
 30
0.0
  0
VERTEX
  5
6DF
  8
0
 10
106.8493935257863
 20
64.090616306082268
 30
0.0
  0
VERTEX
  5
6E0
  8
0
 10
106.86249570401669
 20
64.068709227855294
 30
0.0
  0
VERTEX
  5
6E1
  8
0
 10
106.87542840970301
 20
64.046387061796196
 30
0.0
  0
VERTEX
  5
6E2
  8
0
 10
106.8881591352483
 20
64.023687416075575
 30
0.0
  0
VERTEX
  5
6E3
  8
0
 10
106.9006559069018
 20
64.00065227714498
 30
0.0
  0
VERTEX
  5
6E4
  8
0
 10
106.9128879609277
 20
63.977327282534759
 30
0.0
  0
VERTEX
  5
6E5
  8
0
 10
106.9188954996894
 20
63.965571328959101
 30
0.0
  0
VERTEX
  5
6E6
  8
0
 10
106.92482599906781
 20
63.953761639417763
 30
0.0
  0
VERTEX
  5
6E7
  8
0
 10
106.936442415371
 20
63.930008043664792
 30
0.0
  0
VERTEX
  5
6E8
  8
0
 10
106.94771152563121
 20
63.906122532229027
 30
0.0
  0
VERTEX
  5
6E9
  8
0
 10
106.9532083976714
 20
63.894148677288022
 30
0.0
  0
SEQEND
  5
6EA
  8
0
  0
POLYLINE
  5
300
  8
0
 66
     1
 10
0.0
 20
0.0
 30
0.0
  0
VERTEX
  5
6EB
  8
0
 10
99.961353439340087
 20
65.022171326994908
 30
0.0
  0
VERTEX
  5
6EC
  8
0
 10
100.8599841210969
 20
65.128479415460305
 30
0.0
  0
VERTEX
  5
6ED
  8
0
 10
102.62308137874921
 20
65.211432478865234
 30
0.0
  0
VERTEX
  5
6EE
  8
0
 10
104.3861786364015
 20
65.128479415460305
 30
0.0
  0
VERTEX
  5
6EF
  8
0
 10
105.2848093181583
 20
65.022171326994908
 30
0.0
  0
SEQEND
  5
6F0
  8
0
  0
POLYLINE
  5
301
  8
0
 66
     1
 10
0.0
 20
0.0
 30
0.0
  0
VERTEX
  5
6F1
  8
0
 10
98.292954359826979
 20
63.894148677288022
 30
0.0
  0
VERTEX
  5
6F2
  8
0
 10
98.298451231867134
 20
63.906122532229027
 30
0.0
  0
VERTEX
  5
6F3
  8
0
 10
98.309720342127335
 20
63.930008043664792
 30
0.0
  0
VERTEX
  5
6F4
  8
0
 10
98.321336758430618
 20
63.953761639417763
 30
0.0
  0
VERTEX
  5
6F5
  8
0
 10
98.327267257809012
 20
63.965571328959101
 30
0.0
  0
VERTEX
  5
6F6
  8
0
 10
98.333274796570663
 20
63.977327282534787
 30
0.0
  0
VERTEX
  5
6F7
  8
0
 10
98.345506850596507
 20
64.00065227714498
 30
0.0
  0
VERTEX
  5
6F8
  8
0
 10
98.358003622250081
 20
64.023687416075575
 30
0.0
  0
VERTEX
  5
6F9
  8
0
 10
98.370734347795405
 20
64.046387061796196
 30
0.0
  0
VERTEX
  5
6FA
  8
0
 10
98.383667053481716
 20
64.068709227855294
 30
0.0
  0
VERTEX
  5
6FB
  8
0
 10
98.396769231712085
 20
64.090616306082268
 30
0.0
  0
VERTEX
  5
6FC
  8
0
 10
98.403373324335575
 20
64.10140310839455
 30
0.0
  0
VERTEX
  5
6FD
  8
0
 10
98.41000691686861
 20
64.112073077009541
 30
0.0
  0
VERTEX
  5
6FE
  8
0
 10
98.423344615133544
 20
64.133046365125466
 30
0.0
  0
VERTEX
  5
6FF
  8
0
 10
98.436745645176529
 20
64.153505348065949
 30
0.0
  0
VERTEX
  5
700
  8
0
 10
98.450172309008053
 20
64.173421541919964
 30
0.0
  0
VERTEX
  5
701
  8
0
 10
98.463586047021408
 20
64.192768742361011
 30
0.0
  0
VERTEX
  5
702
  8
0
 10
98.476947579471926
 20
64.21152293252365
 30
0.0
  0
VERTEX
  5
703
  8
0
 10
98.483596329005934
 20
64.220670713309985
 30
0.0
  0
VERTEX
  5
704
  8
0
 10
98.490217036640345
 20
64.229662166439454
 30
0.0
  0
VERTEX
  5
705
  8
0
 10
98.503354079973903
 20
64.247166435198096
 30
0.0
  0
VERTEX
  5
706
  8
0
 10
98.51651891722031
 20
64.264275457806065
 30
0.0
  0
VERTEX
  5
707
  8
0
 10
98.523199359485432
 20
64.272798031257281
 30
0.0
  0
VERTEX
  5
708
  8
0
 10
98.564560496012632
 20
64.323330378404336
 30
0.0
  0
VERTEX
  5
709
  8
0
 10
98.652673249613372
 20
64.419762118308853
 30
0.0
  0
VERTEX
  5
70A
  8
0
 10
98.745262203010384
 20
64.507555275207395
 30
0.0
  0
VERTEX
  5
70B
  8
0
 10
98.838841143259685
 20
64.584849261038414
 30
0.0
  0
VERTEX
  5
70C
  8
0
 10
98.929721424676018
 20
64.650730626546135
 30
0.0
  0
VERTEX
  5
70D
  8
0
 10
99.021601584562745
 20
64.709482955507823
 30
0.0
  0
VERTEX
  5
70E
  8
0
 10
99.069393837159737
 20
64.737273751791889
 30
0.0
  0
VERTEX
  5
70F
  8
0
 10
99.118123687162154
 20
64.763827131123577
 30
0.0
  0
VERTEX
  5
710
  8
0
 10
99.217479982774094
 20
64.812855429494931
 30
0.0
  0
VERTEX
  5
711
  8
0
 10
99.317817043352704
 20
64.856092488440112
 30
0.0
  0
VERTEX
  5
712
  8
0
 10
99.417246040624434
 20
64.893410448206737
 30
0.0
  0
VERTEX
  5
713
  8
0
 10
99.513843758131088
 20
64.924946257587067
 30
0.0
  0
VERTEX
  5
714
  8
0
 10
99.608345361668555
 20
64.951738233120423
 30
0.0
  0
VERTEX
  5
715
  8
0
 10
99.657546398338354
 20
64.964224466705076
 30
0.0
  0
VERTEX
  5
716
  8
0
 10
99.707816004530784
 20
64.976013208614006
 30
0.0
  0
VERTEX
  5
717
  8
0
 10
99.809982698422445
 20
64.997150310474126
 30
0.0
  0
VERTEX
  5
718
  8
0
 10
99.911677948197848
 20
65.014734379570854
 30
0.0
  0
VERTEX
  5
719
  8
0
 10
99.961353439340087
 20
65.022171326994993
 30
0.0
  0
SEQEND
  5
71A
  8
0
  0
LINE
  5
302
  8
0
 10
98.292954359826979
 20
63.894148677288022
 30
0.0
 11
98.292954359826979
 21
47.838882819572802
 31
0.0
  0
POLYLINE
  5
304
  8
0
 66
     1
 10
0.0
 20
0.0
 30
0.0
  0
VERTEX
  5
71B
  8
0
 10
106.9532083976714
 20
47.838882819572802
 30
0.0
  0
VERTEX
  5
71C
  8
0
 10
106.9455218953171
 20
47.822199632858648
 30
0.0
  0
VERTEX
  5
71D
  8
0
 10
106.9296230085184
 20
47.788976721521259
 30
0.0
  0
VERTEX
  5
71E
  8
0
 10
106.91307882080299
 20
47.756074577516671
 30
0.0
  0
VERTEX
  5
71F
  8
0
 10
106.9045874759925
 20
47.739789474363327
 30
0.0
  0
VERTEX
  5
720
  8
0
 10
106.8959629350837
 20
47.723637761755953
 30
0.0
  0
VERTEX
  5
721
  8
0
 10
106.8783553540534
 20
47.691797719449049
 30
0.0
  0
VERTEX
  5
722
  8
0
 10
106.8603412128686
 20
47.660672265270563
 30
0.0
  0
VERTEX
  5
723
  8
0
 10
106.8420088297775
 20
47.630364323240173
 30
0.0
  0
VERTEX
  5
724
  8
0
 10
106.8234516668562
 20
47.600967259102497
 30
0.0
  0
VERTEX
  5
725
  8
0
 10
106.8047682251628
 20
47.572566068024173
 30
0.0
  0
VERTEX
  5
726
  8
0
 10
106.7954110134332
 20
47.558763071671791
 30
0.0
  0
VERTEX
  5
727
  8
0
 10
106.78606087990261
 20
47.545236942511679
 30
0.0
  0
VERTEX
  5
728
  8
0
 10
106.76743507430569
 20
47.519047600520508
 30
0.0
  0
VERTEX
  5
729
  8
0
 10
106.74899860718121
 20
47.494057836671139
 30
0.0
  0
VERTEX
  5
72A
  8
0
 10
106.73069276048361
 20
47.470103808990011
 30
0.0
  0
VERTEX
  5
72B
  8
0
 10
106.7119423342737
 20
47.446399845814419
 30
0.0
  0
VERTEX
  5
72C
  8
0
 10
106.6927183060604
 20
47.422918572518732
 30
0.0
  0
VERTEX
  5
72D
  8
0
 10
106.6829398836108
 20
47.411278046718763
 30
0.0
  0
VERTEX
  5
72E
  8
0
 10
106.67305670653479
 20
47.399712592597147
 30
0.0
  0
VERTEX
  5
72F
  8
0
 10
106.65299521360581
 20
47.376830305389831
 30
0.0
  0
VERTEX
  5
730
  8
0
 10
106.6325729191567
 20
47.354315878693733
 30
0.0
  0
VERTEX
  5
731
  8
0
 10
106.62223902117771
 20
47.343209266110698
 30
0.0
  0
VERTEX
  5
732
  8
0
 10
106.61183011483369
 20
47.332209284142998
 30
0.0
  0
VERTEX
  5
733
  8
0
 10
106.5908080923414
 20
47.310546378715387
 30
0.0
  0
VERTEX
  5
734
  8
0
 10
106.56954895427209
 20
47.289359019302481
 30
0.0
  0
VERTEX
  5
735
  8
0
 10
106.5588438007364
 20
47.278952564324243
 30
0.0
  0
VERTEX
  5
736
  8
0
 10
106.5480954318059
 20
47.2686752000456
 30
0.0
  0
VERTEX
  5
737
  8
0
 10
106.5264907172016
 20
47.248519214770113
 30
0.0
  0
VERTEX
  5
738
  8
0
 10
106.5047786239134
 20
47.22891211672686
 30
0.0
  0
VERTEX
  5
739
  8
0
 10
106.42859403365399
 20
47.16485191039839
 30
0.0
  0
VERTEX
  5
73A
  8
0
 10
106.30165106296541
 20
47.072339967238378
 30
0.0
  0
VERTEX
  5
73B
  8
0
 10
106.17106839167251
 20
46.99256079195731
 30
0.0
  0
VERTEX
  5
73C
  8
0
 10
106.0334260828694
 20
46.922370110335322
 30
0.0
  0
VERTEX
  5
73D
  8
0
 10
105.8937120553005
 20
46.863347363596368
 30
0.0
  0
VERTEX
  5
73E
  8
0
 10
105.8246755653698
 20
46.838142491409847
 30
0.0
  0
VERTEX
  5
73F
  8
0
 10
105.7570541678202
 20
46.81574412072959
 30
0.0
  0
VERTEX
  5
740
  8
0
 10
105.62478965353981
 20
46.777893122362137
 30
0.0
  0
VERTEX
  5
741
  8
0
 10
105.48460287632
 20
46.745443824833814
 30
0.0
  0
VERTEX
  5
742
  8
0
 10
105.3424224371111
 20
46.719553387767057
 30
0.0
  0
VERTEX
  5
743
  8
0
 10
105.2068145549305
 20
46.700597790710589
 30
0.0
  0
VERTEX
  5
744
  8
0
 10
105.071907084058
 20
46.686584451253822
 30
0.0
  0
VERTEX
  5
745
  8
0
 10
105.0020406322402
 20
46.681016901018438
 30
0.0
  0
VERTEX
  5
746
  8
0
 10
104.93112786464999
 20
46.67643524873597
 30
0.0
  0
VERTEX
  5
747
  8
0
 10
104.7878519113721
 20
46.670140403238257
 30
0.0
  0
VERTEX
  5
748
  8
0
 10
104.6454558289426
 20
46.667303073282312
 30
0.0
  0
VERTEX
  5
749
  8
0
 10
104.5756437977259
 20
46.666983264175968
 30
0.0
  0
SEQEND
  5
74A
  8
0
  0
LINE
  5
30F
  8
0
 10
120.93691831433389
 20
65.022171326994908
 30
0.0
 11
125.9421155528732
 21
65.022171326994908
 31
0.0
  0
LINE
  5
310
  8
0
 10
131.2655714316914
 20
65.022171326994908
 30
0.0
 11
131.53009469531631
 21
65.022171326994908
 31
0.0
  0
LINE
  5
311
  8
0
 10
99.961353439340087
 20
65.022171326994908
 30
0.0
 11
99.696830175715206
 21
65.022171326994908
 31
0.0
  0
LINE
  5
312
  8
0
 10
105.2848093181583
 20
65.022171326994908
 30
0.0
 11
110.29000655669751
 21
65.022171326994908
 31
0.0
  0
LINE
  5
313
  8
0
 10
131.1134624355158
 20
46.666983264175968
 30
0.0
 11
100.1134624355157
 21
46.666983264175968
 31
0.0
  0
LINE
  5
315
  8
0
 10
122.3864624355158
 20
27.666983264175968
 30
0.0
 11
108.8404624355157
 21
27.666983264175968
 31
0.0
  0
LINE
  5
316
  8
0
 10
123.6134624355157
 20
28.893983264175969
 30
0.0
 11
107.6134624355157
 21
28.893983264175969
 31
0.0
  0
LINE
  5
317
  8
0
 10
123.6134624355157
 20
42.566983264175967
 30
0.0
 11
107.6134624355157
 21
42.566983264175967
 31
0.0
  0
LINE
  5
318
  8
0
 10
122.01346243551571
 20
44.166983264175968
 30
0.0
 11
109.21346243551579
 21
44.166983264175968
 31
0.0
  0
ARC
  5
31A
  8
0
 10
115.906384952794
 20
-8.3324447096359542
 30
0.0
 40
75.000000000000867
 50
77.976308614859903
 51
90.0
  0
ARC
  5
31C
  8
0
 10
115.3205399182375
 20
-8.3324447096361816
 30
0.0
 40
75.000000000001094
 50
90.0
 51
102.0236913851401
  0
LINE
  5
31D
  8
0
 10
115.9063849527941
 20
66.667555290364902
 30
0.0
 11
115.3205399182374
 21
66.667555290364902
 31
0.0
  0
ARC
  5
31E
  8
0
 10
131.1134624355158
 20
63.066048232684828
 30
0.0
 40
2.0000000000000071
 50
24.459518689078049
 51
77.976308614859974
  0
ARC
  5
31F
  8
0
 10
100.1134624355157
 20
63.066048232684828
 30
0.0
 40
2.0000000000000089
 50
102.02369138514
 51
155.54048131092279
  0
ARC
  5
320
  8
0
 10
100.1134624355157
 20
48.666983264175968
 30
0.0
 40
1.9999999999999909
 50
204.459518689075
 51
270.0
  0
ARC
  5
321
  8
0
 10
131.1134624355158
 20
48.666983264175968
 30
0.0
 40
1.99999999999999
 50
270.0
 51
335.54048131092497
  0
LINE
  5
322
  8
0
 10
107.6134624355157
 20
28.893983264175969
 30
0.0
 11
108.8404624355157
 21
27.666983264175968
 31
0.0
  0
LINE
  5
323
  8
0
 10
122.3864624355158
 20
27.666983264175968
 30
0.0
 11
123.6134624355157
 21
28.893983264175969
 31
0.0
  0
LINE
  5
324
  8
0
 10
107.6134624355157
 20
42.566983264175967
 30
0.0
 11
107.6134624355157
 21
28.893983264175969
 31
0.0
  0
LINE
  5
325
  8
0
 10
123.6134624355157
 20
28.893983264175969
 30
0.0
 11
123.6134624355157
 21
42.566983264175967
 31
0.0
  0
LINE
  5
326
  8
0
 10
109.21346243551579
 20
44.166983264175968
 30
0.0
 11
107.6134624355157
 21
42.566983264175967
 31
0.0
  0
LINE
  5
327
  8
0
 10
123.6134624355157
 20
42.566983264175967
 30
0.0
 11
122.01346243551571
 21
44.166983264175968
 31
0.0
  0
LINE
  5
328
  8
0
 10
109.21346243551579
 20
46.666983264175968
 30
0.0
 11
109.21346243551579
 21
44.166983264175968
 31
0.0
  0
LINE
  5
329
  8
0
 10
122.01346243551571
 20
44.166983264175968
 30
0.0
 11
122.01346243551571
 21
46.666983264175968
 31
0.0
  0
LINE
  5
366
  8
1
 10
30.412153924166262
 20
103.860486547422
 30
0.0
 11
30.412153924166262
 21
148.50150269879961
 31
0.0
  0
LINE
  5
367
  8
1
 10
8.0916458484774694
 20
126.18099462311081
 30
0.0
 11
52.732661999855047
 21
126.18099462311081
 31
0.0
  0
LINE
  5
3E1
  8
1
 10
30.412153924166208
 20
71.667555290364916
 30
0.0
 11
30.412153924166208
 21
22.666983264175968
 31
0.0
  0
LINE
  5
3E3
  8
3
 10
23.63915392416618
 20
27.666983264175968
 30
0.0
 11
23.639153924166241
 21
43.793983264175942
 31
0.0
  0
LINE
  5
3E6
  8
3
 10
37.185153924166229
 20
27.666983264175968
 30
0.0
 11
37.185153924166293
 21
43.7939832641759
 31
0.0
  0
LINE
  5
3E8
  8
0
 10
45.412153924166198
 20
65.211432478865234
 30
0.0
 11
45.412153924166198
 21
46.666983264175961
 31
0.0
  0
POLYLINE
  5
3F8
  8
0
 66
     1
 10
0.0
 20
0.0
 30
0.0
  0
VERTEX
  5
74B
  8
0
 10
42.52240195114836
 20
65.022171326994993
 30
0.0
  0
VERTEX
  5
74C
  8
0
 10
42.60844242569766
 20
65.014734379570839
 30
0.0
  0
VERTEX
  5
74D
  8
0
 10
42.784583765197112
 20
64.997150310474126
 30
0.0
  0
VERTEX
  5
74E
  8
0
 10
42.961541669858782
 20
64.976013208614006
 30
0.0
  0
VERTEX
  5
74F
  8
0
 10
43.048611181860558
 20
64.964224466705076
 30
0.0
  0
VERTEX
  5
750
  8
0
 10
43.133829877157659
 20
64.951738233120423
 30
0.0
  0
VERTEX
  5
751
  8
0
 10
43.297511455881363
 20
64.924946257587067
 30
0.0
  0
VERTEX
  5
752
  8
0
 10
43.464823610498001
 20
64.893410448206737
 30
0.0
  0
VERTEX
  5
753
  8
0
 10
43.637039685518339
 20
64.856092488440126
 30
0.0
  0
VERTEX
  5
754
  8
0
 10
43.810828572322627
 20
64.812855429494931
 30
0.0
  0
VERTEX
  5
755
  8
0
 10
43.982918724374322
 20
64.763827131123577
 30
0.0
  0
VERTEX
  5
756
  8
0
 10
44.067321300423657
 20
64.737273751791875
 30
0.0
  0
VERTEX
  5
757
  8
0
 10
44.150099910129882
 20
64.709482955507823
 30
0.0
  0
VERTEX
  5
758
  8
0
 10
44.309241015261193
 20
64.650730626546135
 30
0.0
  0
VERTEX
  5
759
  8
0
 10
44.466650280080437
 20
64.584849261038414
 30
0.0
  0
VERTEX
  5
75A
  8
0
 10
44.62873375911073
 20
64.507555275207395
 30
0.0
  0
VERTEX
  5
75B
  8
0
 10
44.789102530613938
 20
64.419762118308853
 30
0.0
  0
VERTEX
  5
75C
  8
0
 10
44.941718296645149
 20
64.323330378404336
 30
0.0
  0
VERTEX
  5
75D
  8
0
 10
45.01335788656916
 20
64.272798031257281
 30
0.0
  0
VERTEX
  5
75E
  8
0
 10
45.024928751989357
 20
64.264275457806065
 30
0.0
  0
VERTEX
  5
75F
  8
0
 10
45.04773091897345
 20
64.247166435198082
 30
0.0
  0
VERTEX
  5
760
  8
0
 10
45.070484945488488
 20
64.229662166439439
 30
0.0
  0
VERTEX
  5
761
  8
0
 10
45.08195234749325
 20
64.220670713309985
 30
0.0
  0
VERTEX
  5
762
  8
0
 10
45.09346831949307
 20
64.211522932523636
 30
0.0
  0
VERTEX
  5
763
  8
0
 10
45.116611172564262
 20
64.192768742360997
 30
0.0
  0
VERTEX
  5
764
  8
0
 10
45.139844448322833
 20
64.173421541919964
 30
0.0
  0
VERTEX
  5
765
  8
0
 10
45.163100112255158
 20
64.153505348065949
 30
0.0
  0
VERTEX
  5
766
  8
0
 10
45.186311377163399
 20
64.13304636512548
 30
0.0
  0
VERTEX
  5
767
  8
0
 10
45.209412948214322
 20
64.112073077009541
 30
0.0
  0
VERTEX
  5
768
  8
0
 10
45.220902667518139
 20
64.10140310839455
 30
0.0
  0
VERTEX
  5
769
  8
0
 10
45.232341291479997
 20
64.090616306082268
 30
0.0
  0
VERTEX
  5
76A
  8
0
 10
45.255034929864848
 20
64.068709227855294
 30
0.0
  0
VERTEX
  5
76B
  8
0
 10
45.27743503319283
 20
64.046387061796196
 30
0.0
  0
VERTEX
  5
76C
  8
0
 10
45.299485296654552
 20
64.023687416075575
 30
0.0
  0
VERTEX
  5
76D
  8
0
 10
45.321130340089098
 20
64.00065227714498
 30
0.0
  0
VERTEX
  5
76E
  8
0
 10
45.3423168791428
 20
63.977327282534773
 30
0.0
  0
VERTEX
  5
76F
  8
0
 10
45.352722241506399
 20
63.965571328959101
 30
0.0
  0
VERTEX
  5
770
  8
0
 10
45.362994167744091
 20
63.953761639417763
 30
0.0
  0
VERTEX
  5
771
  8
0
 10
45.38311439098328
 20
63.930008043664792
 30
0.0
  0
VERTEX
  5
772
  8
0
 10
45.402633062509999
 20
63.906122532229027
 30
0.0
  0
VERTEX
  5
773
  8
0
 10
45.412153924166198
 20
63.894148677288022
 30
0.0
  0
SEQEND
  5
774
  8
0
  0
POLYLINE
  5
3F9
  8
0
 66
     1
 10
0.0
 20
0.0
 30
0.0
  0
VERTEX
  5
775
  8
0
 10
33.301905897184042
 20
65.022171326994908
 30
0.0
  0
VERTEX
  5
776
  8
0
 10
34.858379895227067
 20
65.128479415460319
 30
0.0
  0
VERTEX
  5
777
  8
0
 10
37.912153924166212
 20
65.211432478865234
 30
0.0
  0
VERTEX
  5
778
  8
0
 10
40.965927953105343
 20
65.128479415460319
 30
0.0
  0
VERTEX
  5
779
  8
0
 10
42.52240195114836
 20
65.022171326994908
 30
0.0
  0
SEQEND
  5
77A
  8
0
  0
POLYLINE
  5
3FA
  8
0
 66
     1
 10
0.0
 20
0.0
 30
0.0
  0
VERTEX
  5
77B
  8
0
 10
30.412153924166208
 20
63.894148677288022
 30
0.0
  0
VERTEX
  5
77C
  8
0
 10
30.421674785822411
 20
63.906122532229027
 30
0.0
  0
VERTEX
  5
77D
  8
0
 10
30.441193457349129
 20
63.930008043664799
 30
0.0
  0
VERTEX
  5
77E
  8
0
 10
30.461313680588319
 20
63.953761639417763
 30
0.0
  0
VERTEX
  5
77F
  8
0
 10
30.471585606826011
 20
63.965571328959101
 30
0.0
  0
VERTEX
  5
780
  8
0
 10
30.48199096918961
 20
63.977327282534773
 30
0.0
  0
VERTEX
  5
781
  8
0
 10
30.503177508243311
 20
64.000652277144994
 30
0.0
  0
VERTEX
  5
782
  8
0
 10
30.524822551677861
 20
64.023687416075575
 30
0.0
  0
VERTEX
  5
783
  8
0
 10
30.546872815139579
 20
64.04638706179621
 30
0.0
  0
VERTEX
  5
784
  8
0
 10
30.569272918467561
 20
64.068709227855308
 30
0.0
  0
VERTEX
  5
785
  8
0
 10
30.591966556852409
 20
64.090616306082268
 30
0.0
  0
VERTEX
  5
786
  8
0
 10
30.603405180814271
 20
64.10140310839455
 30
0.0
  0
VERTEX
  5
787
  8
0
 10
30.614894900118092
 20
64.112073077009541
 30
0.0
  0
VERTEX
  5
788
  8
0
 10
30.637996471169
 20
64.13304636512548
 30
0.0
  0
VERTEX
  5
789
  8
0
 10
30.661207736077252
 20
64.153505348065963
 30
0.0
  0
VERTEX
  5
78A
  8
0
 10
30.684463400009641
 20
64.173421541919964
 30
0.0
  0
VERTEX
  5
78B
  8
0
 10
30.707696675768151
 20
64.192768742361011
 30
0.0
  0
VERTEX
  5
78C
  8
0
 10
30.73083952883934
 20
64.211522932523636
 30
0.0
  0
VERTEX
  5
78D
  8
0
 10
30.74235550083916
 20
64.220670713310014
 30
0.0
  0
VERTEX
  5
78E
  8
0
 10
30.753822902843918
 20
64.229662166439439
 30
0.0
  0
VERTEX
  5
78F
  8
0
 10
30.77657692935896
 20
64.247166435198082
 30
0.0
  0
VERTEX
  5
790
  8
0
 10
30.799379096343049
 20
64.264275457806065
 30
0.0
  0
VERTEX
  5
791
  8
0
 10
30.810949961763239
 20
64.272798031257281
 30
0.0
  0
VERTEX
  5
792
  8
0
 10
30.882589551687261
 20
64.32333037840435
 30
0.0
  0
VERTEX
  5
793
  8
0
 10
31.035205317718471
 20
64.419762118308853
 30
0.0
  0
VERTEX
  5
794
  8
0
 10
31.19557408922168
 20
64.507555275207395
 30
0.0
  0
VERTEX
  5
795
  8
0
 10
31.35765756825197
 20
64.584849261038414
 30
0.0
  0
VERTEX
  5
796
  8
0
 10
31.51506683307122
 20
64.650730626546149
 30
0.0
  0
VERTEX
  5
797
  8
0
 10
31.674207938202532
 20
64.709482955507823
 30
0.0
  0
VERTEX
  5
798
  8
0
 10
31.756986547908749
 20
64.737273751791875
 30
0.0
  0
VERTEX
  5
799
  8
0
 10
31.841389123958091
 20
64.763827131123591
 30
0.0
  0
VERTEX
  5
79A
  8
0
 10
32.013479276009768
 20
64.812855429494931
 30
0.0
  0
VERTEX
  5
79B
  8
0
 10
32.187268162814071
 20
64.856092488440126
 30
0.0
  0
VERTEX
  5
79C
  8
0
 10
32.359484237834408
 20
64.893410448206737
 30
0.0
  0
VERTEX
  5
79D
  8
0
 10
32.526796392451047
 20
64.924946257587067
 30
0.0
  0
VERTEX
  5
79E
  8
0
 10
32.690477971174751
 20
64.951738233120423
 30
0.0
  0
VERTEX
  5
79F
  8
0
 10
32.775696666471788
 20
64.964224466705076
 30
0.0
  0
VERTEX
  5
7A0
  8
0
 10
32.862766178473628
 20
64.976013208614006
 30
0.0
  0
VERTEX
  5
7A1
  8
0
 10
33.039724083135297
 20
64.997150310474126
 30
0.0
  0
VERTEX
  5
7A2
  8
0
 10
33.215865422634749
 20
65.014734379570854
 30
0.0
  0
VERTEX
  5
7A3
  8
0
 10
33.301905897184042
 20
65.022171326994993
 30
0.0
  0
SEQEND
  5
7A4
  8
0
  0
LINE
  5
3FB
  8
0
 10
30.412153924166208
 20
63.894148677288022
 30
0.0
 11
30.412153924166208
 21
47.838882819572788
 31
0.0
  0
POLYLINE
  5
3FC
  8
0
 66
     1
 10
0.0
 20
0.0
 30
0.0
  0
VERTEX
  5
7A5
  8
0
 10
34.530216609549029
 20
46.666983264175968
 30
0.0
  0
VERTEX
  5
7A6
  8
0
 10
34.409298624501957
 20
46.667303073282312
 30
0.0
  0
VERTEX
  5
7A7
  8
0
 10
34.16266137493534
 20
46.670140403238271
 30
0.0
  0
VERTEX
  5
7A8
  8
0
 10
33.914500144355152
 20
46.67643524873597
 30
0.0
  0
VERTEX
  5
7A9
  8
0
 10
33.791675627983693
 20
46.681016901018452
 30
0.0
  0
VERTEX
  5
7AA
  8
0
 10
33.670663383690567
 20
46.686584451253829
 30
0.0
  0
VERTEX
  5
7AB
  8
0
 10
33.436996789818977
 20
46.700597790710589
 30
0.0
  0
VERTEX
  5
7AC
  8
0
 10
33.202117047975271
 20
46.71955338776705
 30
0.0
  0
VERTEX
  5
7AD
  8
0
 10
32.955853303422941
 20
46.745443824833814
 30
0.0
  0
VERTEX
  5
7AE
  8
0
 10
32.713042682728997
 20
46.77789312236213
 30
0.0
  0
VERTEX
  5
7AF
  8
0
 10
32.483953823956831
 20
46.81574412072959
 30
0.0
  0
VERTEX
  5
7B0
  8
0
 10
32.36683012772221
 20
46.83814249140984
 30
0.0
  0
VERTEX
  5
7B1
  8
0
 10
32.247255419585997
 20
46.863347363596368
 30
0.0
  0
VERTEX
  5
7B2
  8
0
 10
32.005263625306377
 20
46.922370110335322
 30
0.0
  0
VERTEX
  5
7B3
  8
0
 10
31.766860153188482
 20
46.992560791957303
 30
0.0
  0
VERTEX
  5
7B4
  8
0
 10
31.540684331921121
 20
47.072339967238378
 30
0.0
  0
VERTEX
  5
7B5
  8
0
 10
31.32081265702471
 20
47.16485191039839
 30
0.0
  0
VERTEX
  5
7B6
  8
0
 10
31.188857075941542
 20
47.228912116726839
 30
0.0
  0
VERTEX
  5
7B7
  8
0
 10
31.1512506272278
 20
47.248519214770113
 30
0.0
  0
VERTEX
  5
7B8
  8
0
 10
31.113830163850139
 20
47.268675200045593
 30
0.0
  0
VERTEX
  5
7B9
  8
0
 10
31.09521344276391
 20
47.278952564324229
 30
0.0
  0
VERTEX
  5
7BA
  8
0
 10
31.076671572937421
 20
47.289359019302459
 30
0.0
  0
VERTEX
  5
7BB
  8
0
 10
31.039849665676289
 20
47.310546378715387
 30
0.0
  0
VERTEX
  5
7BC
  8
0
 10
31.003438454641699
 20
47.332209284142991
 30
0.0
  0
VERTEX
  5
7BD
  8
0
 10
30.98540970000267
 20
47.343209266110712
 30
0.0
  0
VERTEX
  5
7BE
  8
0
 10
30.96751086366271
 20
47.354315878693718
 30
0.0
  0
VERTEX
  5
7BF
  8
0
 10
30.93213841206984
 20
47.376830305389817
 30
0.0
  0
VERTEX
  5
7C0
  8
0
 10
30.89739088704102
 20
47.399712592597147
 30
0.0
  0
VERTEX
  5
7C1
  8
0
 10
30.880272722205291
 20
47.411278046718749
 30
0.0
  0
VERTEX
  5
7C2
  8
0
 10
30.863335997704731
 20
47.422918572518732
 30
0.0
  0
VERTEX
  5
7C3
  8
0
 10
30.830039004113019
 20
47.446399845814433
 30
0.0
  0
VERTEX
  5
7C4
  8
0
 10
30.797562313253991
 20
47.470103808990011
 30
0.0
  0
VERTEX
  5
7C5
  8
0
 10
30.765855656698189
 20
47.494057836671132
 30
0.0
  0
VERTEX
  5
7C6
  8
0
 10
30.73392275892639
 20
47.519047600520487
 30
0.0
  0
VERTEX
  5
7C7
  8
0
 10
30.701661917300729
 20
47.545236942511671
 30
0.0
  0
VERTEX
  5
7C8
  8
0
 10
30.685467010968239
 20
47.558763071671763
 30
0.0
  0
VERTEX
  5
7C9
  8
0
 10
30.669259844835441
 20
47.572566068024152
 30
0.0
  0
VERTEX
  5
7CA
  8
0
 10
30.636899174562132
 20
47.600967259102497
 30
0.0
  0
VERTEX
  5
7CB
  8
0
 10
30.604757225537981
 20
47.630364323240158
 30
0.0
  0
VERTEX
  5
7CC
  8
0
 10
30.573004606600541
 20
47.660672265270549
 30
0.0
  0
VERTEX
  5
7CD
  8
0
 10
30.541803198813799
 20
47.691797719449042
 30
0.0
  0
VERTEX
  5
7CE
  8
0
 10
30.51130597387078
 20
47.72363776175596
 30
0.0
  0
VERTEX
  5
7CF
  8
0
 10
30.496367830824799
 20
47.739789474363342
 30
0.0
  0
VERTEX
  5
7D0
  8
0
 10
30.481660390188381
 20
47.75607457751665
 30
0.0
  0
VERTEX
  5
7D1
  8
0
 10
30.453005016495471
 20
47.788976721521252
 30
0.0
  0
VERTEX
  5
7D2
  8
0
 10
30.425467336776371
 20
47.822199632858627
 30
0.0
  0
VERTEX
  5
7D3
  8
0
 10
30.412153924166208
 20
47.838882819572788
 30
0.0
  0
SEQEND
  5
7D4
  8
0
  0
POLYLINE
  5
3FD
  8
0
 66
     1
 10
0.0
 20
0.0
 30
0.0
  0
VERTEX
  5
7D5
  8
0
 10
45.412153924166198
 20
47.838882819572802
 30
0.0
  0
VERTEX
  5
7D6
  8
0
 10
45.398840511556038
 20
47.822199632858641
 30
0.0
  0
VERTEX
  5
7D7
  8
0
 10
45.371302831836942
 20
47.788976721521252
 30
0.0
  0
VERTEX
  5
7D8
  8
0
 10
45.342647458144029
 20
47.756074577516671
 30
0.0
  0
VERTEX
  5
7D9
  8
0
 10
45.327940017507672
 20
47.739789474363349
 30
0.0
  0
VERTEX
  5
7DA
  8
0
 10
45.313001874461627
 20
47.72363776175596
 30
0.0
  0
VERTEX
  5
7DB
  8
0
 10
45.282504649518607
 20
47.691797719449049
 30
0.0
  0
VERTEX
  5
7DC
  8
0
 10
45.251303241731868
 20
47.660672265270563
 30
0.0
  0
VERTEX
  5
7DD
  8
0
 10
45.219550622794429
 20
47.630364323240173
 30
0.0
  0
VERTEX
  5
7DE
  8
0
 10
45.187408673770278
 20
47.600967259102497
 30
0.0
  0
VERTEX
  5
7DF
  8
0
 10
45.155048003496972
 20
47.572566068024159
 30
0.0
  0
VERTEX
  5
7E0
  8
0
 10
45.138840837364157
 20
47.55876307167177
 30
0.0
  0
VERTEX
  5
7E1
  8
0
 10
45.122645931031677
 20
47.545236942511679
 30
0.0
  0
VERTEX
  5
7E2
  8
0
 10
45.09038508940602
 20
47.519047600520487
 30
0.0
  0
VERTEX
  5
7E3
  8
0
 10
45.05845219163421
 20
47.494057836671132
 30
0.0
  0
VERTEX
  5
7E4
  8
0
 10
45.026745535078419
 20
47.470103808990018
 30
0.0
  0
VERTEX
  5
7E5
  8
0
 10
44.994268844219377
 20
47.44639984581444
 30
0.0
  0
VERTEX
  5
7E6
  8
0
 10
44.960971850627679
 20
47.422918572518732
 30
0.0
  0
VERTEX
  5
7E7
  8
0
 10
44.944035126127119
 20
47.411278046718749
 30
0.0
  0
VERTEX
  5
7E8
  8
0
 10
44.92691696129139
 20
47.399712592597147
 30
0.0
  0
VERTEX
  5
7E9
  8
0
 10
44.89216943626257
 20
47.376830305389817
 30
0.0
  0
VERTEX
  5
7EA
  8
0
 10
44.856796984669693
 20
47.354315878693718
 30
0.0
  0
VERTEX
  5
7EB
  8
0
 10
44.83889814832974
 20
47.343209266110712
 30
0.0
  0
VERTEX
  5
7EC
  8
0
 10
44.820869393690707
 20
47.332209284142998
 30
0.0
  0
VERTEX
  5
7ED
  8
0
 10
44.784458182656117
 20
47.310546378715387
 30
0.0
  0
VERTEX
  5
7EE
  8
0
 10
44.747636275394989
 20
47.289359019302474
 30
0.0
  0
VERTEX
  5
7EF
  8
0
 10
44.729094405568503
 20
47.278952564324229
 30
0.0
  0
VERTEX
  5
7F0
  8
0
 10
44.710477684482271
 20
47.2686752000456
 30
0.0
  0
VERTEX
  5
7F1
  8
0
 10
44.673057221104607
 20
47.24851921477012
 30
0.0
  0
VERTEX
  5
7F2
  8
0
 10
44.635450772390868
 20
47.228912116726853
 30
0.0
  0
VERTEX
  5
7F3
  8
0
 10
44.503495191307699
 20
47.16485191039839
 30
0.0
  0
VERTEX
  5
7F4
  8
0
 10
44.283623516411353
 20
47.072339967238378
 30
0.0
  0
VERTEX
  5
7F5
  8
0
 10
44.057447695143928
 20
46.992560791957303
 30
0.0
  0
VERTEX
  5
7F6
  8
0
 10
43.819044223026033
 20
46.922370110335322
 30
0.0
  0
VERTEX
  5
7F7
  8
0
 10
43.577052428746413
 20
46.863347363596368
 30
0.0
  0
VERTEX
  5
7F8
  8
0
 10
43.457477720610193
 20
46.83814249140984
 30
0.0
  0
VERTEX
  5
7F9
  8
0
 10
43.340354024375578
 20
46.81574412072959
 30
0.0
  0
VERTEX
  5
7FA
  8
0
 10
43.111265165603413
 20
46.77789312236213
 30
0.0
  0
VERTEX
  5
7FB
  8
0
 10
42.868454544909461
 20
46.745443824833814
 30
0.0
  0
VERTEX
  5
7FC
  8
0
 10
42.622190800357139
 20
46.71955338776705
 30
0.0
  0
VERTEX
  5
7FD
  8
0
 10
42.387311058513433
 20
46.700597790710589
 30
0.0
  0
VERTEX
  5
7FE
  8
0
 10
42.153644464641843
 20
46.686584451253829
 30
0.0
  0
VERTEX
  5
7FF
  8
0
 10
42.032632220348717
 20
46.681016901018452
 30
0.0
  0
VERTEX
  5
800
  8
0
 10
41.909807703977258
 20
46.67643524873597
 30
0.0
  0
VERTEX
  5
801
  8
0
 10
41.66164647339707
 20
46.670140403238271
 30
0.0
  0
VERTEX
  5
802
  8
0
 10
41.415009223830452
 20
46.667303073282312
 30
0.0
  0
VERTEX
  5
803
  8
0
 10
41.294091238783381
 20
46.666983264175968
 30
0.0
  0
SEQEND
  5
804
  8
0
  0
POLYLINE
  5
3FE
  8
0
 66
     1
 10
0.0
 20
0.0
 30
0.0
  0
VERTEX
  5
805
  8
0
 10
27.522401951148371
 20
65.022171326994993
 30
0.0
  0
VERTEX
  5
806
  8
0
 10
27.60844242569766
 20
65.014734379570839
 30
0.0
  0
VERTEX
  5
807
  8
0
 10
27.784583765197109
 20
64.997150310474126
 30
0.0
  0
VERTEX
  5
808
  8
0
 10
27.961541669858779
 20
64.976013208614006
 30
0.0
  0
VERTEX
  5
809
  8
0
 10
28.048611181860618
 20
64.964224466705076
 30
0.0
  0
VERTEX
  5
80A
  8
0
 10
28.13382987715767
 20
64.951738233120423
 30
0.0
  0
VERTEX
  5
80B
  8
0
 10
28.29751145588137
 20
64.924946257587067
 30
0.0
  0
VERTEX
  5
80C
  8
0
 10
28.464823610498001
 20
64.893410448206737
 30
0.0
  0
VERTEX
  5
80D
  8
0
 10
28.637039685518349
 20
64.856092488440126
 30
0.0
  0
VERTEX
  5
80E
  8
0
 10
28.810828572322631
 20
64.812855429494931
 30
0.0
  0
VERTEX
  5
80F
  8
0
 10
28.982918724374318
 20
64.763827131123577
 30
0.0
  0
VERTEX
  5
810
  8
0
 10
29.067321300423661
 20
64.737273751791875
 30
0.0
  0
VERTEX
  5
811
  8
0
 10
29.150099910129882
 20
64.709482955507823
 30
0.0
  0
VERTEX
  5
812
  8
0
 10
29.3092410152612
 20
64.650730626546135
 30
0.0
  0
VERTEX
  5
813
  8
0
 10
29.466650280080451
 20
64.584849261038414
 30
0.0
  0
VERTEX
  5
814
  8
0
 10
29.62873375911073
 20
64.507555275207395
 30
0.0
  0
VERTEX
  5
815
  8
0
 10
29.789102530613949
 20
64.419762118308853
 30
0.0
  0
VERTEX
  5
816
  8
0
 10
29.94171829664521
 20
64.32333037840435
 30
0.0
  0
VERTEX
  5
817
  8
0
 10
30.013357886569171
 20
64.272798031257281
 30
0.0
  0
VERTEX
  5
818
  8
0
 10
30.024928751989371
 20
64.264275457806065
 30
0.0
  0
VERTEX
  5
819
  8
0
 10
30.04773091897346
 20
64.247166435198096
 30
0.0
  0
VERTEX
  5
81A
  8
0
 10
30.070484945488491
 20
64.229662166439439
 30
0.0
  0
VERTEX
  5
81B
  8
0
 10
30.08195234749326
 20
64.220670713310014
 30
0.0
  0
VERTEX
  5
81C
  8
0
 10
30.09346831949307
 20
64.211522932523636
 30
0.0
  0
VERTEX
  5
81D
  8
0
 10
30.116611172564259
 20
64.192768742360997
 30
0.0
  0
VERTEX
  5
81E
  8
0
 10
30.13984444832284
 20
64.173421541919964
 30
0.0
  0
VERTEX
  5
81F
  8
0
 10
30.163100112255169
 20
64.153505348065963
 30
0.0
  0
VERTEX
  5
820
  8
0
 10
30.18631137716341
 20
64.13304636512548
 30
0.0
  0
VERTEX
  5
821
  8
0
 10
30.209412948214322
 20
64.112073077009541
 30
0.0
  0
VERTEX
  5
822
  8
0
 10
30.22090266751815
 20
64.10140310839455
 30
0.0
  0
VERTEX
  5
823
  8
0
 10
30.232341291480001
 20
64.090616306082268
 30
0.0
  0
VERTEX
  5
824
  8
0
 10
30.255034929864848
 20
64.068709227855308
 30
0.0
  0
VERTEX
  5
825
  8
0
 10
30.27743503319283
 20
64.04638706179621
 30
0.0
  0
VERTEX
  5
826
  8
0
 10
30.299485296654559
 20
64.023687416075575
 30
0.0
  0
VERTEX
  5
827
  8
0
 10
30.321130340089098
 20
64.000652277144994
 30
0.0
  0
VERTEX
  5
828
  8
0
 10
30.3423168791428
 20
63.977327282534773
 30
0.0
  0
VERTEX
  5
829
  8
0
 10
30.352722241506399
 20
63.965571328959101
 30
0.0
  0
VERTEX
  5
82A
  8
0
 10
30.362994167744091
 20
63.953761639417763
 30
0.0
  0
VERTEX
  5
82B
  8
0
 10
30.38311439098328
 20
63.930008043664799
 30
0.0
  0
VERTEX
  5
82C
  8
0
 10
30.402633062510009
 20
63.906122532229027
 30
0.0
  0
VERTEX
  5
82D
  8
0
 10
30.412153924166208
 20
63.894148677288022
 30
0.0
  0
SEQEND
  5
82E
  8
0
  0
POLYLINE
  5
3FF
  8
0
 66
     1
 10
0.0
 20
0.0
 30
0.0
  0
VERTEX
  5
82F
  8
0
 10
18.301905897184039
 20
65.022171326994908
 30
0.0
  0
VERTEX
  5
830
  8
0
 10
19.85837989522707
 20
65.128479415460319
 30
0.0
  0
VERTEX
  5
831
  8
0
 10
22.912153924166208
 20
65.211432478865234
 30
0.0
  0
VERTEX
  5
832
  8
0
 10
25.965927953105339
 20
65.128479415460319
 30
0.0
  0
VERTEX
  5
833
  8
0
 10
27.522401951148371
 20
65.022171326994908
 30
0.0
  0
SEQEND
  5
834
  8
0
  0
POLYLINE
  5
400
  8
0
 66
     1
 10
0.0
 20
0.0
 30
0.0
  0
VERTEX
  5
835
  8
0
 10
15.4121539241662
 20
63.894148677288022
 30
0.0
  0
VERTEX
  5
836
  8
0
 10
15.4216747858224
 20
63.906122532229027
 30
0.0
  0
VERTEX
  5
837
  8
0
 10
15.441193457349129
 20
63.930008043664792
 30
0.0
  0
VERTEX
  5
838
  8
0
 10
15.46131368058832
 20
63.953761639417749
 30
0.0
  0
VERTEX
  5
839
  8
0
 10
15.471585606826009
 20
63.965571328959101
 30
0.0
  0
VERTEX
  5
83A
  8
0
 10
15.48199096918961
 20
63.977327282534773
 30
0.0
  0
VERTEX
  5
83B
  8
0
 10
15.50317750824331
 20
64.00065227714498
 30
0.0
  0
VERTEX
  5
83C
  8
0
 10
15.524822551677859
 20
64.023687416075575
 30
0.0
  0
VERTEX
  5
83D
  8
0
 10
15.546872815139579
 20
64.046387061796196
 30
0.0
  0
VERTEX
  5
83E
  8
0
 10
15.56927291846756
 20
64.068709227855294
 30
0.0
  0
VERTEX
  5
83F
  8
0
 10
15.591966556852411
 20
64.090616306082268
 30
0.0
  0
VERTEX
  5
840
  8
0
 10
15.60340518081426
 20
64.10140310839455
 30
0.0
  0
VERTEX
  5
841
  8
0
 10
15.614894900118079
 20
64.112073077009541
 30
0.0
  0
VERTEX
  5
842
  8
0
 10
15.637996471169
 20
64.133046365125466
 30
0.0
  0
VERTEX
  5
843
  8
0
 10
15.661207736077239
 20
64.153505348065963
 30
0.0
  0
VERTEX
  5
844
  8
0
 10
15.68446340000963
 20
64.173421541919964
 30
0.0
  0
VERTEX
  5
845
  8
0
 10
15.707696675768149
 20
64.192768742360997
 30
0.0
  0
VERTEX
  5
846
  8
0
 10
15.73083952883934
 20
64.211522932523636
 30
0.0
  0
VERTEX
  5
847
  8
0
 10
15.74235550083915
 20
64.220670713309985
 30
0.0
  0
VERTEX
  5
848
  8
0
 10
15.75382290284392
 20
64.229662166439439
 30
0.0
  0
VERTEX
  5
849
  8
0
 10
15.776576929358949
 20
64.247166435198082
 30
0.0
  0
VERTEX
  5
84A
  8
0
 10
15.79937909634304
 20
64.264275457806065
 30
0.0
  0
VERTEX
  5
84B
  8
0
 10
15.810949961763241
 20
64.272798031257281
 30
0.0
  0
VERTEX
  5
84C
  8
0
 10
15.8825895516872
 20
64.323330378404336
 30
0.0
  0
VERTEX
  5
84D
  8
0
 10
16.035205317718461
 20
64.419762118308853
 30
0.0
  0
VERTEX
  5
84E
  8
0
 10
16.19557408922168
 20
64.507555275207395
 30
0.0
  0
VERTEX
  5
84F
  8
0
 10
16.357657568251959
 20
64.584849261038414
 30
0.0
  0
VERTEX
  5
850
  8
0
 10
16.515066833071209
 20
64.650730626546135
 30
0.0
  0
VERTEX
  5
851
  8
0
 10
16.674207938202532
 20
64.709482955507823
 30
0.0
  0
VERTEX
  5
852
  8
0
 10
16.756986547908749
 20
64.737273751791875
 30
0.0
  0
VERTEX
  5
853
  8
0
 10
16.841389123958091
 20
64.763827131123591
 30
0.0
  0
VERTEX
  5
854
  8
0
 10
17.013479276009772
 20
64.812855429494931
 30
0.0
  0
VERTEX
  5
855
  8
0
 10
17.18726816281406
 20
64.856092488440126
 30
0.0
  0
VERTEX
  5
856
  8
0
 10
17.359484237834408
 20
64.893410448206737
 30
0.0
  0
VERTEX
  5
857
  8
0
 10
17.52679639245104
 20
64.924946257587067
 30
0.0
  0
VERTEX
  5
858
  8
0
 10
17.69047797117474
 20
64.951738233120423
 30
0.0
  0
VERTEX
  5
859
  8
0
 10
17.775696666471791
 20
64.964224466705076
 30
0.0
  0
VERTEX
  5
85A
  8
0
 10
17.862766178473631
 20
64.976013208614006
 30
0.0
  0
VERTEX
  5
85B
  8
0
 10
18.039724083135301
 20
64.997150310474126
 30
0.0
  0
VERTEX
  5
85C
  8
0
 10
18.215865422634749
 20
65.014734379570839
 30
0.0
  0
VERTEX
  5
85D
  8
0
 10
18.301905897184039
 20
65.022171326994993
 30
0.0
  0
SEQEND
  5
85E
  8
0
  0
LINE
  5
401
  8
0
 10
15.4121539241662
 20
65.211432478865262
 30
0.0
 11
15.4121539241662
 21
46.666983264175961
 31
0.0
  0
POLYLINE
  5
402
  8
0
 66
     1
 10
0.0
 20
0.0
 30
0.0
  0
VERTEX
  5
85F
  8
0
 10
19.530216609549029
 20
46.666983264175968
 30
0.0
  0
VERTEX
  5
860
  8
0
 10
19.409298624501901
 20
46.667303073282312
 30
0.0
  0
VERTEX
  5
861
  8
0
 10
19.16266137493534
 20
46.670140403238271
 30
0.0
  0
VERTEX
  5
862
  8
0
 10
18.914500144355141
 20
46.67643524873597
 30
0.0
  0
VERTEX
  5
863
  8
0
 10
18.79167562798369
 20
46.681016901018452
 30
0.0
  0
VERTEX
  5
864
  8
0
 10
18.67066338369056
 20
46.686584451253829
 30
0.0
  0
VERTEX
  5
865
  8
0
 10
18.436996789818981
 20
46.700597790710589
 30
0.0
  0
VERTEX
  5
866
  8
0
 10
18.202117047975261
 20
46.71955338776705
 30
0.0
  0
VERTEX
  5
867
  8
0
 10
17.955853303422941
 20
46.745443824833814
 30
0.0
  0
VERTEX
  5
868
  8
0
 10
17.71304268272899
 20
46.77789312236213
 30
0.0
  0
VERTEX
  5
869
  8
0
 10
17.483953823956821
 20
46.81574412072959
 30
0.0
  0
VERTEX
  5
86A
  8
0
 10
17.36683012772221
 20
46.83814249140984
 30
0.0
  0
VERTEX
  5
86B
  8
0
 10
17.247255419586001
 20
46.863347363596368
 30
0.0
  0
VERTEX
  5
86C
  8
0
 10
17.00526362530638
 20
46.922370110335322
 30
0.0
  0
VERTEX
  5
86D
  8
0
 10
16.766860153188471
 20
46.992560791957303
 30
0.0
  0
VERTEX
  5
86E
  8
0
 10
16.54068433192106
 20
47.072339967238392
 30
0.0
  0
VERTEX
  5
86F
  8
0
 10
16.3208126570247
 20
47.16485191039839
 30
0.0
  0
VERTEX
  5
870
  8
0
 10
16.188857075941542
 20
47.228912116726853
 30
0.0
  0
VERTEX
  5
871
  8
0
 10
16.151250627227789
 20
47.248519214770113
 30
0.0
  0
VERTEX
  5
872
  8
0
 10
16.113830163850139
 20
47.268675200045593
 30
0.0
  0
VERTEX
  5
873
  8
0
 10
16.0952134427639
 20
47.278952564324229
 30
0.0
  0
VERTEX
  5
874
  8
0
 10
16.076671572937411
 20
47.289359019302474
 30
0.0
  0
VERTEX
  5
875
  8
0
 10
16.039849665676279
 20
47.310546378715387
 30
0.0
  0
VERTEX
  5
876
  8
0
 10
16.003438454641689
 20
47.332209284142998
 30
0.0
  0
VERTEX
  5
877
  8
0
 10
15.985409700002659
 20
47.343209266110712
 30
0.0
  0
VERTEX
  5
878
  8
0
 10
15.96751086366271
 20
47.354315878693733
 30
0.0
  0
VERTEX
  5
879
  8
0
 10
15.932138412069831
 20
47.376830305389817
 30
0.0
  0
VERTEX
  5
87A
  8
0
 10
15.897390887041009
 20
47.399712592597162
 30
0.0
  0
VERTEX
  5
87B
  8
0
 10
15.880272722205291
 20
47.411278046718749
 30
0.0
  0
VERTEX
  5
87C
  8
0
 10
15.86333599770472
 20
47.422918572518732
 30
0.0
  0
VERTEX
  5
87D
  8
0
 10
15.83003900411296
 20
47.44639984581444
 30
0.0
  0
VERTEX
  5
87E
  8
0
 10
15.797562313253991
 20
47.470103808990018
 30
0.0
  0
VERTEX
  5
87F
  8
0
 10
15.765855656698189
 20
47.494057836671132
 30
0.0
  0
VERTEX
  5
880
  8
0
 10
15.733922758926379
 20
47.519047600520501
 30
0.0
  0
VERTEX
  5
881
  8
0
 10
15.70166191730072
 20
47.545236942511679
 30
0.0
  0
VERTEX
  5
882
  8
0
 10
15.685467010968241
 20
47.558763071671777
 30
0.0
  0
VERTEX
  5
883
  8
0
 10
15.669259844835439
 20
47.572566068024159
 30
0.0
  0
VERTEX
  5
884
  8
0
 10
15.63689917456213
 20
47.600967259102497
 30
0.0
  0
VERTEX
  5
885
  8
0
 10
15.604757225537981
 20
47.630364323240173
 30
0.0
  0
VERTEX
  5
886
  8
0
 10
15.573004606600531
 20
47.660672265270563
 30
0.0
  0
VERTEX
  5
887
  8
0
 10
15.54180319881379
 20
47.691797719449049
 30
0.0
  0
VERTEX
  5
888
  8
0
 10
15.511305973870771
 20
47.723637761755967
 30
0.0
  0
VERTEX
  5
889
  8
0
 10
15.49636783082474
 20
47.739789474363349
 30
0.0
  0
VERTEX
  5
88A
  8
0
 10
15.481660390188379
 20
47.756074577516657
 30
0.0
  0
VERTEX
  5
88B
  8
0
 10
15.453005016495471
 20
47.788976721521252
 30
0.0
  0
VERTEX
  5
88C
  8
0
 10
15.425467336776361
 20
47.822199632858641
 30
0.0
  0
VERTEX
  5
88D
  8
0
 10
15.4121539241662
 20
47.838882819572802
 30
0.0
  0
SEQEND
  5
88E
  8
0
  0
POLYLINE
  5
403
  8
0
 66
     1
 10
0.0
 20
0.0
 30
0.0
  0
VERTEX
  5
88F
  8
0
 10
30.412153924166208
 20
47.838882819572788
 30
0.0
  0
VERTEX
  5
890
  8
0
 10
30.398840511556049
 20
47.822199632858627
 30
0.0
  0
VERTEX
  5
891
  8
0
 10
30.37130283183695
 20
47.788976721521252
 30
0.0
  0
VERTEX
  5
892
  8
0
 10
30.342647458144029
 20
47.75607457751665
 30
0.0
  0
VERTEX
  5
893
  8
0
 10
30.327940017507672
 20
47.739789474363327
 30
0.0
  0
VERTEX
  5
894
  8
0
 10
30.31300187446163
 20
47.72363776175596
 30
0.0
  0
VERTEX
  5
895
  8
0
 10
30.282504649518621
 20
47.691797719449042
 30
0.0
  0
VERTEX
  5
896
  8
0
 10
30.251303241731879
 20
47.660672265270549
 30
0.0
  0
VERTEX
  5
897
  8
0
 10
30.219550622794429
 20
47.630364323240158
 30
0.0
  0
VERTEX
  5
898
  8
0
 10
30.187408673770278
 20
47.600967259102497
 30
0.0
  0
VERTEX
  5
899
  8
0
 10
30.155048003496979
 20
47.572566068024152
 30
0.0
  0
VERTEX
  5
89A
  8
0
 10
30.138840837364171
 20
47.55876307167177
 30
0.0
  0
VERTEX
  5
89B
  8
0
 10
30.122645931031681
 20
47.545236942511671
 30
0.0
  0
VERTEX
  5
89C
  8
0
 10
30.090385089406031
 20
47.519047600520487
 30
0.0
  0
VERTEX
  5
89D
  8
0
 10
30.05845219163422
 20
47.494057836671132
 30
0.0
  0
VERTEX
  5
89E
  8
0
 10
30.026745535078419
 20
47.470103808990011
 30
0.0
  0
VERTEX
  5
89F
  8
0
 10
29.994268844219391
 20
47.446399845814433
 30
0.0
  0
VERTEX
  5
8A0
  8
0
 10
29.96097185062769
 20
47.422918572518732
 30
0.0
  0
VERTEX
  5
8A1
  8
0
 10
29.944035126127119
 20
47.411278046718749
 30
0.0
  0
VERTEX
  5
8A2
  8
0
 10
29.926916961291401
 20
47.399712592597147
 30
0.0
  0
VERTEX
  5
8A3
  8
0
 10
29.892169436262581
 20
47.376830305389817
 30
0.0
  0
VERTEX
  5
8A4
  8
0
 10
29.8567969846697
 20
47.354315878693718
 30
0.0
  0
VERTEX
  5
8A5
  8
0
 10
29.838898148329751
 20
47.343209266110712
 30
0.0
  0
VERTEX
  5
8A6
  8
0
 10
29.820869393690721
 20
47.332209284142998
 30
0.0
  0
VERTEX
  5
8A7
  8
0
 10
29.78445818265612
 20
47.310546378715387
 30
0.0
  0
VERTEX
  5
8A8
  8
0
 10
29.747636275394999
 20
47.289359019302474
 30
0.0
  0
VERTEX
  5
8A9
  8
0
 10
29.72909440556851
 20
47.278952564324229
 30
0.0
  0
VERTEX
  5
8AA
  8
0
 10
29.710477684482271
 20
47.268675200045593
 30
0.0
  0
VERTEX
  5
8AB
  8
0
 10
29.673057221104621
 20
47.248519214770113
 30
0.0
  0
VERTEX
  5
8AC
  8
0
 10
29.635450772390868
 20
47.228912116726839
 30
0.0
  0
VERTEX
  5
8AD
  8
0
 10
29.50349519130771
 20
47.16485191039839
 30
0.0
  0
VERTEX
  5
8AE
  8
0
 10
29.28362351641136
 20
47.072339967238378
 30
0.0
  0
VERTEX
  5
8AF
  8
0
 10
29.057447695143939
 20
46.992560791957303
 30
0.0
  0
VERTEX
  5
8B0
  8
0
 10
28.81904422302603
 20
46.922370110335322
 30
0.0
  0
VERTEX
  5
8B1
  8
0
 10
28.577052428746409
 20
46.863347363596368
 30
0.0
  0
VERTEX
  5
8B2
  8
0
 10
28.4574777206102
 20
46.83814249140984
 30
0.0
  0
VERTEX
  5
8B3
  8
0
 10
28.340354024375589
 20
46.81574412072959
 30
0.0
  0
VERTEX
  5
8B4
  8
0
 10
28.11126516560341
 20
46.77789312236213
 30
0.0
  0
VERTEX
  5
8B5
  8
0
 10
27.868454544909468
 20
46.745443824833814
 30
0.0
  0
VERTEX
  5
8B6
  8
0
 10
27.622190800357149
 20
46.71955338776705
 30
0.0
  0
VERTEX
  5
8B7
  8
0
 10
27.387311058513429
 20
46.700597790710589
 30
0.0
  0
VERTEX
  5
8B8
  8
0
 10
27.15364446464184
 20
46.686584451253829
 30
0.0
  0
VERTEX
  5
8B9
  8
0
 10
27.03263222034872
 20
46.681016901018452
 30
0.0
  0
VERTEX
  5
8BA
  8
0
 10
26.909807703977268
 20
46.67643524873597
 30
0.0
  0
VERTEX
  5
8BB
  8
0
 10
26.66164647339707
 20
46.670140403238271
 30
0.0
  0
VERTEX
  5
8BC
  8
0
 10
26.415009223830509
 20
46.667303073282312
 30
0.0
  0
VERTEX
  5
8BD
  8
0
 10
26.294091238783381
 20
46.666983264175968
 30
0.0
  0
SEQEND
  5
8BE
  8
0
  0
LINE
  5
40D
  8
0
 10
15.4121539241662
 20
46.666983264175968
 30
0.0
 11
45.412153924166198
 21
46.666983264175968
 31
0.0
  0
LINE
  5
40F
  8
0
 10
37.185153924166229
 20
27.666983264175968
 30
0.0
 11
23.63915392416618
 21
27.666983264175968
 31
0.0
  0
LINE
  5
410
  8
0
 10
38.412153924166212
 20
28.893983264175969
 30
0.0
 11
22.412153924166201
 21
28.893983264175969
 31
0.0
  0
LINE
  5
411
  8
0
 10
38.412153924166212
 20
42.566983264175967
 30
0.0
 11
22.412153924166201
 21
42.566983264175967
 31
0.0
  0
LINE
  5
412
  8
0
 10
36.812153924166182
 20
44.166983264175968
 30
0.0
 11
24.012153924166231
 21
44.166983264175968
 31
0.0
  0
ARC
  5
414
  8
0
 10
30.70507644144476
 20
-8.3324447096322771
 30
0.0
 40
74.9999999999972
 50
78.691339478412104
 51
90.0
  0
ARC
  5
416
  8
0
 10
30.119231406887248
 20
-8.3324447096282768
 30
0.0
 40
74.999999999993193
 50
90.0
 51
101.3086605215879
  0
LINE
  5
417
  8
0
 10
30.705076441444589
 20
66.667555290364916
 30
0.0
 11
30.11923140688782
 21
66.667555290364916
 31
0.0
  0
LINE
  5
418
  8
0
 10
22.412153924166201
 20
28.893983264175969
 30
0.0
 11
23.63915392416618
 21
27.666983264175968
 31
0.0
  0
LINE
  5
419
  8
0
 10
37.185153924166229
 20
27.666983264175968
 30
0.0
 11
38.412153924166212
 21
28.893983264175969
 31
0.0
  0
LINE
  5
41A
  8
0
 10
22.412153924166201
 20
42.566983264175967
 30
0.0
 11
22.412153924166201
 21
28.893983264175969
 31
0.0
  0
LINE
  5
41B
  8
0
 10
38.412153924166212
 20
28.893983264175969
 30
0.0
 11
38.412153924166212
 21
42.566983264175967
 31
0.0
  0
LINE
  5
41C
  8
0
 10
24.012153924166231
 20
44.166983264175968
 30
0.0
 11
22.412153924166201
 21
42.566983264175967
 31
0.0
  0
LINE
  5
41D
  8
0
 10
38.412153924166212
 20
42.566983264175967
 30
0.0
 11
36.812153924166182
 21
44.166983264175968
 31
0.0
  0
LINE
  5
41E
  8
0
 10
24.012153924166231
 20
46.666983264175968
 30
0.0
 11
24.012153924166231
 21
44.166983264175968
 31
0.0
  0
LINE
  5
41F
  8
0
 10
36.812153924166182
 20
44.166983264175968
 30
0.0
 11
36.812153924166182
 21
46.666983264175968
 31
0.0
  0
LINE
  5
42C
  8
0
 10
30.412153924166262
 20
143.5015026987995
 30
0.0
 11
15.41215392416626
 21
134.84124866095519
 31
0.0
  0
LINE
  5
42D
  8
0
 10
15.41215392416626
 20
134.84124866095519
 30
0.0
 11
15.41215392416626
 21
117.5207405852664
 31
0.0
  0
LINE
  5
42E
  8
0
 10
15.41215392416626
 20
117.5207405852664
 30
0.0
 11
30.412153924166262
 21
108.860486547422
 31
0.0
  0
LINE
  5
42F
  8
0
 10
45.412153924166262
 20
117.5207405852664
 30
0.0
 11
30.412153924166262
 21
108.860486547422
 31
0.0
  0
LINE
  5
430
  8
0
 10
45.412153924166262
 20
134.84124866095519
 30
0.0
 11
45.412153924166262
 21
117.5207405852664
 31
0.0
  0
LINE
  5
431
  8
0
 10
30.412153924166262
 20
143.5015026987995
 30
0.0
 11
45.412153924166262
 21
134.84124866095519
 31
0.0
  0
TEXT
  5
517
  8
0
 62
     3
 10
0.0
 20
0.0
 30
0.0
 40
5.0
  1
BJ811-16020-R
  7
STANDARD1
  0
ENDSEC
  0
EOF
