  0
SECTION
  2
HEADER
  9
$ACADVER
  1
AC1009
  9
$INSBASE
 10
0.0
 20
0.0
 30
0.0
  9
$EXTMIN
 10
0.0
 20
-1.4802182810368341
 30
0.0
  9
$EXTMAX
 10
126.7564411824435
 20
122.05593591094591
 30
0.0
  9
$LIMMIN
 10
0.0
 20
0.0
  9
$LIMMAX
 10
12.0
 20
9.0
  9
$ORTHOMODE
 70
     0
  9
$REGENMODE
 70
     1
  9
$FILLMODE
 70
     1
  9
$QTEXTMODE
 70
     0
  9
$MIRRTEXT
 70
     0
  9
$DRAGMODE
 70
     2
  9
$LTSCALE
 40
5.0
  9
$OSMODE
 70
  3071
  9
$ATTMODE
 70
     1
  9
$TEXTSIZE
 40
0.2
  9
$TRACEWID
 40
0.05
  9
$TEXTSTYLE
  7
STANDARD
  9
$CLAYER
  8
0
  9
$CELTYPE
  6
BYLAYER
  9
$CECOLOR
 62
   256
  9
$DIMSCALE
 40
1.0
  9
$DIMASZ
 40
0.18
  9
$DIMEXO
 40
0.0625
  9
$DIMDLI
 40
0.38
  9
$DIMRND
 40
0.0
  9
$DIMDLE
 40
0.0
  9
$DIMEXE
 40
0.18
  9
$DIMTP
 40
0.0
  9
$DIMTM
 40
0.0
  9
$DIMTXT
 40
0.18
  9
$DIMCEN
 40
0.09
  9
$DIMTSZ
 40
0.0
  9
$DIMTOL
 70
     0
  9
$DIMLIM
 70
     0
  9
$DIMTIH
 70
     1
  9
$DIMTOH
 70
     1
  9
$DIMSE1
 70
     0
  9
$DIMSE2
 70
     0
  9
$DIMTAD
 70
     0
  9
$DIMZIN
 70
     0
  9
$DIMBLK
  1

  9
$DIMASO
 70
     1
  9
$DIMSHO
 70
     1
  9
$DIMPOST
  1

  9
$DIMAPOST
  1

  9
$DIMALT
 70
     0
  9
$DIMALTD
 70
     2
  9
$DIMALTF
 40
25.399999999999999
  9
$DIMLFAC
 40
1.0
  9
$DIMTOFL
 70
     0
  9
$DIMTVP
 40
0.0
  9
$DIMTIX
 70
     0
  9
$DIMSOXD
 70
     0
  9
$DIMSAH
 70
     0
  9
$DIMBLK1
  1

  9
$DIMBLK2
  1

  9
$DIMSTYLE
  2
STANDARD
  9
$DIMCLRD
 70
     0
  9
$DIMCLRE
 70
     0
  9
$DIMCLRT
 70
     0
  9
$DIMTFAC
 40
1.0
  9
$DIMGAP
 40
0.09
  9
$LUNITS
 70
     2
  9
$LUPREC
 70
     4
  9
$SKETCHINC
 40
0.1
  9
$FILLETRAD
 40
0.0
  9
$AUNITS
 70
     0
  9
$AUPREC
 70
     0
  9
$MENU
  1
.
  9
$ELEVATION
 40
0.0
  9
$PELEVATION
 40
0.0
  9
$THICKNESS
 40
0.0
  9
$LIMCHECK
 70
     0
  9
$BLIPMODE
 70
     0
  9
$CHAMFERA
 40
0.0
  9
$CHAMFERB
 40
0.0
  9
$SKPOLY
 70
     0
  9
$TDCREATE
 40
2453083.4120647679
  9
$TDUPDATE
 40
2456598.4302584962
  9
$TDINDWG
 40
0.1473069676
  9
$TDUSRTIMER
 40
0.1473068519
  9
$USRTIMER
 70
     1
  9
$ANGBASE
 50
0.0
  9
$ANGDIR
 70
     0
  9
$PDMODE
 70
     0
  9
$PDSIZE
 40
0.0
  9
$PLINEWID
 40
0.0
  9
$COORDS
 70
     1
  9
$SPLFRAME
 70
     0
  9
$SPLINETYPE
 70
     6
  9
$SPLINESEGS
 70
     8
  9
$ATTDIA
 70
     0
  9
$ATTREQ
 70
     1
  9
$HANDLING
 70
     1
  9
$HANDSEED
  5
3BD
  9
$SURFTAB1
 70
     6
  9
$SURFTAB2
 70
     6
  9
$SURFTYPE
 70
     6
  9
$SURFU
 70
     6
  9
$SURFV
 70
     6
  9
$UCSNAME
  2

  9
$UCSORG
 10
0.0
 20
0.0
 30
0.0
  9
$UCSXDIR
 10
1.0
 20
0.0
 30
0.0
  9
$UCSYDIR
 10
0.0
 20
1.0
 30
0.0
  9
$PUCSNAME
  2

  9
$PUCSORG
 10
0.0
 20
0.0
 30
0.0
  9
$PUCSXDIR
 10
1.0
 20
0.0
 30
0.0
  9
$PUCSYDIR
 10
0.0
 20
1.0
 30
0.0
  9
$USERI1
 70
     0
  9
$USERI2
 70
     1
  9
$USERI3
 70
     0
  9
$USERI4
 70
     0
  9
$USERI5
 70
     0
  9
$USERR1
 40
0.0
  9
$USERR2
 40
0.0
  9
$USERR3
 40
0.0
  9
$USERR4
 40
0.0
  9
$USERR5
 40
0.0
  9
$WORLDVIEW
 70
     1
  9
$SHADEDGE
 70
     3
  9
$SHADEDIF
 70
    70
  9
$TILEMODE
 70
     1
  9
$MAXACTVP
 70
    64
  9
$PLIMCHECK
 70
     0
  9
$PEXTMIN
 10
0.0
 20
0.0
 30
0.0
  9
$PEXTMAX
 10
0.0
 20
0.0
 30
0.0
  9
$PLIMMIN
 10
0.0
 20
0.0
  9
$PLIMMAX
 10
12.0
 20
9.0
  9
$UNITMODE
 70
     0
  9
$VISRETAIN
 70
     1
  9
$PLINEGEN
 70
     0
  9
$PSLTSCALE
 70
     1
  0
ENDSEC
  0
SECTION
  2
TABLES
  0
TABLE
  2
VPORT
 70
     1
  0
VPORT
  2
*ACTIVE
 70
     0
 10
0.0
 20
0.0
 11
1.0
 21
1.0
 12
66.801492106467919
 22
60.287653991287982
 13
0.0
 23
0.0
 14
0.5
 24
0.5
 15
0.5
 25
0.5
 16
0.0
 26
0.0
 36
1.0
 17
0.0
 27
0.0
 37
0.0
 40
124.6520321745854
 41
1.831871345029239
 42
50.0
 43
0.0
 44
0.0
 50
0.0
 51
0.0
 71
     0
 72
  1000
 73
     1
 74
     2
 75
     0
 76
     0
 77
     0
 78
     0
  0
ENDTAB
  0
TABLE
  2
LTYPE
 70
     3
  0
LTYPE
  2
CONTINUOUS
 70
     0
  3
Solid Line
 72
    65
 73
     0
 40
0.0
  0
LTYPE
  2
CENTER
 70
     0
  3
____ _ ____ _ ____ _ ____ _ ____ _ ____ _ ____
 72
    65
 73
     4
 40
2.0
 49
1.25
 49
-0.25
 49
0.25
 49
-0.25
  0
LTYPE
  2
PHANTOM2
 70
     0
  3
___ _ _ ___ _ _ ___ _ _ ___ _ _
 72
    65
 73
     6
 40
1.25
 49
0.625
 49
-0.125
 49
0.125
 49
-0.125
 49
0.125
 49
-0.125
  0
ENDTAB
  0
TABLE
  2
LAYER
 70
     3
  0
LAYER
  2
0
 70
     0
 62
     7
  6
CONTINUOUS
  0
LAYER
  2
1
 70
     0
 62
     1
  6
CENTER
  0
LAYER
  2
3
 70
     0
 62
     3
  6
CONTINUOUS
  0
ENDTAB
  0
TABLE
  2
STYLE
 70
     2
  0
STYLE
  2
STANDARD
 70
     0
 40
0.0
 41
1.0
 50
0.0
 71
     0
 42
0.2
  3
simplex.shx
  4
bigfont.shx
  0
STYLE
  2
STANDARD1
 70
     0
 40
0.0
 41
1.0
 50
0.0
 71
     0
 42
3.0
  3
txt
  4

  0
ENDTAB
  0
TABLE
  2
VIEW
 70
     0
  0
ENDTAB
  0
TABLE
  2
UCS
 70
     0
  0
ENDTAB
  0
TABLE
  2
APPID
 70
     3
  0
APPID
  2
ACAD
 70
     0
  0
APPID
  2
ACAD_MLEADERVER
 70
     0
  0
APPID
  2
ACAD_NAV_VCDISPLAY
 70
     0
  0
ENDTAB
  0
TABLE
  2
DIMSTYLE
 70
     1
  0
DIMSTYLE
  2
STANDARD
 70
     0
  3

  4

  5

  6

  7

 40
1.0
 41
0.18
 42
0.0625
 43
0.38
 44
0.18
 45
0.0
 46
0.0
 47
0.0
 48
0.0
140
0.18
141
0.09
142
0.0
143
25.399999999999999
144
1.0
145
0.0
146
1.0
147
0.09
 71
     0
 72
     0
 73
     1
 74
     1
 75
     0
 76
     0
 77
     0
 78
     0
170
     0
171
     2
172
     0
173
     0
174
     0
175
     0
176
     0
177
     0
178
     0
  0
ENDTAB
  0
ENDSEC
  0
SECTION
  2
BLOCKS
  0
BLOCK
  8
0
  2
$MODEL_SPACE
 70
     0
 10
0.0
 20
0.0
 30
0.0
  3
$MODEL_SPACE
  1

  0
ENDBLK
  5
21
  8
0
  0
BLOCK
 67
     1
  8
0
  2
$PAPER_SPACE
 70
     0
 10
0.0
 20
0.0
 30
0.0
  3
$PAPER_SPACE
  1

  0
ENDBLK
  5
5B
 67
     1
  8
0
  0
ENDSEC
  0
SECTION
  2
ENTITIES
  0
ARC
  5
22B
  8
0
 10
64.853029338098594
 20
49.508539347115089
 30
0.0
 40
15.88594976736252
 50
69.743841999607298
 51
110.2561580003927
  0
ARC
  5
22C
  8
0
 10
75.853029338098594
 20
49.508539347115089
 30
0.0
 40
15.88594976736252
 50
69.743841999607298
 51
110.2561580003927
  0
ARC
  5
22D
  8
0
 10
123.5810147019003
 20
59.771679067941363
 30
0.0
 40
5.6228100465361432
 50
64.384247467891299
 51
124.3842474680071
  0
LINE
  5
22E
  8
0
 10
126.7564411824432
 20
64.412008742231194
 30
0.0
 11
126.0119448414987
 21
64.841843905086193
 31
0.0
  0
ARC
  5
22F
  8
0
 10
114.0547352602708
 20
44.376969486697163
 30
0.0
 40
21.017519627780299
 50
72.412046226029645
 51
107.5879537739703
  0
LINE
  5
230
  8
0
 10
101.3530293380998
 20
64.412008742231194
 30
0.0
 11
102.09752567904469
 21
64.841843905086392
 31
0.0
  0
ARC
  5
231
  8
0
 10
104.5284558186426
 20
59.771679067941363
 30
0.0
 40
5.6228100465361432
 50
55.615752531992918
 51
115.6157525321087
  0
LINE
  5
232
  8
0
 10
70.353029338099986
 20
90.879021374706213
 30
0.0
 11
81.353029338099816
 21
97.229874335792033
 31
0.0
  0
LINE
  5
233
  8
0
 10
81.353029338099816
 20
97.229874335792033
 30
0.0
 11
81.353029338099859
 21
109.9315802579638
 31
0.0
  0
LINE
  5
234
  8
0
 10
81.353029338099859
 20
109.9315802579639
 30
0.0
 11
70.353029338099873
 21
116.28243321904969
 31
0.0
  0
LINE
  5
235
  8
0
 10
59.353029338099923
 20
109.9315802579639
 30
0.0
 11
59.353029338099923
 21
97.22987433579209
 31
0.0
  0
LINE
  5
236
  8
0
 10
70.353029338099986
 20
116.28243321904969
 30
0.0
 11
59.353029338099923
 21
109.9315802579638
 31
0.0
  0
LINE
  5
237
  8
0
 10
59.353029338099873
 20
97.22987433579209
 30
0.0
 11
70.353029338099986
 21
90.879021374706213
 31
0.0
  0
LINE
  5
238
  8
1
 10
54.353029338099873
 20
103.5807272968779
 30
0.0
 11
86.353029338099816
 21
103.5807272968779
 31
0.0
  0
LINE
  5
239
  8
1
 10
70.35302933809993
 20
85.105518682809958
 30
0.0
 11
70.353029338099873
 21
122.05593591094591
 31
0.0
  0
LINE
  5
23A
  8
1
 10
70.353029338099873
 20
71.009516194604771
 30
0.0
 11
70.353029338099759
 21
37.009516194604771
 31
0.0
  0
LINE
  5
23B
  8
3
 10
65.42652933809984
 20
42.136016194604757
 30
0.0
 11
65.42652933809984
 21
54.633016194604771
 31
0.0
  0
LINE
  5
23C
  8
3
 10
75.279529338099792
 20
42.136016194604757
 30
0.0
 11
75.279529338099792
 21
54.633016194604771
 31
0.0
  0
LINE
  5
23D
  8
0
 10
81.353029338099816
 20
65.394489114477267
 30
0.0
 11
81.353029338099816
 21
56.009516194606107
 31
0.0
  0
LINE
  5
23E
  8
0
 10
70.353029338100043
 20
64.412008742231819
 30
0.0
 11
70.353029338100043
 21
56.009516194604743
 31
0.0
  0
LINE
  5
23F
  8
0
 10
59.353029338099823
 20
65.394489114477636
 30
0.0
 11
59.353029338099823
 21
56.009516194603428
 31
0.0
  0
LINE
  5
240
  8
0
 10
59.353029338099823
 20
56.009516194603428
 30
0.0
 11
81.353029338099816
 21
56.009516194606107
 31
0.0
  0
LINE
  5
241
  8
0
 10
65.553029338099805
 20
42.009516194604203
 30
0.0
 11
75.153029338099827
 21
42.009516194605339
 31
0.0
  0
LINE
  5
242
  8
0
 10
64.353029338099816
 20
43.209516194604042
 30
0.0
 11
76.353029338099816
 21
43.209516194605499
 31
0.0
  0
LINE
  5
243
  8
0
 10
64.353029338099816
 20
53.559516194604043
 30
0.0
 11
76.353029338099816
 21
53.559516194605493
 31
0.0
  0
LINE
  5
244
  8
0
 10
65.553029338099805
 20
54.759516194604203
 30
0.0
 11
75.153029338099827
 21
54.759516194605339
 31
0.0
  0
ARC
  5
245
  8
0
 10
73.150912507382856
 20
11.009516194606389
 30
0.0
 40
54.999999999998373
 50
81.42352278219775
 51
90.0
  0
ARC
  5
246
  8
0
 10
67.555146168814503
 20
11.00951619460397
 30
0.0
 40
55.000000000000782
 50
90.0
 51
98.576477217802235
  0
LINE
  5
247
  8
0
 10
73.150912507382799
 20
66.009516194604771
 30
0.0
 11
67.555146168814389
 21
66.009516194604771
 31
0.0
  0
LINE
  5
248
  8
0
 10
64.353029338099816
 20
43.209516194604753
 30
0.0
 11
65.553029338099805
 21
42.009516194604771
 31
0.0
  0
LINE
  5
249
  8
0
 10
75.153029338099827
 20
42.009516194604771
 30
0.0
 11
76.353029338099816
 21
43.209516194604753
 31
0.0
  0
LINE
  5
24A
  8
0
 10
64.353029338099816
 20
53.559516194604782
 30
0.0
 11
64.353029338099816
 21
43.209516194604753
 31
0.0
  0
LINE
  5
24B
  8
0
 10
76.353029338099816
 20
43.209516194604753
 30
0.0
 11
76.353029338099816
 21
53.559516194604782
 31
0.0
  0
LINE
  5
24C
  8
0
 10
65.553029338099805
 20
54.759516194604771
 30
0.0
 11
64.353029338099816
 21
53.559516194604782
 31
0.0
  0
LINE
  5
24D
  8
0
 10
76.353029338099816
 20
53.559516194604782
 30
0.0
 11
75.153029338099827
 21
54.759516194604771
 31
0.0
  0
LINE
  5
24E
  8
0
 10
65.553029338099805
 20
56.009516194604771
 30
0.0
 11
65.553029338099805
 21
54.759516194604771
 31
0.0
  0
LINE
  5
24F
  8
0
 10
75.153029338099827
 20
54.759516194604771
 30
0.0
 11
75.153029338099827
 21
56.009516194604771
 31
0.0
  0
LINE
  5
250
  8
1
 10
114.0547352602718
 20
71.080727296877967
 30
0.0
 11
114.0547352602718
 21
37.009516194604771
 31
0.0
  0
LINE
  5
251
  8
3
 10
109.12823526027179
 20
42.136016194604757
 30
0.0
 11
109.12823526027179
 21
54.633016194604771
 31
0.0
  0
LINE
  5
252
  8
3
 10
118.9812352602718
 20
42.136016194604757
 30
0.0
 11
118.9812352602718
 21
54.633016194604771
 31
0.0
  0
LINE
  5
253
  8
0
 10
107.70388229918591
 20
64.412008742231663
 30
0.0
 11
107.70388229918581
 21
56.009516194604771
 31
0.0
  0
LINE
  5
254
  8
0
 10
120.4055882213577
 20
64.412008742231052
 30
0.0
 11
120.4055882213576
 21
56.009516194604799
 31
0.0
  0
LINE
  5
255
  8
0
 10
126.7564411824435
 20
64.942692527669152
 30
0.0
 11
126.7564411824435
 21
56.009516194604771
 31
0.0
  0
LINE
  5
256
  8
0
 10
101.3530293381
 20
64.94269252766918
 30
0.0
 11
101.3530293381
 21
56.009516194604771
 31
0.0
  0
LINE
  5
257
  8
0
 10
101.3530293381
 20
56.009516194604771
 30
0.0
 11
126.7564411824435
 21
56.009516194604771
 31
0.0
  0
LINE
  5
258
  8
0
 10
109.2547352602718
 20
42.009516194604771
 30
0.0
 11
118.8547352602718
 21
42.009516194604771
 31
0.0
  0
LINE
  5
259
  8
0
 10
108.0547352602718
 20
43.209516194604753
 30
0.0
 11
120.0547352602718
 21
43.209516194604753
 31
0.0
  0
LINE
  5
25A
  8
0
 10
108.0547352602718
 20
53.559516194604782
 30
0.0
 11
120.0547352602718
 21
53.559516194604782
 31
0.0
  0
LINE
  5
25B
  8
0
 10
109.2547352602718
 20
54.759516194604771
 30
0.0
 11
118.8547352602718
 21
54.759516194604771
 31
0.0
  0
ARC
  5
25C
  8
0
 10
116.8526184295558
 20
11.00951619460306
 30
0.0
 40
55.000000000001698
 50
80.440155424090975
 51
90.0
  0
ARC
  5
25D
  8
0
 10
111.25685209098749
 20
11.009516194604849
 30
0.0
 40
54.999999999999922
 50
90.0
 51
99.559844575909025
  0
LINE
  5
25E
  8
0
 10
116.852618429556
 20
66.009516194604771
 30
0.0
 11
111.25685209098749
 21
66.009516194604771
 31
0.0
  0
ARC
  5
25F
  8
0
 10
125.65473526027181
 20
63.273487908381377
 30
0.0
 40
2.0
 50
56.574450639631657
 51
80.440155424090975
  0
ARC
  5
260
  8
0
 10
102.4547352602718
 20
63.273487908381362
 30
0.0
 40
2.000000000000036
 50
99.559844575909025
 51
123.42554936036829
  0
LINE
  5
261
  8
0
 10
108.0547352602718
 20
43.209516194604753
 30
0.0
 11
109.2547352602718
 21
42.009516194604771
 31
0.0
  0
LINE
  5
262
  8
0
 10
118.8547352602718
 20
42.009516194604771
 30
0.0
 11
120.0547352602718
 21
43.209516194604753
 31
0.0
  0
LINE
  5
263
  8
0
 10
108.0547352602718
 20
53.559516194604782
 30
0.0
 11
108.0547352602718
 21
43.209516194604753
 31
0.0
  0
LINE
  5
264
  8
0
 10
120.0547352602718
 20
43.209516194604753
 30
0.0
 11
120.0547352602718
 21
53.559516194604782
 31
0.0
  0
LINE
  5
265
  8
0
 10
109.2547352602718
 20
54.759516194604771
 30
0.0
 11
108.0547352602718
 21
53.559516194604782
 31
0.0
  0
LINE
  5
266
  8
0
 10
120.0547352602718
 20
53.559516194604782
 30
0.0
 11
118.8547352602718
 21
54.759516194604771
 31
0.0
  0
LINE
  5
267
  8
0
 10
109.2547352602718
 20
56.009516194604771
 30
0.0
 11
109.2547352602718
 21
54.759516194604771
 31
0.0
  0
LINE
  5
268
  8
0
 10
118.8547352602718
 20
54.759516194604771
 30
0.0
 11
118.8547352602718
 21
56.009516194604771
 31
0.0
  0
TEXT
  5
329
  8
0
 62
     3
 10
0.0
 20
0.0
 30
0.0
 40
5.0
  1
BJ811-12010-R
  7
STANDARD1
  0
ENDSEC
  0
EOF
