  0
SECTION
  2
HEADER
  9
$ACADVER
  1
AC1009
  9
$INSBASE
 10
0.0
 20
0.0
 30
0.0
  9
$EXTMIN
 10
0.0
 20
-1.4802182810368341
 30
0.0
  9
$EXTMAX
 10
126.7564411824434
 20
121.98472480867269
 30
0.0
  9
$LIMMIN
 10
0.0
 20
0.0
  9
$LIMMAX
 10
12.0
 20
9.0
  9
$ORTHOMODE
 70
     0
  9
$REGENMODE
 70
     1
  9
$FILLMODE
 70
     1
  9
$QTEXTMODE
 70
     0
  9
$MIRRTEXT
 70
     0
  9
$DRAGMODE
 70
     2
  9
$LTSCALE
 40
5.0
  9
$OSMODE
 70
  3071
  9
$ATTMODE
 70
     1
  9
$TEXTSIZE
 40
0.2
  9
$TRACEWID
 40
0.05
  9
$TEXTSTYLE
  7
STANDARD
  9
$CLAYER
  8
0
  9
$CELTYPE
  6
BYLAYER
  9
$CECOLOR
 62
   256
  9
$DIMSCALE
 40
1.0
  9
$DIMASZ
 40
0.18
  9
$DIMEXO
 40
0.0625
  9
$DIMDLI
 40
0.38
  9
$DIMRND
 40
0.0
  9
$DIMDLE
 40
0.0
  9
$DIMEXE
 40
0.18
  9
$DIMTP
 40
0.0
  9
$DIMTM
 40
0.0
  9
$DIMTXT
 40
0.18
  9
$DIMCEN
 40
0.09
  9
$DIMTSZ
 40
0.0
  9
$DIMTOL
 70
     0
  9
$DIMLIM
 70
     0
  9
$DIMTIH
 70
     1
  9
$DIMTOH
 70
     1
  9
$DIMSE1
 70
     0
  9
$DIMSE2
 70
     0
  9
$DIMTAD
 70
     0
  9
$DIMZIN
 70
     0
  9
$DIMBLK
  1

  9
$DIMASO
 70
     1
  9
$DIMSHO
 70
     1
  9
$DIMPOST
  1

  9
$DIMAPOST
  1

  9
$DIMALT
 70
     0
  9
$DIMALTD
 70
     2
  9
$DIMALTF
 40
25.399999999999999
  9
$DIMLFAC
 40
1.0
  9
$DIMTOFL
 70
     0
  9
$DIMTVP
 40
0.0
  9
$DIMTIX
 70
     0
  9
$DIMSOXD
 70
     0
  9
$DIMSAH
 70
     0
  9
$DIMBLK1
  1

  9
$DIMBLK2
  1

  9
$DIMSTYLE
  2
STANDARD
  9
$DIMCLRD
 70
     0
  9
$DIMCLRE
 70
     0
  9
$DIMCLRT
 70
     0
  9
$DIMTFAC
 40
1.0
  9
$DIMGAP
 40
0.09
  9
$LUNITS
 70
     2
  9
$LUPREC
 70
     4
  9
$SKETCHINC
 40
0.1
  9
$FILLETRAD
 40
0.0
  9
$AUNITS
 70
     0
  9
$AUPREC
 70
     0
  9
$MENU
  1
.
  9
$ELEVATION
 40
0.0
  9
$PELEVATION
 40
0.0
  9
$THICKNESS
 40
0.0
  9
$LIMCHECK
 70
     0
  9
$BLIPMODE
 70
     0
  9
$CHAMFERA
 40
0.0
  9
$CHAMFERB
 40
0.0
  9
$SKPOLY
 70
     0
  9
$TDCREATE
 40
2453083.4120647679
  9
$TDUPDATE
 40
2456598.4302270021
  9
$TDINDWG
 40
0.1468011343
  9
$TDUSRTIMER
 40
0.1468010185
  9
$USRTIMER
 70
     1
  9
$ANGBASE
 50
0.0
  9
$ANGDIR
 70
     0
  9
$PDMODE
 70
     0
  9
$PDSIZE
 40
0.0
  9
$PLINEWID
 40
0.0
  9
$COORDS
 70
     1
  9
$SPLFRAME
 70
     0
  9
$SPLINETYPE
 70
     6
  9
$SPLINESEGS
 70
     8
  9
$ATTDIA
 70
     0
  9
$ATTREQ
 70
     1
  9
$HANDLING
 70
     1
  9
$HANDSEED
  5
337
  9
$SURFTAB1
 70
     6
  9
$SURFTAB2
 70
     6
  9
$SURFTYPE
 70
     6
  9
$SURFU
 70
     6
  9
$SURFV
 70
     6
  9
$UCSNAME
  2

  9
$UCSORG
 10
0.0
 20
0.0
 30
0.0
  9
$UCSXDIR
 10
1.0
 20
0.0
 30
0.0
  9
$UCSYDIR
 10
0.0
 20
1.0
 30
0.0
  9
$PUCSNAME
  2

  9
$PUCSORG
 10
0.0
 20
0.0
 30
0.0
  9
$PUCSXDIR
 10
1.0
 20
0.0
 30
0.0
  9
$PUCSYDIR
 10
0.0
 20
1.0
 30
0.0
  9
$USERI1
 70
     0
  9
$USERI2
 70
     1
  9
$USERI3
 70
     0
  9
$USERI4
 70
     0
  9
$USERI5
 70
     0
  9
$USERR1
 40
0.0
  9
$USERR2
 40
0.0
  9
$USERR3
 40
0.0
  9
$USERR4
 40
0.0
  9
$USERR5
 40
0.0
  9
$WORLDVIEW
 70
     1
  9
$SHADEDGE
 70
     3
  9
$SHADEDIF
 70
    70
  9
$TILEMODE
 70
     1
  9
$MAXACTVP
 70
    64
  9
$PLIMCHECK
 70
     0
  9
$PEXTMIN
 10
0.0
 20
0.0
 30
0.0
  9
$PEXTMAX
 10
0.0
 20
0.0
 30
0.0
  9
$PLIMMIN
 10
0.0
 20
0.0
  9
$PLIMMAX
 10
12.0
 20
9.0
  9
$UNITMODE
 70
     0
  9
$VISRETAIN
 70
     1
  9
$PLINEGEN
 70
     0
  9
$PSLTSCALE
 70
     1
  0
ENDSEC
  0
SECTION
  2
TABLES
  0
TABLE
  2
VPORT
 70
     1
  0
VPORT
  2
*ACTIVE
 70
     0
 10
0.0
 20
0.0
 11
1.0
 21
1.0
 12
66.799494867127223
 22
60.25248036157361
 13
0.0
 23
0.0
 14
0.5
 24
0.5
 15
0.5
 25
0.5
 16
0.0
 26
0.0
 36
1.0
 17
0.0
 27
0.0
 37
0.0
 40
124.57930643170781
 41
1.831871345029239
 42
50.0
 43
0.0
 44
0.0
 50
0.0
 51
0.0
 71
     0
 72
  1000
 73
     1
 74
     2
 75
     0
 76
     0
 77
     0
 78
     0
  0
ENDTAB
  0
TABLE
  2
LTYPE
 70
     3
  0
LTYPE
  2
CONTINUOUS
 70
     0
  3
Solid Line
 72
    65
 73
     0
 40
0.0
  0
LTYPE
  2
CENTER
 70
     0
  3
____ _ ____ _ ____ _ ____ _ ____ _ ____ _ ____
 72
    65
 73
     4
 40
2.0
 49
1.25
 49
-0.25
 49
0.25
 49
-0.25
  0
LTYPE
  2
PHANTOM2
 70
     0
  3
___ _ _ ___ _ _ ___ _ _ ___ _ _
 72
    65
 73
     6
 40
1.25
 49
0.625
 49
-0.125
 49
0.125
 49
-0.125
 49
0.125
 49
-0.125
  0
ENDTAB
  0
TABLE
  2
LAYER
 70
     3
  0
LAYER
  2
0
 70
     0
 62
     7
  6
CONTINUOUS
  0
LAYER
  2
1
 70
     0
 62
     1
  6
CENTER
  0
LAYER
  2
3
 70
     0
 62
     3
  6
CONTINUOUS
  0
ENDTAB
  0
TABLE
  2
STYLE
 70
     2
  0
STYLE
  2
STANDARD
 70
     0
 40
0.0
 41
1.0
 50
0.0
 71
     0
 42
0.2
  3
simplex.shx
  4
bigfont.shx
  0
STYLE
  2
STANDARD1
 70
     0
 40
0.0
 41
1.0
 50
0.0
 71
     0
 42
3.0
  3
txt
  4

  0
ENDTAB
  0
TABLE
  2
VIEW
 70
     0
  0
ENDTAB
  0
TABLE
  2
UCS
 70
     0
  0
ENDTAB
  0
TABLE
  2
APPID
 70
     3
  0
APPID
  2
ACAD
 70
     0
  0
APPID
  2
ACAD_MLEADERVER
 70
     0
  0
APPID
  2
ACAD_NAV_VCDISPLAY
 70
     0
  0
ENDTAB
  0
TABLE
  2
DIMSTYLE
 70
     1
  0
DIMSTYLE
  2
STANDARD
 70
     0
  3

  4

  5

  6

  7

 40
1.0
 41
0.18
 42
0.0625
 43
0.38
 44
0.18
 45
0.0
 46
0.0
 47
0.0
 48
0.0
140
0.18
141
0.09
142
0.0
143
25.399999999999999
144
1.0
145
0.0
146
1.0
147
0.09
 71
     0
 72
     0
 73
     1
 74
     1
 75
     0
 76
     0
 77
     0
 78
     0
170
     0
171
     2
172
     0
173
     0
174
     0
175
     0
176
     0
177
     0
178
     0
  0
ENDTAB
  0
ENDSEC
  0
SECTION
  2
BLOCKS
  0
BLOCK
  8
0
  2
$MODEL_SPACE
 70
     0
 10
0.0
 20
0.0
 30
0.0
  3
$MODEL_SPACE
  1

  0
ENDBLK
  5
21
  8
0
  0
BLOCK
 67
     1
  8
0
  2
$PAPER_SPACE
 70
     0
 10
0.0
 20
0.0
 30
0.0
  3
$PAPER_SPACE
  1

  0
ENDBLK
  5
5B
 67
     1
  8
0
  0
ENDSEC
  0
SECTION
  2
ENTITIES
  0
LINE
  5
18E
  8
1
 10
70.353029338099759
 20
62.009516194604771
 30
0.0
 11
70.353029338099759
 21
37.009516194604771
 31
0.0
  0
LINE
  5
18F
  8
0
 10
107.7038822991848
 20
62.84024602938365
 30
0.0
 11
107.70388229918559
 21
57.178786359824549
 31
0.0
  0
LINE
  5
190
  8
0
 10
120.4055882213592
 20
62.84024602938365
 30
0.0
 11
120.4055882213584
 21
57.178786359825331
 31
0.0
  0
LINE
  5
191
  8
0
 10
103.3782646720362
 20
64.009516194604942
 30
0.0
 11
124.7312058485071
 21
64.009516194604629
 31
0.0
  0
ARC
  5
192
  8
0
 10
123.5810147019003
 20
58.199916355094587
 30
0.0
 40
5.6228100465361432
 50
64.3842474678911
 51
124.38424746800661
  0
LINE
  5
193
  8
0
 10
126.7564411824431
 20
62.84024602938441
 30
0.0
 11
124.7312058485067
 21
64.009516194604942
 31
0.0
  0
LINE
  5
194
  8
0
 10
101.3530293380998
 20
62.84024602938441
 30
0.0
 11
103.3782646720362
 21
64.009516194604942
 31
0.0
  0
ARC
  5
195
  8
0
 10
114.0547352602708
 20
42.805206773850379
 30
0.0
 40
21.017519627780299
 50
72.412046226029531
 51
107.5879537739705
  0
ARC
  5
196
  8
0
 10
104.5284558186426
 20
58.199916355094587
 30
0.0
 40
5.6228100465361432
 50
55.61575253199338
 51
115.6157525321089
  0
LINE
  5
197
  8
1
 10
114.0547352602717
 20
71.009516194604771
 30
0.0
 11
114.0547352602716
 21
37.009516194604771
 31
0.0
  0
LINE
  5
198
  8
3
 10
109.12823526027169
 20
42.136016194604792
 30
0.0
 11
109.12823526027169
 21
54.633016194604771
 31
0.0
  0
LINE
  5
199
  8
3
 10
118.9812352602716
 20
42.136016194604792
 30
0.0
 11
118.9812352602716
 21
54.633016194604771
 31
0.0
  0
LINE
  5
19A
  8
0
 10
101.3530293380999
 20
62.840246029384438
 30
0.0
 11
101.3530293380998
 21
57.178786359824947
 31
0.0
  0
LINE
  5
19B
  8
0
 10
126.7564411824434
 20
62.840246029384268
 30
0.0
 11
126.7564411824434
 21
57.17878635982521
 31
0.0
  0
LINE
  5
19C
  8
0
 10
103.0547352602717
 20
65.209516194604745
 30
0.0
 11
125.0547352602717
 21
65.209516194604745
 31
0.0
  0
LINE
  5
19D
  8
0
 10
109.2547352602716
 20
42.009516194604771
 30
0.0
 11
118.8547352602717
 21
42.009516194604771
 31
0.0
  0
LINE
  5
19E
  8
0
 10
108.0547352602717
 20
43.209516194604753
 30
0.0
 11
120.0547352602717
 21
43.209516194604753
 31
0.0
  0
LINE
  5
19F
  8
0
 10
108.0547352602717
 20
53.559516194604782
 30
0.0
 11
120.0547352602717
 21
53.559516194604782
 31
0.0
  0
LINE
  5
1A0
  8
0
 10
109.2547352602716
 20
54.759516194604771
 30
0.0
 11
118.8547352602717
 21
54.759516194604771
 31
0.0
  0
LINE
  5
1A1
  8
0
 10
103.8547352602717
 20
66.009516194604771
 30
0.0
 11
124.2547352602716
 21
66.009516194604771
 31
0.0
  0
LINE
  5
1A2
  8
0
 10
103.0547352602717
 20
65.209516194604745
 30
0.0
 11
103.0547352602717
 21
63.822726401631911
 31
0.0
  0
LINE
  5
1A3
  8
0
 10
125.0547352602718
 20
63.822726401631691
 30
0.0
 11
125.0547352602717
 21
65.209516194604745
 31
0.0
  0
LINE
  5
1A4
  8
0
 10
108.0547352602717
 20
43.209516194604753
 30
0.0
 11
109.2547352602716
 21
42.009516194604771
 31
0.0
  0
LINE
  5
1A5
  8
0
 10
118.8547352602717
 20
42.009516194604771
 30
0.0
 11
120.0547352602717
 21
43.209516194604753
 31
0.0
  0
LINE
  5
1A6
  8
0
 10
108.0547352602717
 20
53.559516194604782
 30
0.0
 11
108.0547352602717
 21
43.209516194604753
 31
0.0
  0
LINE
  5
1A7
  8
0
 10
120.0547352602717
 20
43.209516194604753
 30
0.0
 11
120.0547352602717
 21
53.559516194604782
 31
0.0
  0
LINE
  5
1A8
  8
0
 10
109.2547352602716
 20
54.759516194604771
 30
0.0
 11
108.0547352602717
 21
53.559516194604782
 31
0.0
  0
LINE
  5
1A9
  8
0
 10
120.0547352602717
 20
53.559516194604782
 30
0.0
 11
118.8547352602717
 21
54.759516194604771
 31
0.0
  0
LINE
  5
1AA
  8
0
 10
109.2547352602716
 20
56.009516194604771
 30
0.0
 11
109.2547352602716
 21
54.759516194604771
 31
0.0
  0
LINE
  5
1AB
  8
0
 10
118.8547352602717
 20
54.759516194604771
 30
0.0
 11
118.8547352602717
 21
56.009516194604771
 31
0.0
  0
LINE
  5
1AC
  8
0
 10
103.8547352602717
 20
66.009516194604771
 30
0.0
 11
103.0547352602717
 21
65.209516194604745
 31
0.0
  0
LINE
  5
1AD
  8
0
 10
125.0547352602717
 20
65.209516194604745
 30
0.0
 11
124.2547352602716
 21
66.009516194604771
 31
0.0
  0
LINE
  5
1AE
  8
0
 10
101.3530293380998
 20
57.178786359824983
 30
0.0
 11
103.3782646720362
 21
56.009516194604487
 31
0.0
  0
ARC
  5
1AF
  8
0
 10
104.5284558186426
 20
61.81911603411482
 30
0.0
 40
5.6228100465361432
 50
244.3842474678911
 51
304.38424746800661
  0
ARC
  5
1B0
  8
0
 10
114.0547352602708
 20
77.213825615358985
 30
0.0
 40
21.017519627780299
 50
252.4120462260295
 51
287.58795377397041
  0
ARC
  5
1B1
  8
0
 10
123.5810147019003
 20
61.81911603411482
 30
0.0
 40
5.6228100465361432
 50
235.61575253199339
 51
295.61575253210879
  0
LINE
  5
1B2
  8
0
 10
126.7564411824431
 20
57.178786359824983
 30
0.0
 11
124.7312058485067
 21
56.009516194604487
 31
0.0
  0
LINE
  5
1B3
  8
0
 10
124.7312058485072
 20
56.009516194604771
 30
0.0
 11
103.3782646720357
 21
56.009516194604771
 31
0.0
  0
LINE
  5
1B4
  8
1
 10
70.353029338099759
 20
71.009516194604771
 30
0.0
 11
70.353029338099759
 21
37.009516194604771
 31
0.0
  0
LINE
  5
1B5
  8
3
 10
65.426529338099783
 20
42.136016194604792
 30
0.0
 11
65.426529338099783
 21
54.633016194604771
 31
0.0
  0
LINE
  5
1B6
  8
3
 10
75.279529338099735
 20
42.136016194604792
 30
0.0
 11
75.279529338099735
 21
54.633016194604771
 31
0.0
  0
LINE
  5
1B7
  8
0
 10
59.353029338099759
 20
65.209516194604745
 30
0.0
 11
81.353029338099759
 21
65.209516194604745
 31
0.0
  0
LINE
  5
1B8
  8
0
 10
65.553029338099748
 20
42.009516194604771
 30
0.0
 11
75.15302933809977
 21
42.009516194604771
 31
0.0
  0
LINE
  5
1B9
  8
0
 10
64.353029338099759
 20
43.209516194604753
 30
0.0
 11
76.353029338099759
 21
43.209516194604753
 31
0.0
  0
LINE
  5
1BA
  8
0
 10
64.353029338099759
 20
53.559516194604782
 30
0.0
 11
76.353029338099759
 21
53.559516194604782
 31
0.0
  0
LINE
  5
1BB
  8
0
 10
65.553029338099748
 20
54.759516194604771
 30
0.0
 11
75.15302933809977
 21
54.759516194604771
 31
0.0
  0
LINE
  5
1BC
  8
0
 10
60.15302933809977
 20
66.009516194604771
 30
0.0
 11
80.553029338099734
 21
66.009516194604771
 31
0.0
  0
LINE
  5
1BD
  8
0
 10
64.353029338099759
 20
43.209516194604753
 30
0.0
 11
65.553029338099748
 21
42.009516194604771
 31
0.0
  0
LINE
  5
1BE
  8
0
 10
75.15302933809977
 20
42.009516194604771
 30
0.0
 11
76.353029338099759
 21
43.209516194604753
 31
0.0
  0
LINE
  5
1BF
  8
0
 10
64.353029338099759
 20
53.559516194604782
 30
0.0
 11
64.353029338099759
 21
43.209516194604753
 31
0.0
  0
LINE
  5
1C0
  8
0
 10
76.353029338099759
 20
43.209516194604753
 30
0.0
 11
76.353029338099759
 21
53.559516194604782
 31
0.0
  0
LINE
  5
1C1
  8
0
 10
65.553029338099748
 20
54.759516194604771
 30
0.0
 11
64.353029338099759
 21
53.559516194604782
 31
0.0
  0
LINE
  5
1C2
  8
0
 10
76.353029338099759
 20
53.559516194604782
 30
0.0
 11
75.15302933809977
 21
54.759516194604771
 31
0.0
  0
LINE
  5
1C3
  8
0
 10
65.553029338099748
 20
56.009516194604771
 30
0.0
 11
65.553029338099748
 21
54.759516194604771
 31
0.0
  0
LINE
  5
1C4
  8
0
 10
75.15302933809977
 20
54.759516194604771
 30
0.0
 11
75.15302933809977
 21
56.009516194604771
 31
0.0
  0
LINE
  5
1C5
  8
0
 10
60.15302933809977
 20
66.009516194604771
 30
0.0
 11
59.353029338099759
 21
65.209516194604745
 31
0.0
  0
LINE
  5
1C6
  8
0
 10
81.353029338099759
 20
65.209516194604745
 30
0.0
 11
80.553029338099734
 21
66.009516194604771
 31
0.0
  0
LINE
  5
1C7
  8
0
 10
59.676558749864398
 20
56.009516194604771
 30
0.0
 11
81.029499926335063
 21
56.009516194604771
 31
0.0
  0
LINE
  5
1C8
  8
0
 10
81.029499926333642
 20
64.009516194604771
 30
0.0
 11
59.676558749865762
 21
64.009516194604771
 31
0.0
  0
ARC
  5
1C9
  8
0
 10
64.853029338099745
 20
47.936776634268313
 30
0.0
 40
15.88594976736252
 50
69.743841999607483
 51
110.2561580003926
  0
LINE
  5
1CA
  8
0
 10
59.353029338099638
 20
63.82272640163086
 30
0.0
 11
59.676558749865762
 21
64.009516194604771
 31
0.0
  0
ARC
  5
1CB
  8
0
 10
64.853029338099745
 20
72.08225575494032
 30
0.0
 40
15.88594976736252
 50
249.74384199960741
 51
290.25615800039247
  0
LINE
  5
1CC
  8
0
 10
59.353029338099638
 20
56.196305987577858
 30
0.0
 11
59.676558749865762
 21
56.009516194603968
 31
0.0
  0
LINE
  5
1CD
  8
0
 10
59.353029338099468
 20
65.209516194604745
 30
0.0
 11
59.353029338099823
 21
56.19630598757783
 31
0.0
  0
LINE
  5
1CE
  8
0
 10
70.353029338099759
 20
62.840246029384048
 30
0.0
 11
70.353029338099759
 21
57.17878635982413
 31
0.0
  0
LINE
  5
1CF
  8
0
 10
81.353029338099816
 20
65.209516194604745
 30
0.0
 11
81.353029338099816
 21
56.19630598757783
 31
0.0
  0
ARC
  5
1D0
  8
0
 10
75.853029338099759
 20
72.08225575494032
 30
0.0
 40
15.88594976736252
 50
249.74384199960741
 51
290.25615800039247
  0
LINE
  5
1D1
  8
0
 10
81.353029338099816
 20
56.196305987577858
 30
0.0
 11
81.029499926333685
 21
56.009516194603968
 31
0.0
  0
LINE
  5
1D2
  8
0
 10
81.353029338099816
 20
63.82272640163086
 30
0.0
 11
81.029499926333685
 21
64.009516194604771
 31
0.0
  0
ARC
  5
1D3
  8
0
 10
75.853029338099759
 20
47.936776634268313
 30
0.0
 40
15.88594976736252
 50
69.743841999607483
 51
110.2561580003926
  0
LINE
  5
1D4
  8
1
 10
70.353029338099759
 20
85.034307580536762
 30
0.0
 11
70.353029338099702
 21
121.98472480867269
 31
0.0
  0
LINE
  5
1D5
  8
1
 10
54.353029338099702
 20
103.5095161946048
 30
0.0
 11
86.353029338099645
 21
103.5095161946048
 31
0.0
  0
LINE
  5
1D6
  8
0
 10
59.353029338099702
 20
97.158663233518894
 30
0.0
 11
70.353029338099816
 21
90.807810272433017
 31
0.0
  0
LINE
  5
1D7
  8
0
 10
70.353029338099816
 20
116.2112221167765
 30
0.0
 11
59.353029338099759
 21
109.86036915569061
 31
0.0
  0
LINE
  5
1D8
  8
0
 10
59.353029338099759
 20
109.86036915569071
 30
0.0
 11
59.353029338099759
 21
97.158663233518894
 31
0.0
  0
LINE
  5
1D9
  8
0
 10
81.353029338099702
 20
109.86036915569071
 30
0.0
 11
70.353029338099702
 21
116.2112221167765
 31
0.0
  0
LINE
  5
1DA
  8
0
 10
81.353029338099645
 20
97.158663233518837
 30
0.0
 11
81.353029338099702
 21
109.86036915569061
 31
0.0
  0
LINE
  5
1DB
  8
0
 10
70.353029338099816
 20
90.807810272433017
 30
0.0
 11
81.353029338099645
 21
97.158663233518837
 31
0.0
  0
CIRCLE
  5
1DC
  8
0
 10
70.353029338099759
 20
103.5095161946048
 30
0.0
 40
11.0
  0
CIRCLE
  5
1DD
  8
0
 10
70.353029338099759
 20
103.5095161946048
 30
0.0
 40
10.199999999999999
  0
TEXT
  5
2A3
  8
0
 62
     3
 10
0.0
 20
0.0
 30
0.0
 40
5.0
  1
BJ811-12010-F
  7
STANDARD1
  0
ENDSEC
  0
EOF
